  0
SECTION
  2
HEADER
  9
$ACADVER
  1
AC1009
  9
$INSBASE
 10
0.0
 20
0.0
 30
0.0
  9
$EXTMIN
 10
-277.236076
 20
-196.242163
 30
1.000000E+020
  9
$EXTMAX
 10
2989.697689
 20
2125.699805
 30
-1.000000E+020
  9
$LIMMIN
 10
0.0
 20
0.0
  9
$LIMMAX
 10
420.0
 20
297.0
  9
$ORTHOMODE
 70
     0
  9
$REGENMODE
 70
     1
  9
$FILLMODE
 70
     1
  9
$QTEXTMODE
 70
     0
  9
$MIRRTEXT
 70
     1
  9
$DRAGMODE
 70
     2
  9
$LTSCALE
 40
1.000000
  9
$OSMODE
 70
   103
  9
$ATTMODE
 70
     1
  9
$TEXTSIZE
 40
2.5
  9
$TRACEWID
 40
1.0
  9
$TEXTSTYLE
  7
STANDARD
  9
$CLAYER
  8
RAHM4
  9
$CELTYPE
  6
BYLAYER
  9
$CECOLOR
 62
   256
  9
$DIMSCALE
 40
1.0
  9
$DIMASZ
 40
2.5
  9
$DIMEXO
 40
0.625
  9
$DIMDLI
 40
3.75
  9
$DIMRND
 40
0.0
  9
$DIMDLE
 40
0.0
  9
$DIMEXE
 40
1.25
  9
$DIMTP
 40
0.0
  9
$DIMTM
 40
0.0
  9
$DIMTXT
 40
2.5
  9
$DIMCEN
 40
2.5
  9
$DIMTSZ
 40
0.0
  9
$DIMTOL
 70
     0
  9
$DIMLIM
 70
     0
  9
$DIMTIH
 70
     0
  9
$DIMTOH
 70
     0
  9
$DIMSE1
 70
     0
  9
$DIMSE2
 70
     0
  9
$DIMTAD
 70
     1
  9
$DIMZIN
 70
     8
  9
$DIMBLK
  1

  9
$DIMASO
 70
     1
  9
$DIMSHO
 70
     1
  9
$DIMPOST
  1

  9
$DIMAPOST
  1

  9
$DIMALT
 70
     0
  9
$DIMALTD
 70
     3
  9
$DIMALTF
 40
0.03937
  9
$DIMLFAC
 40
1.0
  9
$DIMTOFL
 70
     1
  9
$DIMTVP
 40
0.0
  9
$DIMTIX
 70
     0
  9
$DIMSOXD
 70
     0
  9
$DIMSAH
 70
     0
  9
$DIMBLK1
  1

  9
$DIMBLK2
  1

  9
$DIMSTYLE
  2
ISO-25
  9
$DIMCLRD
 70
     0
  9
$DIMCLRE
 70
     0
  9
$DIMCLRT
 70
     0
  9
$DIMTFAC
 40
1.0
  9
$DIMGAP
 40
0.625
  9
$LUNITS
 70
     2
  9
$LUPREC
 70
     4
  9
$SKETCHINC
 40
1.0
  9
$FILLETRAD
 40
10.0
  9
$AUNITS
 70
     0
  9
$AUPREC
 70
     0
  9
$MENU
  1
.
  9
$ELEVATION
 40
0.0
  9
$PELEVATION
 40
0.0
  9
$THICKNESS
 40
0.0
  9
$LIMCHECK
 70
     0
  9
$BLIPMODE
 70
     0
  9
$CHAMFERA
 40
10.0
  9
$CHAMFERB
 40
10.0
  9
$SKPOLY
 70
     0
  9
$TDCREATE
 40
2452830.438142
  9
$TDUPDATE
 40
2453952.51541
  9
$TDINDWG
 40
0.030794
  9
$TDUSRTIMER
 40
0.030789
  9
$USRTIMER
 70
     1
  9
$ANGBASE
 50
0.0
  9
$ANGDIR
 70
     0
  9
$PDMODE
 70
     0
  9
$PDSIZE
 40
0.0
  9
$PLINEWID
 40
0.0
  9
$COORDS
 70
     1
  9
$SPLFRAME
 70
     0
  9
$SPLINETYPE
 70
     6
  9
$SPLINESEGS
 70
     8
  9
$ATTDIA
 70
     0
  9
$ATTREQ
 70
     1
  9
$SURFTAB1
 70
     6
  9
$SURFTAB2
 70
     6
  9
$SURFTYPE
 70
     6
  9
$SURFU
 70
     6
  9
$SURFV
 70
     6
  9
$UCSNAME
  2

  9
$UCSORG
 10
0.0
 20
0.0
 30
0.0
  9
$UCSXDIR
 10
1.0
 20
0.0
 30
0.0
  9
$UCSYDIR
 10
0.0
 20
1.0
 30
0.0
  9
$PUCSNAME
  2

  9
$PUCSORG
 10
0.0
 20
0.0
 30
0.0
  9
$PUCSXDIR
 10
1.0
 20
0.0
 30
0.0
  9
$PUCSYDIR
 10
0.0
 20
1.0
 30
0.0
  9
$USERI1
 70
     0
  9
$USERI2
 70
     0
  9
$USERI3
 70
     0
  9
$USERI4
 70
     0
  9
$USERI5
 70
     0
  9
$USERR1
 40
0.0
  9
$USERR2
 40
0.0
  9
$USERR3
 40
0.0
  9
$USERR4
 40
0.0
  9
$USERR5
 40
0.0
  9
$WORLDVIEW
 70
     1
  9
$SHADEDGE
 70
     3
  9
$SHADEDIF
 70
    70
  9
$TILEMODE
 70
     1
  9
$MAXACTVP
 70
    64
  9
$PLIMCHECK
 70
     0
  9
$PEXTMIN
 10
1.000000E+020
 20
1.000000E+020
 30
1.000000E+020
  9
$PEXTMAX
 10
-1.000000E+020
 20
-1.000000E+020
 30
-1.000000E+020
  9
$PLIMMIN
 10
0.0
 20
0.0
  9
$PLIMMAX
 10
420.0
 20
297.0
  9
$UNITMODE
 70
     0
  9
$VISRETAIN
 70
     1
  9
$PLINEGEN
 70
     0
  9
$PSLTSCALE
 70
     1
  0
ENDSEC
  0
SECTION
  2
TABLES
  0
TABLE
  2
VPORT
 70
     2
  0
VPORT
  2
*ACTIVE
 70
     0
 10
0.0
 20
0.0
 11
1.0
 21
1.0
 12
424.672198
 22
148.5
 13
0.0
 23
0.0
 14
10.0
 24
10.0
 15
10.0
 25
10.0
 16
0.0
 26
0.0
 36
1.0
 17
0.0
 27
0.0
 37
0.0
 40
297.194831
 41
2.858921
 42
50.0
 43
0.0
 44
0.0
 50
0.0
 51
0.0
 71
     0
 72
   100
 73
     1
 74
     3
 75
     0
 76
     0
 77
     0
 78
     0
  0
ENDTAB
  0
TABLE
  2
LTYPE
 70
     5
  0
LTYPE
  2
CONTINUOUS
  70
0
  3
Solid line
 72
65
 73
0
 40
0.0
  0
LTYPE
  2
ACAD_ISO10W100
  70
0
  3
ISO Strichpunktlinie __ . __ . __ . __ . __ . _
 72
65
 73
4
 40
18.0
 49
12.0
 49
-3.0
 49
0.0
 49
-3.0
  0
LTYPE
  2
ACAD_ISO02W100
  70
0
  3
ISO Strichlinie __ __ __ __ __ __ __ __ __ __ _
 72
65
 73
2
 40
15.0
 49
12.0
 49
-3.0
  0
LTYPE
  2
STRICHLINIE
  70
0
  3
Strichlinie __ __ __ __ __ __ __ __ __ __ __ __
 72
65
 73
2
 40
0.75
 49
0.5
 49
-0.25
  0
LTYPE
  2
STRICHPUNKT
  70
0
  3
Strichpunkt __ . __ . __ . __ . __ . __ . __ . 
 72
65
 73
4
 40
1.0
 49
0.5
 49
-0.25
 49
0.0
 49
-0.25
  0
ENDTAB
  0
TABLE
  2
LAYER
 70
    14
  0
LAYER
  2
0
 70
0
 62
7
  6
CONTINUOUS
  0
LAYER
  2
REX_1
 70
0
 62
7
  6
CONTINUOUS
  0
LAYER
  2
REX_7
 70
0
 62
5
  6
STRICHPUNKT
  0
LAYER
  2
SILHOUETTE
 70
0
 62
7
  6
CONTINUOUS
  0
LAYER
  2
REX_8
 70
0
 62
1
  6
CONTINUOUS
  0
LAYER
  2
REX_3
 70
0
 62
6
  6
STRICHLINIE
  0
LAYER
  2
REX_4
 70
0
 62
5
  6
CONTINUOUS
  0
LAYER
  2
REX_5
 70
0
 62
3
  6
CONTINUOUS
  0
LAYER
  2
REX_6
 70
0
 62
40
  6
CONTINUOUS
  0
LAYER
  2
RAHM2
 70
0
 62
7
  6
CONTINUOUS
  0
LAYER
  2
RAHM3
 70
0
 62
7
  6
CONTINUOUS
  0
LAYER
  2
RAHM4
 70
0
 62
7
  6
CONTINUOUS
  0
LAYER
  2
RAHM5
 70
0
 62
7
  6
CONTINUOUS
  0
LAYER
  2
RAHMEN
 70
0
 62
7
  6
CONTINUOUS
  0
ENDTAB
  0
TABLE
  2
STYLE
 70
     3
  0
STYLE
  2
STANDARD
 70
     0
 40
0.0
 41
1.0
 50
0.0
 71
     0
 42
2.5
  3
isocp.shx
  4

  0
STYLE
  2
LOGO
 70
     0
 40
0.0
 41
1.0
 50
0.0
 71
     0
 42
0.2
  3
isocp.shx
  4

  0
STYLE
  2

 70
     1
 40
0.0
 41
1.0
 50
0.0
 71
     0
 42
2.5
  3
ltypeshp.shx
  4

  0
ENDTAB
  0
TABLE
  2
VIEW
 70
     0
  0
ENDTAB
  0
TABLE
  2
UCS
 70
     0
  0
ENDTAB
  0
TABLE
  2
APPID
 70
2
  0
APPID
  2
ACAD
 70
     0
  0
APPID
  2
DCO15
 70
     0
  0
ENDTAB
  0
TABLE
  2
DIMSTYLE
 70
     1
  0
DIMSTYLE
  2
ISO-25
 70
     0
  3

  4

  5

  6

  7

 40
1.0
 41
2.5
 42
0.625
 43
3.75
 44
1.25
 45
0.0
 46
0.0
 47
0.0
 48
0.0
140
2.5
141
2.5
142
0.0
143
0.03937
144
1.0
145
0.0
146
1.0
147
0.625
 71
     0
 72
     0
 73
     0
 74
     0
 75
     0
 76
     0
 77
     1
 78
     8
170
     0
171
     3
172
     1
173
     0
174
     0
175
     0
176
     0
177
     0
178
     0
  0
ENDTAB
  0
ENDSEC
  0
SECTION
  2
BLOCKS
  0
BLOCK
  8
REX_7
  2
8REX_MID_Jan_16_22-21-48
 70
0
 10
0.0000
 20
0.0000
 30
0.0000
  3
8REX_MID_Jan_16_22-21-48
  0
ENDBLK
  8
0
  0
BLOCK
  8
REX_1
  2
_VIEW_CUT_Jan_16_22-21-48
 70
0
 10
0.0000
 20
0.0000
 30
0.0000
  3
_VIEW_CUT_Jan_16_22-21-48
  0
INSERT
  8
REX_6
  2
8REX_MID_Jan_16_22-21-48
 10
0.0000
 20
0.0000
 30
0.0000
  0
POLYLINE
  6
continous
  8
BYBLOCK
 70
0
 66
1
  0
VERTEX
  8
0
 10
-3.0471
 20
7.7591
 30
0.0000
  0
VERTEX
  8
0
 10
-3.5870
 20
7.1712
 30
0.0000
  0
SEQEND
  0
POLYLINE
  6
continous
  8
BYBLOCK
 70
0
 66
1
  0
VERTEX
  8
0
 10
-3.0465
 20
8.6129
 30
0.0000
  0
VERTEX
  8
0
 10
-4.4966
 20
6.9069
 30
0.0000
  0
SEQEND
  0
LINE
  6
continous
  8
BYBLOCK
 10
-4.4966
 20
6.5240
 30
0.0000
 11
-4.9916
 21
5.9630
 31
0.0000
  0
LINE
  6
continous
  8
BYBLOCK
 10
7.0711
 20
-1.6515
 30
0.0000
 11
2715.9971
 21
1913.8485
 31
0.0000
  0
LINE
  6
continous
  8
BYBLOCK
 10
7.0711
 20
0.1134
 30
0.0000
 11
2715.9971
 21
1915.6134
 31
0.0000
  0
LINE
  6
continous
  8
BYBLOCK
 10
6.5761
 20
0.7491
 30
0.0000
 11
2715.5022
 21
1916.2491
 31
0.0000
  0
LINE
  6
continous
  8
BYBLOCK
 10
6.5761
 20
1.8200
 30
0.0000
 11
2715.5022
 21
1917.3200
 31
0.0000
  0
LINE
  6
continous
  8
BYBLOCK
 10
5.6176
 20
3.3708
 30
0.0000
 11
2714.5437
 21
1918.8708
 31
0.0000
  0
LINE
  6
continous
  8
BYBLOCK
 10
5.1265
 20
4.0015
 30
0.0000
 11
2714.0526
 21
1919.5015
 31
0.0000
  0
LINE
  6
continous
  8
BYBLOCK
 10
6.5761
 20
7.8100
 30
0.0000
 11
2715.5022
 21
1923.3100
 31
0.0000
  0
LINE
  6
continous
  8
BYBLOCK
 10
6.5761
 20
8.9551
 30
0.0000
 11
2715.5022
 21
1924.4551
 31
0.0000
  0
LINE
  6
continous
  8
BYBLOCK
 10
-2.6906
 20
15.8576
 30
0.0000
 11
-4.3292
 21
14.2046
 31
0.0000
  0
LINE
  6
continous
  8
BYBLOCK
 10
6.2261
 20
9.5526
 30
0.0000
 11
4.3292
 21
8.0822
 31
0.0000
  0
LINE
  6
continous
  8
BYBLOCK
 10
6.5761
 20
8.9551
 30
0.0000
 11
6.2261
 21
9.5526
 31
0.0000
  0
LINE
  6
continous
  8
BYBLOCK
 10
6.5761
 20
8.9551
 30
0.0000
 11
4.4966
 21
7.7964
 31
0.0000
  0
LINE
  6
continous
  8
BYBLOCK
 10
6.5761
 20
7.8100
 30
0.0000
 11
6.5761
 21
8.9551
 31
0.0000
  0
POLYLINE
  6
continous
  8
BYBLOCK
 70
0
 66
1
  0
VERTEX
  8
0
 10
6.5761
 20
7.8100
 30
0.0000
  0
VERTEX
  8
0
 10
4.4966
 20
7.0231
 30
0.0000
  0
SEQEND
  0
POLYLINE
  6
continous
  8
BYBLOCK
 70
0
 66
1
  0
VERTEX
  8
0
 10
4.3273
 20
7.0718
 30
0.0000
  0
VERTEX
  8
0
 10
3.5870
 20
6.7588
 30
0.0000
  0
SEQEND
  0
LINE
  6
continous
  8
BYBLOCK
 10
5.1265
 20
4.0015
 30
0.0000
 11
5.1265
 21
7.2662
 31
0.0000
  0
LINE
  6
continous
  8
BYBLOCK
 10
5.1265
 20
4.0015
 30
0.0000
 11
3.0471
 21
2.7920
 31
0.0000
  0
LINE
  6
continous
  8
BYBLOCK
 10
5.6176
 20
3.3708
 30
0.0000
 11
5.1265
 21
4.0015
 31
0.0000
  0
POLYLINE
  6
continous
  8
BYBLOCK
 70
0
 66
1
  0
VERTEX
  8
0
 10
5.6176
 20
3.3708
 30
0.0000
  0
VERTEX
  8
0
 10
3.5870
 20
2.0984
 30
0.0000
  0
SEQEND
  0
POLYLINE
  6
continous
  8
BYBLOCK
 70
0
 66
1
  0
VERTEX
  8
0
 10
5.6176
 20
3.3708
 30
0.0000
  0
VERTEX
  8
0
 10
5.7376
 20
2.9867
 30
0.0000
  0
VERTEX
  8
0
 10
5.9350
 20
2.5922
 30
0.0000
  0
VERTEX
  8
0
 10
6.1946
 20
2.2174
 30
0.0000
  0
VERTEX
  8
0
 10
6.4966
 20
1.8910
 30
0.0000
  0
VERTEX
  8
0
 10
6.5761
 20
1.8200
 30
0.0000
  0
SEQEND
  0
POLYLINE
  6
continous
  8
BYBLOCK
 70
0
 66
1
  0
VERTEX
  8
0
 10
6.5761
 20
1.8200
 30
0.0000
  0
VERTEX
  8
0
 10
4.4966
 20
0.5477
 30
0.0000
  0
SEQEND
  0
LINE
  6
continous
  8
BYBLOCK
 10
6.5761
 20
0.7491
 30
0.0000
 11
6.5761
 21
1.8200
 31
0.0000
  0
LINE
  6
continous
  8
BYBLOCK
 10
6.5761
 20
0.7491
 30
0.0000
 11
4.4966
 21
-0.4604
 31
0.0000
  0
LINE
  6
continous
  8
BYBLOCK
 10
7.0711
 20
0.1134
 30
0.0000
 11
6.5761
 21
0.7491
 31
0.0000
  0
LINE
  6
continous
  8
BYBLOCK
 10
7.0711
 20
0.1134
 30
0.0000
 11
4.9916
 21
-1.0962
 31
0.0000
  0
LINE
  6
continous
  8
BYBLOCK
 10
7.0711
 20
-1.6515
 30
0.0000
 11
7.0711
 21
0.1134
 31
0.0000
  0
LINE
  6
continous
  8
BYBLOCK
 10
7.0711
 20
-1.6515
 30
0.0000
 11
4.9916
 21
-2.5520
 31
0.0000
  0
LINE
  6
continous
  8
BYBLOCK
 10
-4.9916
 20
4.5072
 30
0.0000
 11
-4.3257
 21
3.3704
 31
0.0000
  0
LINE
  6
continous
  8
BYBLOCK
 10
-4.9916
 20
5.9630
 30
0.0000
 11
-4.9916
 21
4.5072
 31
0.0000
  0
LINE
  6
continous
  8
BYBLOCK
 10
-4.4966
 20
5.8988
 30
0.0000
 11
-4.9916
 21
5.9630
 31
0.0000
  0
LINE
  6
continous
  8
BYBLOCK
 10
-4.4966
 20
6.9069
 30
0.0000
 11
-4.4966
 21
5.8988
 31
0.0000
  0
POLYLINE
  6
continous
  8
BYBLOCK
 70
0
 66
1
  0
VERTEX
  8
0
 10
-3.6945
 20
7.0099
 30
0.0000
  0
VERTEX
  8
0
 10
-3.8707
 20
6.8859
 30
0.0000
  0
VERTEX
  8
0
 10
-4.0942
 20
6.8368
 30
0.0000
  0
VERTEX
  8
0
 10
-4.3784
 20
6.8702
 30
0.0000
  0
VERTEX
  8
0
 10
-4.4966
 20
6.9069
 30
0.0000
  0
SEQEND
  0
POLYLINE
  6
continous
  8
BYBLOCK
 70
0
 66
1
  0
VERTEX
  8
0
 10
-3.5870
 20
7.1712
 30
0.0000
  0
VERTEX
  8
0
 10
-3.6945
 20
7.0099
 30
0.0000
  0
SEQEND
  0
LINE
  6
continous
  8
BYBLOCK
 10
-3.0471
 20
7.1012
 30
0.0000
 11
-3.5870
 21
7.1712
 31
0.0000
  0
LINE
  6
continous
  8
BYBLOCK
 10
-3.0471
 20
11.1380
 30
0.0000
 11
-3.0471
 21
7.1012
 31
0.0000
  0
LINE
  6
continous
  8
BYBLOCK
 10
-3.5870
 20
11.8316
 30
0.0000
 11
-3.0471
 21
11.1380
 31
0.0000
  0
POLYLINE
  6
continous
  8
BYBLOCK
 70
0
 66
1
  0
VERTEX
  8
0
 10
-4.4966
 20
13.3823
 30
0.0000
  0
VERTEX
  8
0
 10
-4.1548
 20
12.9693
 30
0.0000
  0
VERTEX
  8
0
 10
-3.8682
 20
12.5135
 30
0.0000
  0
VERTEX
  8
0
 10
-3.6562
 20
12.0454
 30
0.0000
  0
VERTEX
  8
0
 10
-3.5870
 20
11.8316
 30
0.0000
  0
SEQEND
  0
LINE
  6
continous
  8
BYBLOCK
 10
-4.3292
 20
14.2046
 30
0.0000
 11
-4.4966
 21
14.1556
 31
0.0000
  0
LINE
  6
continous
  8
BYBLOCK
 10
4.3292
 20
8.0822
 30
0.0000
 11
-4.3292
 21
14.2046
 31
0.0000
  0
LINE
  6
continous
  8
BYBLOCK
 10
4.4966
 20
7.7964
 30
0.0000
 11
4.3292
 21
8.0822
 31
0.0000
  0
LINE
  6
continous
  8
BYBLOCK
 10
4.4966
 20
7.0231
 30
0.0000
 11
4.4966
 21
7.7964
 31
0.0000
  0
POLYLINE
  6
continous
  8
BYBLOCK
 70
0
 66
1
  0
VERTEX
  8
0
 10
3.8683
 20
7.0430
 30
0.0000
  0
VERTEX
  8
0
 10
4.0924
 20
7.0932
 30
0.0000
  0
VERTEX
  8
0
 10
4.3779
 20
7.0599
 30
0.0000
  0
VERTEX
  8
0
 10
4.4966
 20
7.0231
 30
0.0000
  0
SEQEND
  0
POLYLINE
  6
continous
  8
BYBLOCK
 70
0
 66
1
  0
VERTEX
  8
0
 10
3.5870
 20
6.7588
 30
0.0000
  0
VERTEX
  8
0
 10
3.7177
 20
6.9434
 30
0.0000
  0
VERTEX
  8
0
 10
3.8683
 20
7.0430
 30
0.0000
  0
SEQEND
  0
LINE
  6
continous
  8
BYBLOCK
 10
3.0471
 20
6.8289
 30
0.0000
 11
3.5870
 21
6.7588
 31
0.0000
  0
LINE
  6
continous
  8
BYBLOCK
 10
3.0471
 20
2.7920
 30
0.0000
 11
3.0471
 21
6.8289
 31
0.0000
  0
LINE
  6
continous
  8
BYBLOCK
 10
3.5870
 20
2.0984
 30
0.0000
 11
3.0471
 21
2.7920
 31
0.0000
  0
POLYLINE
  6
continous
  8
BYBLOCK
 70
0
 66
1
  0
VERTEX
  8
0
 10
4.4966
 20
0.5477
 30
0.0000
  0
VERTEX
  8
0
 10
4.1548
 20
0.9607
 30
0.0000
  0
VERTEX
  8
0
 10
3.8682
 20
1.4165
 30
0.0000
  0
VERTEX
  8
0
 10
3.6562
 20
1.8846
 30
0.0000
  0
VERTEX
  8
0
 10
3.5870
 20
2.0984
 30
0.0000
  0
SEQEND
  0
LINE
  6
continous
  8
BYBLOCK
 10
4.4966
 20
-0.4604
 30
0.0000
 11
4.4966
 21
0.5477
 31
0.0000
  0
LINE
  6
continous
  8
BYBLOCK
 10
4.9916
 20
-1.0962
 30
0.0000
 11
4.4966
 21
-0.4604
 31
0.0000
  0
LINE
  6
continous
  8
BYBLOCK
 10
4.9916
 20
-2.5520
 30
0.0000
 11
4.9916
 21
-1.0962
 31
0.0000
  0
LINE
  6
continous
  8
BYBLOCK
 10
4.3257
 20
-2.7470
 30
0.0000
 11
4.9916
 21
-2.5520
 31
0.0000
  0
LINE
  6
continous
  8
BYBLOCK
 10
-4.3257
 20
3.3704
 30
0.0000
 11
4.3257
 21
-2.7470
 31
0.0000
  0
LINE
  6
continous
  8
BYBLOCK
 10
-3.0406
 20
15.7551
 30
0.0000
 11
-4.4966
 21
14.1556
 31
0.0000
  0
LINE
  6
continous
  8
BYBLOCK
 10
-4.4966
 20
14.1556
 30
0.0000
 11
-4.4966
 21
13.3823
 31
0.0000
  0
POLYLINE
  6
continous
  8
BYBLOCK
 70
0
 66
1
  0
VERTEX
  8
0
 10
2690.0463
 20
1917.2344
 30
0.0000
  0
VERTEX
  8
0
 10
2689.6383
 20
1916.8916
 30
0.0000
  0
VERTEX
  8
0
 10
2689.3189
 20
1916.5046
 30
0.0000
  0
VERTEX
  8
0
 10
2689.0976
 20
1916.0847
 30
0.0000
  0
VERTEX
  8
0
 10
2688.9809
 20
1915.6443
 30
0.0000
  0
VERTEX
  8
0
 10
2688.9630
 20
1915.4204
 30
0.0000
  0
SEQEND
  0
LINE
  6
continous
  8
BYBLOCK
 10
2690.0463
 20
1917.2344
 30
0.0000
 11
2690.0463
 21
1917.3051
 31
0.0000
  0
POLYLINE
  6
continous
  8
BYBLOCK
 70
0
 66
1
  0
VERTEX
  8
0
 10
2696.3623
 20
1915.4189
 30
0.0000
  0
VERTEX
  8
0
 10
2696.2983
 20
1915.8701
 30
0.0000
  0
VERTEX
  8
0
 10
2696.1251
 20
1916.3068
 30
0.0000
  0
VERTEX
  8
0
 10
2695.8478
 20
1916.7157
 30
0.0000
  0
VERTEX
  8
0
 10
2695.4748
 20
1917.0846
 30
0.0000
  0
VERTEX
  8
0
 10
2694.9675
 20
1917.4311
 30
0.0000
  0
VERTEX
  8
0
 10
2694.3764
 20
1917.7032
 30
0.0000
  0
VERTEX
  8
0
 10
2693.7230
 20
1917.8910
 30
0.0000
  0
VERTEX
  8
0
 10
2693.0311
 20
1917.9877
 30
0.0000
  0
VERTEX
  8
0
 10
2692.3258
 20
1917.9898
 30
0.0000
  0
VERTEX
  8
0
 10
2691.6327
 20
1917.8973
 30
0.0000
  0
VERTEX
  8
0
 10
2690.9771
 20
1917.7135
 30
0.0000
  0
VERTEX
  8
0
 10
2690.3827
 20
1917.4450
 30
0.0000
  0
VERTEX
  8
0
 10
2690.0463
 20
1917.2344
 30
0.0000
  0
SEQEND
  0
POLYLINE
  6
continous
  8
BYBLOCK
 70
0
 66
1
  0
VERTEX
  8
0
 10
2647.6199
 20
1887.2344
 30
0.0000
  0
VERTEX
  8
0
 10
2647.2119
 20
1886.8916
 30
0.0000
  0
VERTEX
  8
0
 10
2646.8925
 20
1886.5046
 30
0.0000
  0
VERTEX
  8
0
 10
2646.6712
 20
1886.0847
 30
0.0000
  0
VERTEX
  8
0
 10
2646.5545
 20
1885.6443
 30
0.0000
  0
VERTEX
  8
0
 10
2646.5366
 20
1885.4204
 30
0.0000
  0
SEQEND
  0
LINE
  6
continous
  8
BYBLOCK
 10
2647.6199
 20
1887.2344
 30
0.0000
 11
2647.6199
 21
1887.3051
 31
0.0000
  0
POLYLINE
  6
continous
  8
BYBLOCK
 70
0
 66
1
  0
VERTEX
  8
0
 10
2653.9359
 20
1885.4189
 30
0.0000
  0
VERTEX
  8
0
 10
2653.8719
 20
1885.8701
 30
0.0000
  0
VERTEX
  8
0
 10
2653.6987
 20
1886.3068
 30
0.0000
  0
VERTEX
  8
0
 10
2653.4214
 20
1886.7157
 30
0.0000
  0
VERTEX
  8
0
 10
2653.0484
 20
1887.0846
 30
0.0000
  0
VERTEX
  8
0
 10
2652.5411
 20
1887.4311
 30
0.0000
  0
VERTEX
  8
0
 10
2651.9499
 20
1887.7032
 30
0.0000
  0
VERTEX
  8
0
 10
2651.2966
 20
1887.8910
 30
0.0000
  0
VERTEX
  8
0
 10
2650.6047
 20
1887.9877
 30
0.0000
  0
VERTEX
  8
0
 10
2649.8994
 20
1887.9898
 30
0.0000
  0
VERTEX
  8
0
 10
2649.2063
 20
1887.8973
 30
0.0000
  0
VERTEX
  8
0
 10
2648.5507
 20
1887.7135
 30
0.0000
  0
VERTEX
  8
0
 10
2647.9563
 20
1887.4450
 30
0.0000
  0
VERTEX
  8
0
 10
2647.6199
 20
1887.2344
 30
0.0000
  0
SEQEND
  0
POLYLINE
  6
continous
  8
BYBLOCK
 70
0
 66
1
  0
VERTEX
  8
0
 10
2605.1935
 20
1857.2344
 30
0.0000
  0
VERTEX
  8
0
 10
2604.7854
 20
1856.8916
 30
0.0000
  0
VERTEX
  8
0
 10
2604.4661
 20
1856.5046
 30
0.0000
  0
VERTEX
  8
0
 10
2604.2448
 20
1856.0847
 30
0.0000
  0
VERTEX
  8
0
 10
2604.1281
 20
1855.6443
 30
0.0000
  0
VERTEX
  8
0
 10
2604.1102
 20
1855.4204
 30
0.0000
  0
SEQEND
  0
LINE
  6
continous
  8
BYBLOCK
 10
2605.1935
 20
1857.2344
 30
0.0000
 11
2605.1935
 21
1857.3051
 31
0.0000
  0
POLYLINE
  6
continous
  8
BYBLOCK
 70
0
 66
1
  0
VERTEX
  8
0
 10
2611.5095
 20
1855.4189
 30
0.0000
  0
VERTEX
  8
0
 10
2611.4455
 20
1855.8701
 30
0.0000
  0
VERTEX
  8
0
 10
2611.2723
 20
1856.3068
 30
0.0000
  0
VERTEX
  8
0
 10
2610.9950
 20
1856.7157
 30
0.0000
  0
VERTEX
  8
0
 10
2610.6220
 20
1857.0846
 30
0.0000
  0
VERTEX
  8
0
 10
2610.1146
 20
1857.4311
 30
0.0000
  0
VERTEX
  8
0
 10
2609.5235
 20
1857.7032
 30
0.0000
  0
VERTEX
  8
0
 10
2608.8702
 20
1857.8910
 30
0.0000
  0
VERTEX
  8
0
 10
2608.1782
 20
1857.9877
 30
0.0000
  0
VERTEX
  8
0
 10
2607.4729
 20
1857.9898
 30
0.0000
  0
VERTEX
  8
0
 10
2606.7799
 20
1857.8973
 30
0.0000
  0
VERTEX
  8
0
 10
2606.1243
 20
1857.7135
 30
0.0000
  0
VERTEX
  8
0
 10
2605.5299
 20
1857.4450
 30
0.0000
  0
VERTEX
  8
0
 10
2605.1935
 20
1857.2344
 30
0.0000
  0
SEQEND
  0
POLYLINE
  6
continous
  8
BYBLOCK
 70
0
 66
1
  0
VERTEX
  8
0
 10
2562.7671
 20
1827.2344
 30
0.0000
  0
VERTEX
  8
0
 10
2562.3590
 20
1826.8916
 30
0.0000
  0
VERTEX
  8
0
 10
2562.0397
 20
1826.5046
 30
0.0000
  0
VERTEX
  8
0
 10
2561.8184
 20
1826.0847
 30
0.0000
  0
VERTEX
  8
0
 10
2561.7017
 20
1825.6443
 30
0.0000
  0
VERTEX
  8
0
 10
2561.6838
 20
1825.4204
 30
0.0000
  0
SEQEND
  0
LINE
  6
continous
  8
BYBLOCK
 10
2562.7671
 20
1827.2344
 30
0.0000
 11
2562.7671
 21
1827.3051
 31
0.0000
  0
POLYLINE
  6
continous
  8
BYBLOCK
 70
0
 66
1
  0
VERTEX
  8
0
 10
2569.0831
 20
1825.4189
 30
0.0000
  0
VERTEX
  8
0
 10
2569.0191
 20
1825.8701
 30
0.0000
  0
VERTEX
  8
0
 10
2568.8458
 20
1826.3068
 30
0.0000
  0
VERTEX
  8
0
 10
2568.5686
 20
1826.7157
 30
0.0000
  0
VERTEX
  8
0
 10
2568.1956
 20
1827.0846
 30
0.0000
  0
VERTEX
  8
0
 10
2567.6882
 20
1827.4311
 30
0.0000
  0
VERTEX
  8
0
 10
2567.0971
 20
1827.7032
 30
0.0000
  0
VERTEX
  8
0
 10
2566.4438
 20
1827.8910
 30
0.0000
  0
VERTEX
  8
0
 10
2565.7518
 20
1827.9877
 30
0.0000
  0
VERTEX
  8
0
 10
2565.0465
 20
1827.9898
 30
0.0000
  0
VERTEX
  8
0
 10
2564.3535
 20
1827.8973
 30
0.0000
  0
VERTEX
  8
0
 10
2563.6978
 20
1827.7135
 30
0.0000
  0
VERTEX
  8
0
 10
2563.1035
 20
1827.4450
 30
0.0000
  0
VERTEX
  8
0
 10
2562.7671
 20
1827.2344
 30
0.0000
  0
SEQEND
  0
POLYLINE
  6
continous
  8
BYBLOCK
 70
0
 66
1
  0
VERTEX
  8
0
 10
2520.3407
 20
1797.2344
 30
0.0000
  0
VERTEX
  8
0
 10
2519.9326
 20
1796.8916
 30
0.0000
  0
VERTEX
  8
0
 10
2519.6133
 20
1796.5046
 30
0.0000
  0
VERTEX
  8
0
 10
2519.3920
 20
1796.0847
 30
0.0000
  0
VERTEX
  8
0
 10
2519.2753
 20
1795.6443
 30
0.0000
  0
VERTEX
  8
0
 10
2519.2573
 20
1795.4204
 30
0.0000
  0
SEQEND
  0
LINE
  6
continous
  8
BYBLOCK
 10
2520.3407
 20
1797.2344
 30
0.0000
 11
2520.3407
 21
1797.3051
 31
0.0000
  0
POLYLINE
  6
continous
  8
BYBLOCK
 70
0
 66
1
  0
VERTEX
  8
0
 10
2526.6567
 20
1795.4189
 30
0.0000
  0
VERTEX
  8
0
 10
2526.5927
 20
1795.8701
 30
0.0000
  0
VERTEX
  8
0
 10
2526.4194
 20
1796.3068
 30
0.0000
  0
VERTEX
  8
0
 10
2526.1422
 20
1796.7157
 30
0.0000
  0
VERTEX
  8
0
 10
2525.7692
 20
1797.0846
 30
0.0000
  0
VERTEX
  8
0
 10
2525.2618
 20
1797.4311
 30
0.0000
  0
VERTEX
  8
0
 10
2524.6707
 20
1797.7032
 30
0.0000
  0
VERTEX
  8
0
 10
2524.0173
 20
1797.8910
 30
0.0000
  0
VERTEX
  8
0
 10
2523.3254
 20
1797.9877
 30
0.0000
  0
VERTEX
  8
0
 10
2522.6201
 20
1797.9898
 30
0.0000
  0
VERTEX
  8
0
 10
2521.9271
 20
1797.8973
 30
0.0000
  0
VERTEX
  8
0
 10
2521.2714
 20
1797.7135
 30
0.0000
  0
VERTEX
  8
0
 10
2520.6771
 20
1797.4450
 30
0.0000
  0
VERTEX
  8
0
 10
2520.3407
 20
1797.2344
 30
0.0000
  0
SEQEND
  0
POLYLINE
  6
continous
  8
BYBLOCK
 70
0
 66
1
  0
VERTEX
  8
0
 10
2477.9143
 20
1767.2344
 30
0.0000
  0
VERTEX
  8
0
 10
2477.5062
 20
1766.8916
 30
0.0000
  0
VERTEX
  8
0
 10
2477.1869
 20
1766.5046
 30
0.0000
  0
VERTEX
  8
0
 10
2476.9656
 20
1766.0847
 30
0.0000
  0
VERTEX
  8
0
 10
2476.8489
 20
1765.6443
 30
0.0000
  0
VERTEX
  8
0
 10
2476.8309
 20
1765.4204
 30
0.0000
  0
SEQEND
  0
LINE
  6
continous
  8
BYBLOCK
 10
2477.9143
 20
1767.2344
 30
0.0000
 11
2477.9143
 21
1767.3051
 31
0.0000
  0
POLYLINE
  6
continous
  8
BYBLOCK
 70
0
 66
1
  0
VERTEX
  8
0
 10
2484.2303
 20
1765.4189
 30
0.0000
  0
VERTEX
  8
0
 10
2484.1663
 20
1765.8701
 30
0.0000
  0
VERTEX
  8
0
 10
2483.9930
 20
1766.3068
 30
0.0000
  0
VERTEX
  8
0
 10
2483.7158
 20
1766.7157
 30
0.0000
  0
VERTEX
  8
0
 10
2483.3428
 20
1767.0846
 30
0.0000
  0
VERTEX
  8
0
 10
2482.8354
 20
1767.4311
 30
0.0000
  0
VERTEX
  8
0
 10
2482.2443
 20
1767.7032
 30
0.0000
  0
VERTEX
  8
0
 10
2481.5909
 20
1767.8910
 30
0.0000
  0
VERTEX
  8
0
 10
2480.8990
 20
1767.9877
 30
0.0000
  0
VERTEX
  8
0
 10
2480.1937
 20
1767.9898
 30
0.0000
  0
VERTEX
  8
0
 10
2479.5007
 20
1767.8973
 30
0.0000
  0
VERTEX
  8
0
 10
2478.8450
 20
1767.7135
 30
0.0000
  0
VERTEX
  8
0
 10
2478.2506
 20
1767.4450
 30
0.0000
  0
VERTEX
  8
0
 10
2477.9143
 20
1767.2344
 30
0.0000
  0
SEQEND
  0
POLYLINE
  6
continous
  8
BYBLOCK
 70
0
 66
1
  0
VERTEX
  8
0
 10
2435.4879
 20
1737.2344
 30
0.0000
  0
VERTEX
  8
0
 10
2435.0798
 20
1736.8916
 30
0.0000
  0
VERTEX
  8
0
 10
2434.7605
 20
1736.5046
 30
0.0000
  0
VERTEX
  8
0
 10
2434.5392
 20
1736.0847
 30
0.0000
  0
VERTEX
  8
0
 10
2434.4225
 20
1735.6443
 30
0.0000
  0
VERTEX
  8
0
 10
2434.4045
 20
1735.4204
 30
0.0000
  0
SEQEND
  0
LINE
  6
continous
  8
BYBLOCK
 10
2435.4879
 20
1737.2344
 30
0.0000
 11
2435.4879
 21
1737.3051
 31
0.0000
  0
POLYLINE
  6
continous
  8
BYBLOCK
 70
0
 66
1
  0
VERTEX
  8
0
 10
2441.8039
 20
1735.4189
 30
0.0000
  0
VERTEX
  8
0
 10
2441.7399
 20
1735.8701
 30
0.0000
  0
VERTEX
  8
0
 10
2441.5666
 20
1736.3068
 30
0.0000
  0
VERTEX
  8
0
 10
2441.2894
 20
1736.7157
 30
0.0000
  0
VERTEX
  8
0
 10
2440.9164
 20
1737.0846
 30
0.0000
  0
VERTEX
  8
0
 10
2440.4090
 20
1737.4311
 30
0.0000
  0
VERTEX
  8
0
 10
2439.8179
 20
1737.7032
 30
0.0000
  0
VERTEX
  8
0
 10
2439.1645
 20
1737.8910
 30
0.0000
  0
VERTEX
  8
0
 10
2438.4726
 20
1737.9877
 30
0.0000
  0
VERTEX
  8
0
 10
2437.7673
 20
1737.9898
 30
0.0000
  0
VERTEX
  8
0
 10
2437.0743
 20
1737.8973
 30
0.0000
  0
VERTEX
  8
0
 10
2436.4186
 20
1737.7135
 30
0.0000
  0
VERTEX
  8
0
 10
2435.8242
 20
1737.4450
 30
0.0000
  0
VERTEX
  8
0
 10
2435.4879
 20
1737.2344
 30
0.0000
  0
SEQEND
  0
POLYLINE
  6
continous
  8
BYBLOCK
 70
0
 66
1
  0
VERTEX
  8
0
 10
2393.0615
 20
1707.2344
 30
0.0000
  0
VERTEX
  8
0
 10
2392.6534
 20
1706.8916
 30
0.0000
  0
VERTEX
  8
0
 10
2392.3341
 20
1706.5046
 30
0.0000
  0
VERTEX
  8
0
 10
2392.1128
 20
1706.0847
 30
0.0000
  0
VERTEX
  8
0
 10
2391.9961
 20
1705.6443
 30
0.0000
  0
VERTEX
  8
0
 10
2391.9781
 20
1705.4204
 30
0.0000
  0
SEQEND
  0
LINE
  6
continous
  8
BYBLOCK
 10
2393.0615
 20
1707.2344
 30
0.0000
 11
2393.0615
 21
1707.3051
 31
0.0000
  0
POLYLINE
  6
continous
  8
BYBLOCK
 70
0
 66
1
  0
VERTEX
  8
0
 10
2399.3775
 20
1705.4189
 30
0.0000
  0
VERTEX
  8
0
 10
2399.3135
 20
1705.8701
 30
0.0000
  0
VERTEX
  8
0
 10
2399.1402
 20
1706.3068
 30
0.0000
  0
VERTEX
  8
0
 10
2398.8629
 20
1706.7157
 30
0.0000
  0
VERTEX
  8
0
 10
2398.4900
 20
1707.0846
 30
0.0000
  0
VERTEX
  8
0
 10
2397.9826
 20
1707.4311
 30
0.0000
  0
VERTEX
  8
0
 10
2397.3915
 20
1707.7032
 30
0.0000
  0
VERTEX
  8
0
 10
2396.7381
 20
1707.8910
 30
0.0000
  0
VERTEX
  8
0
 10
2396.0462
 20
1707.9877
 30
0.0000
  0
VERTEX
  8
0
 10
2395.3409
 20
1707.9898
 30
0.0000
  0
VERTEX
  8
0
 10
2394.6479
 20
1707.8973
 30
0.0000
  0
VERTEX
  8
0
 10
2393.9922
 20
1707.7135
 30
0.0000
  0
VERTEX
  8
0
 10
2393.3978
 20
1707.4450
 30
0.0000
  0
VERTEX
  8
0
 10
2393.0615
 20
1707.2344
 30
0.0000
  0
SEQEND
  0
POLYLINE
  6
continous
  8
BYBLOCK
 70
0
 66
1
  0
VERTEX
  8
0
 10
2350.6351
 20
1677.2344
 30
0.0000
  0
VERTEX
  8
0
 10
2350.2270
 20
1676.8916
 30
0.0000
  0
VERTEX
  8
0
 10
2349.9076
 20
1676.5046
 30
0.0000
  0
VERTEX
  8
0
 10
2349.6864
 20
1676.0847
 30
0.0000
  0
VERTEX
  8
0
 10
2349.5697
 20
1675.6443
 30
0.0000
  0
VERTEX
  8
0
 10
2349.5517
 20
1675.4204
 30
0.0000
  0
SEQEND
  0
LINE
  6
continous
  8
BYBLOCK
 10
2350.6351
 20
1677.2344
 30
0.0000
 11
2350.6351
 21
1677.3051
 31
0.0000
  0
POLYLINE
  6
continous
  8
BYBLOCK
 70
0
 66
1
  0
VERTEX
  8
0
 10
2356.9510
 20
1675.4189
 30
0.0000
  0
VERTEX
  8
0
 10
2356.8870
 20
1675.8701
 30
0.0000
  0
VERTEX
  8
0
 10
2356.7138
 20
1676.3068
 30
0.0000
  0
VERTEX
  8
0
 10
2356.4365
 20
1676.7157
 30
0.0000
  0
VERTEX
  8
0
 10
2356.0636
 20
1677.0846
 30
0.0000
  0
VERTEX
  8
0
 10
2355.5562
 20
1677.4311
 30
0.0000
  0
VERTEX
  8
0
 10
2354.9651
 20
1677.7032
 30
0.0000
  0
VERTEX
  8
0
 10
2354.3117
 20
1677.8910
 30
0.0000
  0
VERTEX
  8
0
 10
2353.6198
 20
1677.9877
 30
0.0000
  0
VERTEX
  8
0
 10
2352.9145
 20
1677.9898
 30
0.0000
  0
VERTEX
  8
0
 10
2352.2214
 20
1677.8973
 30
0.0000
  0
VERTEX
  8
0
 10
2351.5658
 20
1677.7135
 30
0.0000
  0
VERTEX
  8
0
 10
2350.9714
 20
1677.4450
 30
0.0000
  0
VERTEX
  8
0
 10
2350.6351
 20
1677.2344
 30
0.0000
  0
SEQEND
  0
POLYLINE
  6
continous
  8
BYBLOCK
 70
0
 66
1
  0
VERTEX
  8
0
 10
2308.2087
 20
1647.2344
 30
0.0000
  0
VERTEX
  8
0
 10
2307.8006
 20
1646.8916
 30
0.0000
  0
VERTEX
  8
0
 10
2307.4812
 20
1646.5046
 30
0.0000
  0
VERTEX
  8
0
 10
2307.2600
 20
1646.0847
 30
0.0000
  0
VERTEX
  8
0
 10
2307.1433
 20
1645.6443
 30
0.0000
  0
VERTEX
  8
0
 10
2307.1253
 20
1645.4204
 30
0.0000
  0
SEQEND
  0
LINE
  6
continous
  8
BYBLOCK
 10
2308.2087
 20
1647.2344
 30
0.0000
 11
2308.2087
 21
1647.3051
 31
0.0000
  0
POLYLINE
  6
continous
  8
BYBLOCK
 70
0
 66
1
  0
VERTEX
  8
0
 10
2314.5246
 20
1645.4189
 30
0.0000
  0
VERTEX
  8
0
 10
2314.4606
 20
1645.8701
 30
0.0000
  0
VERTEX
  8
0
 10
2314.2874
 20
1646.3068
 30
0.0000
  0
VERTEX
  8
0
 10
2314.0101
 20
1646.7157
 30
0.0000
  0
VERTEX
  8
0
 10
2313.6372
 20
1647.0846
 30
0.0000
  0
VERTEX
  8
0
 10
2313.1298
 20
1647.4311
 30
0.0000
  0
VERTEX
  8
0
 10
2312.5387
 20
1647.7032
 30
0.0000
  0
VERTEX
  8
0
 10
2311.8853
 20
1647.8910
 30
0.0000
  0
VERTEX
  8
0
 10
2311.1934
 20
1647.9877
 30
0.0000
  0
VERTEX
  8
0
 10
2310.4881
 20
1647.9898
 30
0.0000
  0
VERTEX
  8
0
 10
2309.7950
 20
1647.8973
 30
0.0000
  0
VERTEX
  8
0
 10
2309.1394
 20
1647.7135
 30
0.0000
  0
VERTEX
  8
0
 10
2308.5450
 20
1647.4450
 30
0.0000
  0
VERTEX
  8
0
 10
2308.2087
 20
1647.2344
 30
0.0000
  0
SEQEND
  0
POLYLINE
  6
continous
  8
BYBLOCK
 70
0
 66
1
  0
VERTEX
  8
0
 10
2265.7823
 20
1617.2344
 30
0.0000
  0
VERTEX
  8
0
 10
2265.3742
 20
1616.8916
 30
0.0000
  0
VERTEX
  8
0
 10
2265.0548
 20
1616.5046
 30
0.0000
  0
VERTEX
  8
0
 10
2264.8336
 20
1616.0847
 30
0.0000
  0
VERTEX
  8
0
 10
2264.7169
 20
1615.6443
 30
0.0000
  0
VERTEX
  8
0
 10
2264.6989
 20
1615.4204
 30
0.0000
  0
SEQEND
  0
LINE
  6
continous
  8
BYBLOCK
 10
2265.7823
 20
1617.2344
 30
0.0000
 11
2265.7823
 21
1617.3051
 31
0.0000
  0
POLYLINE
  6
continous
  8
BYBLOCK
 70
0
 66
1
  0
VERTEX
  8
0
 10
2272.0982
 20
1615.4189
 30
0.0000
  0
VERTEX
  8
0
 10
2272.0342
 20
1615.8701
 30
0.0000
  0
VERTEX
  8
0
 10
2271.8610
 20
1616.3068
 30
0.0000
  0
VERTEX
  8
0
 10
2271.5837
 20
1616.7157
 30
0.0000
  0
VERTEX
  8
0
 10
2271.2108
 20
1617.0846
 30
0.0000
  0
VERTEX
  8
0
 10
2270.7034
 20
1617.4311
 30
0.0000
  0
VERTEX
  8
0
 10
2270.1123
 20
1617.7032
 30
0.0000
  0
VERTEX
  8
0
 10
2269.4589
 20
1617.8910
 30
0.0000
  0
VERTEX
  8
0
 10
2268.7670
 20
1617.9877
 30
0.0000
  0
VERTEX
  8
0
 10
2268.0617
 20
1617.9898
 30
0.0000
  0
VERTEX
  8
0
 10
2267.3686
 20
1617.8973
 30
0.0000
  0
VERTEX
  8
0
 10
2266.7130
 20
1617.7135
 30
0.0000
  0
VERTEX
  8
0
 10
2266.1186
 20
1617.4450
 30
0.0000
  0
VERTEX
  8
0
 10
2265.7823
 20
1617.2344
 30
0.0000
  0
SEQEND
  0
POLYLINE
  6
continous
  8
BYBLOCK
 70
0
 66
1
  0
VERTEX
  8
0
 10
2223.3559
 20
1587.2344
 30
0.0000
  0
VERTEX
  8
0
 10
2222.9478
 20
1586.8916
 30
0.0000
  0
VERTEX
  8
0
 10
2222.6284
 20
1586.5046
 30
0.0000
  0
VERTEX
  8
0
 10
2222.4072
 20
1586.0847
 30
0.0000
  0
VERTEX
  8
0
 10
2222.2904
 20
1585.6443
 30
0.0000
  0
VERTEX
  8
0
 10
2222.2725
 20
1585.4204
 30
0.0000
  0
SEQEND
  0
LINE
  6
continous
  8
BYBLOCK
 10
2223.3559
 20
1587.2344
 30
0.0000
 11
2223.3559
 21
1587.3051
 31
0.0000
  0
POLYLINE
  6
continous
  8
BYBLOCK
 70
0
 66
1
  0
VERTEX
  8
0
 10
2229.6718
 20
1585.4189
 30
0.0000
  0
VERTEX
  8
0
 10
2229.6078
 20
1585.8701
 30
0.0000
  0
VERTEX
  8
0
 10
2229.4346
 20
1586.3068
 30
0.0000
  0
VERTEX
  8
0
 10
2229.1573
 20
1586.7157
 30
0.0000
  0
VERTEX
  8
0
 10
2228.7843
 20
1587.0846
 30
0.0000
  0
VERTEX
  8
0
 10
2228.2770
 20
1587.4311
 30
0.0000
  0
VERTEX
  8
0
 10
2227.6859
 20
1587.7032
 30
0.0000
  0
VERTEX
  8
0
 10
2227.0325
 20
1587.8910
 30
0.0000
  0
VERTEX
  8
0
 10
2226.3406
 20
1587.9877
 30
0.0000
  0
VERTEX
  8
0
 10
2225.6353
 20
1587.9898
 30
0.0000
  0
VERTEX
  8
0
 10
2224.9422
 20
1587.8973
 30
0.0000
  0
VERTEX
  8
0
 10
2224.2866
 20
1587.7135
 30
0.0000
  0
VERTEX
  8
0
 10
2223.6922
 20
1587.4450
 30
0.0000
  0
VERTEX
  8
0
 10
2223.3559
 20
1587.2344
 30
0.0000
  0
SEQEND
  0
POLYLINE
  6
continous
  8
BYBLOCK
 70
0
 66
1
  0
VERTEX
  8
0
 10
2180.9294
 20
1557.2344
 30
0.0000
  0
VERTEX
  8
0
 10
2180.5214
 20
1556.8916
 30
0.0000
  0
VERTEX
  8
0
 10
2180.2020
 20
1556.5046
 30
0.0000
  0
VERTEX
  8
0
 10
2179.9807
 20
1556.0847
 30
0.0000
  0
VERTEX
  8
0
 10
2179.8640
 20
1555.6443
 30
0.0000
  0
VERTEX
  8
0
 10
2179.8461
 20
1555.4204
 30
0.0000
  0
SEQEND
  0
LINE
  6
continous
  8
BYBLOCK
 10
2180.9294
 20
1557.2344
 30
0.0000
 11
2180.9294
 21
1557.3051
 31
0.0000
  0
POLYLINE
  6
continous
  8
BYBLOCK
 70
0
 66
1
  0
VERTEX
  8
0
 10
2187.2454
 20
1555.4189
 30
0.0000
  0
VERTEX
  8
0
 10
2187.1814
 20
1555.8701
 30
0.0000
  0
VERTEX
  8
0
 10
2187.0082
 20
1556.3068
 30
0.0000
  0
VERTEX
  8
0
 10
2186.7309
 20
1556.7157
 30
0.0000
  0
VERTEX
  8
0
 10
2186.3579
 20
1557.0846
 30
0.0000
  0
VERTEX
  8
0
 10
2185.8506
 20
1557.4311
 30
0.0000
  0
VERTEX
  8
0
 10
2185.2595
 20
1557.7032
 30
0.0000
  0
VERTEX
  8
0
 10
2184.6061
 20
1557.8910
 30
0.0000
  0
VERTEX
  8
0
 10
2183.9142
 20
1557.9877
 30
0.0000
  0
VERTEX
  8
0
 10
2183.2089
 20
1557.9898
 30
0.0000
  0
VERTEX
  8
0
 10
2182.5158
 20
1557.8973
 30
0.0000
  0
VERTEX
  8
0
 10
2181.8602
 20
1557.7135
 30
0.0000
  0
VERTEX
  8
0
 10
2181.2658
 20
1557.4450
 30
0.0000
  0
VERTEX
  8
0
 10
2180.9294
 20
1557.2344
 30
0.0000
  0
SEQEND
  0
POLYLINE
  6
continous
  8
BYBLOCK
 70
0
 66
1
  0
VERTEX
  8
0
 10
2138.5030
 20
1527.2344
 30
0.0000
  0
VERTEX
  8
0
 10
2138.0950
 20
1526.8916
 30
0.0000
  0
VERTEX
  8
0
 10
2137.7756
 20
1526.5046
 30
0.0000
  0
VERTEX
  8
0
 10
2137.5543
 20
1526.0847
 30
0.0000
  0
VERTEX
  8
0
 10
2137.4376
 20
1525.6443
 30
0.0000
  0
VERTEX
  8
0
 10
2137.4197
 20
1525.4204
 30
0.0000
  0
SEQEND
  0
LINE
  6
continous
  8
BYBLOCK
 10
2138.5030
 20
1527.2344
 30
0.0000
 11
2138.5030
 21
1527.3051
 31
0.0000
  0
POLYLINE
  6
continous
  8
BYBLOCK
 70
0
 66
1
  0
VERTEX
  8
0
 10
2144.8190
 20
1525.4189
 30
0.0000
  0
VERTEX
  8
0
 10
2144.7550
 20
1525.8701
 30
0.0000
  0
VERTEX
  8
0
 10
2144.5818
 20
1526.3068
 30
0.0000
  0
VERTEX
  8
0
 10
2144.3045
 20
1526.7157
 30
0.0000
  0
VERTEX
  8
0
 10
2143.9315
 20
1527.0846
 30
0.0000
  0
VERTEX
  8
0
 10
2143.4242
 20
1527.4311
 30
0.0000
  0
VERTEX
  8
0
 10
2142.8331
 20
1527.7032
 30
0.0000
  0
VERTEX
  8
0
 10
2142.1797
 20
1527.8910
 30
0.0000
  0
VERTEX
  8
0
 10
2141.4878
 20
1527.9877
 30
0.0000
  0
VERTEX
  8
0
 10
2140.7825
 20
1527.9898
 30
0.0000
  0
VERTEX
  8
0
 10
2140.0894
 20
1527.8973
 30
0.0000
  0
VERTEX
  8
0
 10
2139.4338
 20
1527.7135
 30
0.0000
  0
VERTEX
  8
0
 10
2138.8394
 20
1527.4450
 30
0.0000
  0
VERTEX
  8
0
 10
2138.5030
 20
1527.2344
 30
0.0000
  0
SEQEND
  0
POLYLINE
  6
continous
  8
BYBLOCK
 70
0
 66
1
  0
VERTEX
  8
0
 10
2096.0766
 20
1497.2344
 30
0.0000
  0
VERTEX
  8
0
 10
2095.6686
 20
1496.8916
 30
0.0000
  0
VERTEX
  8
0
 10
2095.3492
 20
1496.5046
 30
0.0000
  0
VERTEX
  8
0
 10
2095.1279
 20
1496.0847
 30
0.0000
  0
VERTEX
  8
0
 10
2095.0112
 20
1495.6443
 30
0.0000
  0
VERTEX
  8
0
 10
2094.9933
 20
1495.4204
 30
0.0000
  0
SEQEND
  0
LINE
  6
continous
  8
BYBLOCK
 10
2096.0766
 20
1497.2344
 30
0.0000
 11
2096.0766
 21
1497.3051
 31
0.0000
  0
POLYLINE
  6
continous
  8
BYBLOCK
 70
0
 66
1
  0
VERTEX
  8
0
 10
2102.3926
 20
1495.4189
 30
0.0000
  0
VERTEX
  8
0
 10
2102.3286
 20
1495.8701
 30
0.0000
  0
VERTEX
  8
0
 10
2102.1554
 20
1496.3068
 30
0.0000
  0
VERTEX
  8
0
 10
2101.8781
 20
1496.7157
 30
0.0000
  0
VERTEX
  8
0
 10
2101.5051
 20
1497.0846
 30
0.0000
  0
VERTEX
  8
0
 10
2100.9978
 20
1497.4311
 30
0.0000
  0
VERTEX
  8
0
 10
2100.4067
 20
1497.7032
 30
0.0000
  0
VERTEX
  8
0
 10
2099.7533
 20
1497.8910
 30
0.0000
  0
VERTEX
  8
0
 10
2099.0614
 20
1497.9877
 30
0.0000
  0
VERTEX
  8
0
 10
2098.3561
 20
1497.9898
 30
0.0000
  0
VERTEX
  8
0
 10
2097.6630
 20
1497.8973
 30
0.0000
  0
VERTEX
  8
0
 10
2097.0074
 20
1497.7135
 30
0.0000
  0
VERTEX
  8
0
 10
2096.4130
 20
1497.4450
 30
0.0000
  0
VERTEX
  8
0
 10
2096.0766
 20
1497.2344
 30
0.0000
  0
SEQEND
  0
POLYLINE
  6
continous
  8
BYBLOCK
 70
0
 66
1
  0
VERTEX
  8
0
 10
2053.6502
 20
1467.2344
 30
0.0000
  0
VERTEX
  8
0
 10
2053.2422
 20
1466.8916
 30
0.0000
  0
VERTEX
  8
0
 10
2052.9228
 20
1466.5046
 30
0.0000
  0
VERTEX
  8
0
 10
2052.7015
 20
1466.0847
 30
0.0000
  0
VERTEX
  8
0
 10
2052.5848
 20
1465.6443
 30
0.0000
  0
VERTEX
  8
0
 10
2052.5669
 20
1465.4204
 30
0.0000
  0
SEQEND
  0
LINE
  6
continous
  8
BYBLOCK
 10
2053.6502
 20
1467.2344
 30
0.0000
 11
2053.6502
 21
1467.3051
 31
0.0000
  0
POLYLINE
  6
continous
  8
BYBLOCK
 70
0
 66
1
  0
VERTEX
  8
0
 10
2059.9662
 20
1465.4189
 30
0.0000
  0
VERTEX
  8
0
 10
2059.9022
 20
1465.8701
 30
0.0000
  0
VERTEX
  8
0
 10
2059.7290
 20
1466.3068
 30
0.0000
  0
VERTEX
  8
0
 10
2059.4517
 20
1466.7157
 30
0.0000
  0
VERTEX
  8
0
 10
2059.0787
 20
1467.0846
 30
0.0000
  0
VERTEX
  8
0
 10
2058.5714
 20
1467.4311
 30
0.0000
  0
VERTEX
  8
0
 10
2057.9803
 20
1467.7032
 30
0.0000
  0
VERTEX
  8
0
 10
2057.3269
 20
1467.8910
 30
0.0000
  0
VERTEX
  8
0
 10
2056.6350
 20
1467.9877
 30
0.0000
  0
VERTEX
  8
0
 10
2055.9297
 20
1467.9898
 30
0.0000
  0
VERTEX
  8
0
 10
2055.2366
 20
1467.8973
 30
0.0000
  0
VERTEX
  8
0
 10
2054.5810
 20
1467.7135
 30
0.0000
  0
VERTEX
  8
0
 10
2053.9866
 20
1467.4450
 30
0.0000
  0
VERTEX
  8
0
 10
2053.6502
 20
1467.2344
 30
0.0000
  0
SEQEND
  0
POLYLINE
  6
continous
  8
BYBLOCK
 70
0
 66
1
  0
VERTEX
  8
0
 10
2011.2238
 20
1437.2344
 30
0.0000
  0
VERTEX
  8
0
 10
2010.8157
 20
1436.8916
 30
0.0000
  0
VERTEX
  8
0
 10
2010.4964
 20
1436.5046
 30
0.0000
  0
VERTEX
  8
0
 10
2010.2751
 20
1436.0847
 30
0.0000
  0
VERTEX
  8
0
 10
2010.1584
 20
1435.6443
 30
0.0000
  0
VERTEX
  8
0
 10
2010.1405
 20
1435.4204
 30
0.0000
  0
SEQEND
  0
LINE
  6
continous
  8
BYBLOCK
 10
2011.2238
 20
1437.2344
 30
0.0000
 11
2011.2238
 21
1437.3051
 31
0.0000
  0
POLYLINE
  6
continous
  8
BYBLOCK
 70
0
 66
1
  0
VERTEX
  8
0
 10
2017.5398
 20
1435.4189
 30
0.0000
  0
VERTEX
  8
0
 10
2017.4758
 20
1435.8701
 30
0.0000
  0
VERTEX
  8
0
 10
2017.3026
 20
1436.3068
 30
0.0000
  0
VERTEX
  8
0
 10
2017.0253
 20
1436.7157
 30
0.0000
  0
VERTEX
  8
0
 10
2016.6523
 20
1437.0846
 30
0.0000
  0
VERTEX
  8
0
 10
2016.1450
 20
1437.4311
 30
0.0000
  0
VERTEX
  8
0
 10
2015.5538
 20
1437.7032
 30
0.0000
  0
VERTEX
  8
0
 10
2014.9005
 20
1437.8910
 30
0.0000
  0
VERTEX
  8
0
 10
2014.2086
 20
1437.9877
 30
0.0000
  0
VERTEX
  8
0
 10
2013.5033
 20
1437.9898
 30
0.0000
  0
VERTEX
  8
0
 10
2012.8102
 20
1437.8973
 30
0.0000
  0
VERTEX
  8
0
 10
2012.1546
 20
1437.7135
 30
0.0000
  0
VERTEX
  8
0
 10
2011.5602
 20
1437.4450
 30
0.0000
  0
VERTEX
  8
0
 10
2011.2238
 20
1437.2344
 30
0.0000
  0
SEQEND
  0
POLYLINE
  6
continous
  8
BYBLOCK
 70
0
 66
1
  0
VERTEX
  8
0
 10
1968.7974
 20
1407.2344
 30
0.0000
  0
VERTEX
  8
0
 10
1968.3893
 20
1406.8916
 30
0.0000
  0
VERTEX
  8
0
 10
1968.0700
 20
1406.5046
 30
0.0000
  0
VERTEX
  8
0
 10
1967.8487
 20
1406.0847
 30
0.0000
  0
VERTEX
  8
0
 10
1967.7320
 20
1405.6443
 30
0.0000
  0
VERTEX
  8
0
 10
1967.7141
 20
1405.4204
 30
0.0000
  0
SEQEND
  0
LINE
  6
continous
  8
BYBLOCK
 10
1968.7974
 20
1407.2344
 30
0.0000
 11
1968.7974
 21
1407.3051
 31
0.0000
  0
POLYLINE
  6
continous
  8
BYBLOCK
 70
0
 66
1
  0
VERTEX
  8
0
 10
1975.1134
 20
1405.4189
 30
0.0000
  0
VERTEX
  8
0
 10
1975.0494
 20
1405.8701
 30
0.0000
  0
VERTEX
  8
0
 10
1974.8761
 20
1406.3068
 30
0.0000
  0
VERTEX
  8
0
 10
1974.5989
 20
1406.7157
 30
0.0000
  0
VERTEX
  8
0
 10
1974.2259
 20
1407.0846
 30
0.0000
  0
VERTEX
  8
0
 10
1973.7185
 20
1407.4311
 30
0.0000
  0
VERTEX
  8
0
 10
1973.1274
 20
1407.7032
 30
0.0000
  0
VERTEX
  8
0
 10
1972.4741
 20
1407.8910
 30
0.0000
  0
VERTEX
  8
0
 10
1971.7821
 20
1407.9877
 30
0.0000
  0
VERTEX
  8
0
 10
1971.0768
 20
1407.9898
 30
0.0000
  0
VERTEX
  8
0
 10
1970.3838
 20
1407.8973
 30
0.0000
  0
VERTEX
  8
0
 10
1969.7282
 20
1407.7135
 30
0.0000
  0
VERTEX
  8
0
 10
1969.1338
 20
1407.4450
 30
0.0000
  0
VERTEX
  8
0
 10
1968.7974
 20
1407.2344
 30
0.0000
  0
SEQEND
  0
POLYLINE
  6
continous
  8
BYBLOCK
 70
0
 66
1
  0
VERTEX
  8
0
 10
1926.3710
 20
1377.2344
 30
0.0000
  0
VERTEX
  8
0
 10
1925.9629
 20
1376.8916
 30
0.0000
  0
VERTEX
  8
0
 10
1925.6436
 20
1376.5046
 30
0.0000
  0
VERTEX
  8
0
 10
1925.4223
 20
1376.0847
 30
0.0000
  0
VERTEX
  8
0
 10
1925.3056
 20
1375.6443
 30
0.0000
  0
VERTEX
  8
0
 10
1925.2876
 20
1375.4204
 30
0.0000
  0
SEQEND
  0
LINE
  6
continous
  8
BYBLOCK
 10
1926.3710
 20
1377.2344
 30
0.0000
 11
1926.3710
 21
1377.3051
 31
0.0000
  0
POLYLINE
  6
continous
  8
BYBLOCK
 70
0
 66
1
  0
VERTEX
  8
0
 10
1932.6870
 20
1375.4189
 30
0.0000
  0
VERTEX
  8
0
 10
1932.6230
 20
1375.8701
 30
0.0000
  0
VERTEX
  8
0
 10
1932.4497
 20
1376.3068
 30
0.0000
  0
VERTEX
  8
0
 10
1932.1725
 20
1376.7157
 30
0.0000
  0
VERTEX
  8
0
 10
1931.7995
 20
1377.0846
 30
0.0000
  0
VERTEX
  8
0
 10
1931.2921
 20
1377.4311
 30
0.0000
  0
VERTEX
  8
0
 10
1930.7010
 20
1377.7032
 30
0.0000
  0
VERTEX
  8
0
 10
1930.0476
 20
1377.8910
 30
0.0000
  0
VERTEX
  8
0
 10
1929.3557
 20
1377.9877
 30
0.0000
  0
VERTEX
  8
0
 10
1928.6504
 20
1377.9898
 30
0.0000
  0
VERTEX
  8
0
 10
1927.9574
 20
1377.8973
 30
0.0000
  0
VERTEX
  8
0
 10
1927.3017
 20
1377.7135
 30
0.0000
  0
VERTEX
  8
0
 10
1926.7074
 20
1377.4450
 30
0.0000
  0
VERTEX
  8
0
 10
1926.3710
 20
1377.2344
 30
0.0000
  0
SEQEND
  0
POLYLINE
  6
continous
  8
BYBLOCK
 70
0
 66
1
  0
VERTEX
  8
0
 10
1883.9446
 20
1347.2344
 30
0.0000
  0
VERTEX
  8
0
 10
1883.5365
 20
1346.8916
 30
0.0000
  0
VERTEX
  8
0
 10
1883.2172
 20
1346.5046
 30
0.0000
  0
VERTEX
  8
0
 10
1882.9959
 20
1346.0847
 30
0.0000
  0
VERTEX
  8
0
 10
1882.8792
 20
1345.6443
 30
0.0000
  0
VERTEX
  8
0
 10
1882.8612
 20
1345.4204
 30
0.0000
  0
SEQEND
  0
LINE
  6
continous
  8
BYBLOCK
 10
1883.9446
 20
1347.2344
 30
0.0000
 11
1883.9446
 21
1347.3051
 31
0.0000
  0
POLYLINE
  6
continous
  8
BYBLOCK
 70
0
 66
1
  0
VERTEX
  8
0
 10
1890.2606
 20
1345.4189
 30
0.0000
  0
VERTEX
  8
0
 10
1890.1966
 20
1345.8701
 30
0.0000
  0
VERTEX
  8
0
 10
1890.0233
 20
1346.3068
 30
0.0000
  0
VERTEX
  8
0
 10
1889.7461
 20
1346.7157
 30
0.0000
  0
VERTEX
  8
0
 10
1889.3731
 20
1347.0846
 30
0.0000
  0
VERTEX
  8
0
 10
1888.8657
 20
1347.4311
 30
0.0000
  0
VERTEX
  8
0
 10
1888.2746
 20
1347.7032
 30
0.0000
  0
VERTEX
  8
0
 10
1887.6212
 20
1347.8910
 30
0.0000
  0
VERTEX
  8
0
 10
1886.9293
 20
1347.9877
 30
0.0000
  0
VERTEX
  8
0
 10
1886.2240
 20
1347.9898
 30
0.0000
  0
VERTEX
  8
0
 10
1885.5310
 20
1347.8973
 30
0.0000
  0
VERTEX
  8
0
 10
1884.8753
 20
1347.7135
 30
0.0000
  0
VERTEX
  8
0
 10
1884.2810
 20
1347.4450
 30
0.0000
  0
VERTEX
  8
0
 10
1883.9446
 20
1347.2344
 30
0.0000
  0
SEQEND
  0
POLYLINE
  6
continous
  8
BYBLOCK
 70
0
 66
1
  0
VERTEX
  8
0
 10
1841.5182
 20
1317.2344
 30
0.0000
  0
VERTEX
  8
0
 10
1841.1101
 20
1316.8916
 30
0.0000
  0
VERTEX
  8
0
 10
1840.7908
 20
1316.5046
 30
0.0000
  0
VERTEX
  8
0
 10
1840.5695
 20
1316.0847
 30
0.0000
  0
VERTEX
  8
0
 10
1840.4528
 20
1315.6443
 30
0.0000
  0
VERTEX
  8
0
 10
1840.4348
 20
1315.4204
 30
0.0000
  0
SEQEND
  0
LINE
  6
continous
  8
BYBLOCK
 10
1841.5182
 20
1317.2344
 30
0.0000
 11
1841.5182
 21
1317.3051
 31
0.0000
  0
POLYLINE
  6
continous
  8
BYBLOCK
 70
0
 66
1
  0
VERTEX
  8
0
 10
1847.8342
 20
1315.4189
 30
0.0000
  0
VERTEX
  8
0
 10
1847.7702
 20
1315.8701
 30
0.0000
  0
VERTEX
  8
0
 10
1847.5969
 20
1316.3068
 30
0.0000
  0
VERTEX
  8
0
 10
1847.3197
 20
1316.7157
 30
0.0000
  0
VERTEX
  8
0
 10
1846.9467
 20
1317.0846
 30
0.0000
  0
VERTEX
  8
0
 10
1846.4393
 20
1317.4311
 30
0.0000
  0
VERTEX
  8
0
 10
1845.8482
 20
1317.7032
 30
0.0000
  0
VERTEX
  8
0
 10
1845.1948
 20
1317.8910
 30
0.0000
  0
VERTEX
  8
0
 10
1844.5029
 20
1317.9877
 30
0.0000
  0
VERTEX
  8
0
 10
1843.7976
 20
1317.9898
 30
0.0000
  0
VERTEX
  8
0
 10
1843.1046
 20
1317.8973
 30
0.0000
  0
VERTEX
  8
0
 10
1842.4489
 20
1317.7135
 30
0.0000
  0
VERTEX
  8
0
 10
1841.8545
 20
1317.4450
 30
0.0000
  0
VERTEX
  8
0
 10
1841.5182
 20
1317.2344
 30
0.0000
  0
SEQEND
  0
POLYLINE
  6
continous
  8
BYBLOCK
 70
0
 66
1
  0
VERTEX
  8
0
 10
1799.0918
 20
1287.2344
 30
0.0000
  0
VERTEX
  8
0
 10
1798.6837
 20
1286.8916
 30
0.0000
  0
VERTEX
  8
0
 10
1798.3644
 20
1286.5046
 30
0.0000
  0
VERTEX
  8
0
 10
1798.1431
 20
1286.0847
 30
0.0000
  0
VERTEX
  8
0
 10
1798.0264
 20
1285.6443
 30
0.0000
  0
VERTEX
  8
0
 10
1798.0084
 20
1285.4204
 30
0.0000
  0
SEQEND
  0
LINE
  6
continous
  8
BYBLOCK
 10
1799.0918
 20
1287.2344
 30
0.0000
 11
1799.0918
 21
1287.3051
 31
0.0000
  0
POLYLINE
  6
continous
  8
BYBLOCK
 70
0
 66
1
  0
VERTEX
  8
0
 10
1805.4078
 20
1285.4189
 30
0.0000
  0
VERTEX
  8
0
 10
1805.3438
 20
1285.8701
 30
0.0000
  0
VERTEX
  8
0
 10
1805.1705
 20
1286.3068
 30
0.0000
  0
VERTEX
  8
0
 10
1804.8933
 20
1286.7157
 30
0.0000
  0
VERTEX
  8
0
 10
1804.5203
 20
1287.0846
 30
0.0000
  0
VERTEX
  8
0
 10
1804.0129
 20
1287.4311
 30
0.0000
  0
VERTEX
  8
0
 10
1803.4218
 20
1287.7032
 30
0.0000
  0
VERTEX
  8
0
 10
1802.7684
 20
1287.8910
 30
0.0000
  0
VERTEX
  8
0
 10
1802.0765
 20
1287.9877
 30
0.0000
  0
VERTEX
  8
0
 10
1801.3712
 20
1287.9898
 30
0.0000
  0
VERTEX
  8
0
 10
1800.6782
 20
1287.8973
 30
0.0000
  0
VERTEX
  8
0
 10
1800.0225
 20
1287.7135
 30
0.0000
  0
VERTEX
  8
0
 10
1799.4281
 20
1287.4450
 30
0.0000
  0
VERTEX
  8
0
 10
1799.0918
 20
1287.2344
 30
0.0000
  0
SEQEND
  0
POLYLINE
  6
continous
  8
BYBLOCK
 70
0
 66
1
  0
VERTEX
  8
0
 10
1756.6654
 20
1257.2344
 30
0.0000
  0
VERTEX
  8
0
 10
1756.2573
 20
1256.8916
 30
0.0000
  0
VERTEX
  8
0
 10
1755.9380
 20
1256.5046
 30
0.0000
  0
VERTEX
  8
0
 10
1755.7167
 20
1256.0847
 30
0.0000
  0
VERTEX
  8
0
 10
1755.6000
 20
1255.6443
 30
0.0000
  0
VERTEX
  8
0
 10
1755.5820
 20
1255.4204
 30
0.0000
  0
SEQEND
  0
LINE
  6
continous
  8
BYBLOCK
 10
1756.6654
 20
1257.2344
 30
0.0000
 11
1756.6654
 21
1257.3051
 31
0.0000
  0
POLYLINE
  6
continous
  8
BYBLOCK
 70
0
 66
1
  0
VERTEX
  8
0
 10
1762.9814
 20
1255.4189
 30
0.0000
  0
VERTEX
  8
0
 10
1762.9174
 20
1255.8701
 30
0.0000
  0
VERTEX
  8
0
 10
1762.7441
 20
1256.3068
 30
0.0000
  0
VERTEX
  8
0
 10
1762.4668
 20
1256.7157
 30
0.0000
  0
VERTEX
  8
0
 10
1762.0939
 20
1257.0846
 30
0.0000
  0
VERTEX
  8
0
 10
1761.5865
 20
1257.4311
 30
0.0000
  0
VERTEX
  8
0
 10
1760.9954
 20
1257.7032
 30
0.0000
  0
VERTEX
  8
0
 10
1760.3420
 20
1257.8910
 30
0.0000
  0
VERTEX
  8
0
 10
1759.6501
 20
1257.9877
 30
0.0000
  0
VERTEX
  8
0
 10
1758.9448
 20
1257.9898
 30
0.0000
  0
VERTEX
  8
0
 10
1758.2518
 20
1257.8973
 30
0.0000
  0
VERTEX
  8
0
 10
1757.5961
 20
1257.7135
 30
0.0000
  0
VERTEX
  8
0
 10
1757.0017
 20
1257.4450
 30
0.0000
  0
VERTEX
  8
0
 10
1756.6654
 20
1257.2344
 30
0.0000
  0
SEQEND
  0
POLYLINE
  6
continous
  8
BYBLOCK
 70
0
 66
1
  0
VERTEX
  8
0
 10
1714.2390
 20
1227.2344
 30
0.0000
  0
VERTEX
  8
0
 10
1713.8309
 20
1226.8916
 30
0.0000
  0
VERTEX
  8
0
 10
1713.5115
 20
1226.5046
 30
0.0000
  0
VERTEX
  8
0
 10
1713.2903
 20
1226.0847
 30
0.0000
  0
VERTEX
  8
0
 10
1713.1736
 20
1225.6443
 30
0.0000
  0
VERTEX
  8
0
 10
1713.1556
 20
1225.4204
 30
0.0000
  0
SEQEND
  0
LINE
  6
continous
  8
BYBLOCK
 10
1714.2390
 20
1227.2344
 30
0.0000
 11
1714.2390
 21
1227.3051
 31
0.0000
  0
POLYLINE
  6
continous
  8
BYBLOCK
 70
0
 66
1
  0
VERTEX
  8
0
 10
1720.5549
 20
1225.4189
 30
0.0000
  0
VERTEX
  8
0
 10
1720.4909
 20
1225.8701
 30
0.0000
  0
VERTEX
  8
0
 10
1720.3177
 20
1226.3068
 30
0.0000
  0
VERTEX
  8
0
 10
1720.0404
 20
1226.7157
 30
0.0000
  0
VERTEX
  8
0
 10
1719.6675
 20
1227.0846
 30
0.0000
  0
VERTEX
  8
0
 10
1719.1601
 20
1227.4311
 30
0.0000
  0
VERTEX
  8
0
 10
1718.5690
 20
1227.7032
 30
0.0000
  0
VERTEX
  8
0
 10
1717.9156
 20
1227.8910
 30
0.0000
  0
VERTEX
  8
0
 10
1717.2237
 20
1227.9877
 30
0.0000
  0
VERTEX
  8
0
 10
1716.5184
 20
1227.9898
 30
0.0000
  0
VERTEX
  8
0
 10
1715.8253
 20
1227.8973
 30
0.0000
  0
VERTEX
  8
0
 10
1715.1697
 20
1227.7135
 30
0.0000
  0
VERTEX
  8
0
 10
1714.5753
 20
1227.4450
 30
0.0000
  0
VERTEX
  8
0
 10
1714.2390
 20
1227.2344
 30
0.0000
  0
SEQEND
  0
POLYLINE
  6
continous
  8
BYBLOCK
 70
0
 66
1
  0
VERTEX
  8
0
 10
1671.8126
 20
1197.2344
 30
0.0000
  0
VERTEX
  8
0
 10
1671.4045
 20
1196.8916
 30
0.0000
  0
VERTEX
  8
0
 10
1671.0851
 20
1196.5046
 30
0.0000
  0
VERTEX
  8
0
 10
1670.8639
 20
1196.0847
 30
0.0000
  0
VERTEX
  8
0
 10
1670.7472
 20
1195.6443
 30
0.0000
  0
VERTEX
  8
0
 10
1670.7292
 20
1195.4204
 30
0.0000
  0
SEQEND
  0
LINE
  6
continous
  8
BYBLOCK
 10
1671.8126
 20
1197.2344
 30
0.0000
 11
1671.8126
 21
1197.3051
 31
0.0000
  0
POLYLINE
  6
continous
  8
BYBLOCK
 70
0
 66
1
  0
VERTEX
  8
0
 10
1678.1285
 20
1195.4189
 30
0.0000
  0
VERTEX
  8
0
 10
1678.0645
 20
1195.8701
 30
0.0000
  0
VERTEX
  8
0
 10
1677.8913
 20
1196.3068
 30
0.0000
  0
VERTEX
  8
0
 10
1677.6140
 20
1196.7157
 30
0.0000
  0
VERTEX
  8
0
 10
1677.2411
 20
1197.0846
 30
0.0000
  0
VERTEX
  8
0
 10
1676.7337
 20
1197.4311
 30
0.0000
  0
VERTEX
  8
0
 10
1676.1426
 20
1197.7032
 30
0.0000
  0
VERTEX
  8
0
 10
1675.4892
 20
1197.8910
 30
0.0000
  0
VERTEX
  8
0
 10
1674.7973
 20
1197.9877
 30
0.0000
  0
VERTEX
  8
0
 10
1674.0920
 20
1197.9898
 30
0.0000
  0
VERTEX
  8
0
 10
1673.3989
 20
1197.8973
 30
0.0000
  0
VERTEX
  8
0
 10
1672.7433
 20
1197.7135
 30
0.0000
  0
VERTEX
  8
0
 10
1672.1489
 20
1197.4450
 30
0.0000
  0
VERTEX
  8
0
 10
1671.8126
 20
1197.2344
 30
0.0000
  0
SEQEND
  0
POLYLINE
  6
continous
  8
BYBLOCK
 70
0
 66
1
  0
VERTEX
  8
0
 10
1629.3862
 20
1167.2344
 30
0.0000
  0
VERTEX
  8
0
 10
1628.9781
 20
1166.8916
 30
0.0000
  0
VERTEX
  8
0
 10
1628.6587
 20
1166.5046
 30
0.0000
  0
VERTEX
  8
0
 10
1628.4375
 20
1166.0847
 30
0.0000
  0
VERTEX
  8
0
 10
1628.3207
 20
1165.6443
 30
0.0000
  0
VERTEX
  8
0
 10
1628.3028
 20
1165.4204
 30
0.0000
  0
SEQEND
  0
LINE
  6
continous
  8
BYBLOCK
 10
1629.3862
 20
1167.2344
 30
0.0000
 11
1629.3862
 21
1167.3051
 31
0.0000
  0
POLYLINE
  6
continous
  8
BYBLOCK
 70
0
 66
1
  0
VERTEX
  8
0
 10
1635.7021
 20
1165.4189
 30
0.0000
  0
VERTEX
  8
0
 10
1635.6381
 20
1165.8701
 30
0.0000
  0
VERTEX
  8
0
 10
1635.4649
 20
1166.3068
 30
0.0000
  0
VERTEX
  8
0
 10
1635.1876
 20
1166.7157
 30
0.0000
  0
VERTEX
  8
0
 10
1634.8146
 20
1167.0846
 30
0.0000
  0
VERTEX
  8
0
 10
1634.3073
 20
1167.4311
 30
0.0000
  0
VERTEX
  8
0
 10
1633.7162
 20
1167.7032
 30
0.0000
  0
VERTEX
  8
0
 10
1633.0628
 20
1167.8910
 30
0.0000
  0
VERTEX
  8
0
 10
1632.3709
 20
1167.9877
 30
0.0000
  0
VERTEX
  8
0
 10
1631.6656
 20
1167.9898
 30
0.0000
  0
VERTEX
  8
0
 10
1630.9725
 20
1167.8973
 30
0.0000
  0
VERTEX
  8
0
 10
1630.3169
 20
1167.7135
 30
0.0000
  0
VERTEX
  8
0
 10
1629.7225
 20
1167.4450
 30
0.0000
  0
VERTEX
  8
0
 10
1629.3862
 20
1167.2344
 30
0.0000
  0
SEQEND
  0
POLYLINE
  6
continous
  8
BYBLOCK
 70
0
 66
1
  0
VERTEX
  8
0
 10
1586.9597
 20
1137.2344
 30
0.0000
  0
VERTEX
  8
0
 10
1586.5517
 20
1136.8916
 30
0.0000
  0
VERTEX
  8
0
 10
1586.2323
 20
1136.5046
 30
0.0000
  0
VERTEX
  8
0
 10
1586.0110
 20
1136.0847
 30
0.0000
  0
VERTEX
  8
0
 10
1585.8943
 20
1135.6443
 30
0.0000
  0
VERTEX
  8
0
 10
1585.8764
 20
1135.4204
 30
0.0000
  0
SEQEND
  0
LINE
  6
continous
  8
BYBLOCK
 10
1586.9597
 20
1137.2344
 30
0.0000
 11
1586.9597
 21
1137.3051
 31
0.0000
  0
POLYLINE
  6
continous
  8
BYBLOCK
 70
0
 66
1
  0
VERTEX
  8
0
 10
1593.2757
 20
1135.4189
 30
0.0000
  0
VERTEX
  8
0
 10
1593.2117
 20
1135.8701
 30
0.0000
  0
VERTEX
  8
0
 10
1593.0385
 20
1136.3068
 30
0.0000
  0
VERTEX
  8
0
 10
1592.7612
 20
1136.7157
 30
0.0000
  0
VERTEX
  8
0
 10
1592.3882
 20
1137.0846
 30
0.0000
  0
VERTEX
  8
0
 10
1591.8809
 20
1137.4311
 30
0.0000
  0
VERTEX
  8
0
 10
1591.2898
 20
1137.7032
 30
0.0000
  0
VERTEX
  8
0
 10
1590.6364
 20
1137.8910
 30
0.0000
  0
VERTEX
  8
0
 10
1589.9445
 20
1137.9877
 30
0.0000
  0
VERTEX
  8
0
 10
1589.2392
 20
1137.9898
 30
0.0000
  0
VERTEX
  8
0
 10
1588.5461
 20
1137.8973
 30
0.0000
  0
VERTEX
  8
0
 10
1587.8905
 20
1137.7135
 30
0.0000
  0
VERTEX
  8
0
 10
1587.2961
 20
1137.4450
 30
0.0000
  0
VERTEX
  8
0
 10
1586.9597
 20
1137.2344
 30
0.0000
  0
SEQEND
  0
POLYLINE
  6
continous
  8
BYBLOCK
 70
0
 66
1
  0
VERTEX
  8
0
 10
1544.5333
 20
1107.2344
 30
0.0000
  0
VERTEX
  8
0
 10
1544.1253
 20
1106.8916
 30
0.0000
  0
VERTEX
  8
0
 10
1543.8059
 20
1106.5046
 30
0.0000
  0
VERTEX
  8
0
 10
1543.5846
 20
1106.0847
 30
0.0000
  0
VERTEX
  8
0
 10
1543.4679
 20
1105.6443
 30
0.0000
  0
VERTEX
  8
0
 10
1543.4500
 20
1105.4204
 30
0.0000
  0
SEQEND
  0
LINE
  6
continous
  8
BYBLOCK
 10
1544.5333
 20
1107.2344
 30
0.0000
 11
1544.5333
 21
1107.3051
 31
0.0000
  0
POLYLINE
  6
continous
  8
BYBLOCK
 70
0
 66
1
  0
VERTEX
  8
0
 10
1550.8493
 20
1105.4189
 30
0.0000
  0
VERTEX
  8
0
 10
1550.7853
 20
1105.8701
 30
0.0000
  0
VERTEX
  8
0
 10
1550.6121
 20
1106.3068
 30
0.0000
  0
VERTEX
  8
0
 10
1550.3348
 20
1106.7157
 30
0.0000
  0
VERTEX
  8
0
 10
1549.9618
 20
1107.0846
 30
0.0000
  0
VERTEX
  8
0
 10
1549.4545
 20
1107.4311
 30
0.0000
  0
VERTEX
  8
0
 10
1548.8634
 20
1107.7032
 30
0.0000
  0
VERTEX
  8
0
 10
1548.2100
 20
1107.8910
 30
0.0000
  0
VERTEX
  8
0
 10
1547.5181
 20
1107.9877
 30
0.0000
  0
VERTEX
  8
0
 10
1546.8128
 20
1107.9898
 30
0.0000
  0
VERTEX
  8
0
 10
1546.1197
 20
1107.8973
 30
0.0000
  0
VERTEX
  8
0
 10
1545.4641
 20
1107.7135
 30
0.0000
  0
VERTEX
  8
0
 10
1544.8697
 20
1107.4450
 30
0.0000
  0
VERTEX
  8
0
 10
1544.5333
 20
1107.2344
 30
0.0000
  0
SEQEND
  0
POLYLINE
  6
continous
  8
BYBLOCK
 70
0
 66
1
  0
VERTEX
  8
0
 10
1502.1069
 20
1077.2344
 30
0.0000
  0
VERTEX
  8
0
 10
1501.6989
 20
1076.8916
 30
0.0000
  0
VERTEX
  8
0
 10
1501.3795
 20
1076.5046
 30
0.0000
  0
VERTEX
  8
0
 10
1501.1582
 20
1076.0847
 30
0.0000
  0
VERTEX
  8
0
 10
1501.0415
 20
1075.6443
 30
0.0000
  0
VERTEX
  8
0
 10
1501.0236
 20
1075.4204
 30
0.0000
  0
SEQEND
  0
LINE
  6
continous
  8
BYBLOCK
 10
1502.1069
 20
1077.2344
 30
0.0000
 11
1502.1069
 21
1077.3051
 31
0.0000
  0
POLYLINE
  6
continous
  8
BYBLOCK
 70
0
 66
1
  0
VERTEX
  8
0
 10
1508.4229
 20
1075.4189
 30
0.0000
  0
VERTEX
  8
0
 10
1508.3589
 20
1075.8701
 30
0.0000
  0
VERTEX
  8
0
 10
1508.1857
 20
1076.3068
 30
0.0000
  0
VERTEX
  8
0
 10
1507.9084
 20
1076.7157
 30
0.0000
  0
VERTEX
  8
0
 10
1507.5354
 20
1077.0846
 30
0.0000
  0
VERTEX
  8
0
 10
1507.0281
 20
1077.4311
 30
0.0000
  0
VERTEX
  8
0
 10
1506.4370
 20
1077.7032
 30
0.0000
  0
VERTEX
  8
0
 10
1505.7836
 20
1077.8910
 30
0.0000
  0
VERTEX
  8
0
 10
1505.0917
 20
1077.9877
 30
0.0000
  0
VERTEX
  8
0
 10
1504.3864
 20
1077.9898
 30
0.0000
  0
VERTEX
  8
0
 10
1503.6933
 20
1077.8973
 30
0.0000
  0
VERTEX
  8
0
 10
1503.0377
 20
1077.7135
 30
0.0000
  0
VERTEX
  8
0
 10
1502.4433
 20
1077.4450
 30
0.0000
  0
VERTEX
  8
0
 10
1502.1069
 20
1077.2344
 30
0.0000
  0
SEQEND
  0
POLYLINE
  6
continous
  8
BYBLOCK
 70
0
 66
1
  0
VERTEX
  8
0
 10
1459.6805
 20
1047.2344
 30
0.0000
  0
VERTEX
  8
0
 10
1459.2725
 20
1046.8916
 30
0.0000
  0
VERTEX
  8
0
 10
1458.9531
 20
1046.5046
 30
0.0000
  0
VERTEX
  8
0
 10
1458.7318
 20
1046.0847
 30
0.0000
  0
VERTEX
  8
0
 10
1458.6151
 20
1045.6443
 30
0.0000
  0
VERTEX
  8
0
 10
1458.5972
 20
1045.4204
 30
0.0000
  0
SEQEND
  0
LINE
  6
continous
  8
BYBLOCK
 10
1459.6805
 20
1047.2344
 30
0.0000
 11
1459.6805
 21
1047.3051
 31
0.0000
  0
POLYLINE
  6
continous
  8
BYBLOCK
 70
0
 66
1
  0
VERTEX
  8
0
 10
1465.9965
 20
1045.4189
 30
0.0000
  0
VERTEX
  8
0
 10
1465.9325
 20
1045.8701
 30
0.0000
  0
VERTEX
  8
0
 10
1465.7593
 20
1046.3068
 30
0.0000
  0
VERTEX
  8
0
 10
1465.4820
 20
1046.7157
 30
0.0000
  0
VERTEX
  8
0
 10
1465.1090
 20
1047.0846
 30
0.0000
  0
VERTEX
  8
0
 10
1464.6017
 20
1047.4311
 30
0.0000
  0
VERTEX
  8
0
 10
1464.0106
 20
1047.7032
 30
0.0000
  0
VERTEX
  8
0
 10
1463.3572
 20
1047.8910
 30
0.0000
  0
VERTEX
  8
0
 10
1462.6653
 20
1047.9877
 30
0.0000
  0
VERTEX
  8
0
 10
1461.9600
 20
1047.9898
 30
0.0000
  0
VERTEX
  8
0
 10
1461.2669
 20
1047.8973
 30
0.0000
  0
VERTEX
  8
0
 10
1460.6113
 20
1047.7135
 30
0.0000
  0
VERTEX
  8
0
 10
1460.0169
 20
1047.4450
 30
0.0000
  0
VERTEX
  8
0
 10
1459.6805
 20
1047.2344
 30
0.0000
  0
SEQEND
  0
POLYLINE
  6
continous
  8
BYBLOCK
 70
0
 66
1
  0
VERTEX
  8
0
 10
1417.2541
 20
1017.2344
 30
0.0000
  0
VERTEX
  8
0
 10
1416.8461
 20
1016.8916
 30
0.0000
  0
VERTEX
  8
0
 10
1416.5267
 20
1016.5046
 30
0.0000
  0
VERTEX
  8
0
 10
1416.3054
 20
1016.0847
 30
0.0000
  0
VERTEX
  8
0
 10
1416.1887
 20
1015.6443
 30
0.0000
  0
VERTEX
  8
0
 10
1416.1708
 20
1015.4204
 30
0.0000
  0
SEQEND
  0
LINE
  6
continous
  8
BYBLOCK
 10
1417.2541
 20
1017.2344
 30
0.0000
 11
1417.2541
 21
1017.3051
 31
0.0000
  0
POLYLINE
  6
continous
  8
BYBLOCK
 70
0
 66
1
  0
VERTEX
  8
0
 10
1423.5701
 20
1015.4189
 30
0.0000
  0
VERTEX
  8
0
 10
1423.5061
 20
1015.8701
 30
0.0000
  0
VERTEX
  8
0
 10
1423.3329
 20
1016.3068
 30
0.0000
  0
VERTEX
  8
0
 10
1423.0556
 20
1016.7157
 30
0.0000
  0
VERTEX
  8
0
 10
1422.6826
 20
1017.0846
 30
0.0000
  0
VERTEX
  8
0
 10
1422.1753
 20
1017.4311
 30
0.0000
  0
VERTEX
  8
0
 10
1421.5841
 20
1017.7032
 30
0.0000
  0
VERTEX
  8
0
 10
1420.9308
 20
1017.8910
 30
0.0000
  0
VERTEX
  8
0
 10
1420.2389
 20
1017.9877
 30
0.0000
  0
VERTEX
  8
0
 10
1419.5336
 20
1017.9898
 30
0.0000
  0
VERTEX
  8
0
 10
1418.8405
 20
1017.8973
 30
0.0000
  0
VERTEX
  8
0
 10
1418.1849
 20
1017.7135
 30
0.0000
  0
VERTEX
  8
0
 10
1417.5905
 20
1017.4450
 30
0.0000
  0
VERTEX
  8
0
 10
1417.2541
 20
1017.2344
 30
0.0000
  0
SEQEND
  0
POLYLINE
  6
continous
  8
BYBLOCK
 70
0
 66
1
  0
VERTEX
  8
0
 10
1374.8277
 20
987.2344
 30
0.0000
  0
VERTEX
  8
0
 10
1374.4196
 20
986.8916
 30
0.0000
  0
VERTEX
  8
0
 10
1374.1003
 20
986.5046
 30
0.0000
  0
VERTEX
  8
0
 10
1373.8790
 20
986.0847
 30
0.0000
  0
VERTEX
  8
0
 10
1373.7623
 20
985.6443
 30
0.0000
  0
VERTEX
  8
0
 10
1373.7444
 20
985.4204
 30
0.0000
  0
SEQEND
  0
LINE
  6
continous
  8
BYBLOCK
 10
1374.8277
 20
987.2344
 30
0.0000
 11
1374.8277
 21
987.3051
 31
0.0000
  0
POLYLINE
  6
continous
  8
BYBLOCK
 70
0
 66
1
  0
VERTEX
  8
0
 10
1381.1437
 20
985.4189
 30
0.0000
  0
VERTEX
  8
0
 10
1381.0797
 20
985.8701
 30
0.0000
  0
VERTEX
  8
0
 10
1380.9065
 20
986.3068
 30
0.0000
  0
VERTEX
  8
0
 10
1380.6292
 20
986.7157
 30
0.0000
  0
VERTEX
  8
0
 10
1380.2562
 20
987.0846
 30
0.0000
  0
VERTEX
  8
0
 10
1379.7488
 20
987.4311
 30
0.0000
  0
VERTEX
  8
0
 10
1379.1577
 20
987.7032
 30
0.0000
  0
VERTEX
  8
0
 10
1378.5044
 20
987.8910
 30
0.0000
  0
VERTEX
  8
0
 10
1377.8124
 20
987.9877
 30
0.0000
  0
VERTEX
  8
0
 10
1377.1071
 20
987.9898
 30
0.0000
  0
VERTEX
  8
0
 10
1376.4141
 20
987.8973
 30
0.0000
  0
VERTEX
  8
0
 10
1375.7585
 20
987.7135
 30
0.0000
  0
VERTEX
  8
0
 10
1375.1641
 20
987.4450
 30
0.0000
  0
VERTEX
  8
0
 10
1374.8277
 20
987.2344
 30
0.0000
  0
SEQEND
  0
POLYLINE
  6
continous
  8
BYBLOCK
 70
0
 66
1
  0
VERTEX
  8
0
 10
1332.4013
 20
957.2344
 30
0.0000
  0
VERTEX
  8
0
 10
1331.9932
 20
956.8916
 30
0.0000
  0
VERTEX
  8
0
 10
1331.6739
 20
956.5046
 30
0.0000
  0
VERTEX
  8
0
 10
1331.4526
 20
956.0847
 30
0.0000
  0
VERTEX
  8
0
 10
1331.3359
 20
955.6443
 30
0.0000
  0
VERTEX
  8
0
 10
1331.3180
 20
955.4204
 30
0.0000
  0
SEQEND
  0
LINE
  6
continous
  8
BYBLOCK
 10
1332.4013
 20
957.2344
 30
0.0000
 11
1332.4013
 21
957.3051
 31
0.0000
  0
POLYLINE
  6
continous
  8
BYBLOCK
 70
0
 66
1
  0
VERTEX
  8
0
 10
1338.7173
 20
955.4189
 30
0.0000
  0
VERTEX
  8
0
 10
1338.6533
 20
955.8701
 30
0.0000
  0
VERTEX
  8
0
 10
1338.4800
 20
956.3068
 30
0.0000
  0
VERTEX
  8
0
 10
1338.2028
 20
956.7157
 30
0.0000
  0
VERTEX
  8
0
 10
1337.8298
 20
957.0846
 30
0.0000
  0
VERTEX
  8
0
 10
1337.3224
 20
957.4311
 30
0.0000
  0
VERTEX
  8
0
 10
1336.7313
 20
957.7032
 30
0.0000
  0
VERTEX
  8
0
 10
1336.0780
 20
957.8910
 30
0.0000
  0
VERTEX
  8
0
 10
1335.3860
 20
957.9877
 30
0.0000
  0
VERTEX
  8
0
 10
1334.6807
 20
957.9898
 30
0.0000
  0
VERTEX
  8
0
 10
1333.9877
 20
957.8973
 30
0.0000
  0
VERTEX
  8
0
 10
1333.3321
 20
957.7135
 30
0.0000
  0
VERTEX
  8
0
 10
1332.7377
 20
957.4450
 30
0.0000
  0
VERTEX
  8
0
 10
1332.4013
 20
957.2344
 30
0.0000
  0
SEQEND
  0
POLYLINE
  6
continous
  8
BYBLOCK
 70
0
 66
1
  0
VERTEX
  8
0
 10
1289.9749
 20
927.2344
 30
0.0000
  0
VERTEX
  8
0
 10
1289.5668
 20
926.8916
 30
0.0000
  0
VERTEX
  8
0
 10
1289.2475
 20
926.5046
 30
0.0000
  0
VERTEX
  8
0
 10
1289.0262
 20
926.0847
 30
0.0000
  0
VERTEX
  8
0
 10
1288.9095
 20
925.6443
 30
0.0000
  0
VERTEX
  8
0
 10
1288.8915
 20
925.4204
 30
0.0000
  0
SEQEND
  0
LINE
  6
continous
  8
BYBLOCK
 10
1289.9749
 20
927.2344
 30
0.0000
 11
1289.9749
 21
927.3051
 31
0.0000
  0
POLYLINE
  6
continous
  8
BYBLOCK
 70
0
 66
1
  0
VERTEX
  8
0
 10
1296.2909
 20
925.4189
 30
0.0000
  0
VERTEX
  8
0
 10
1296.2269
 20
925.8701
 30
0.0000
  0
VERTEX
  8
0
 10
1296.0536
 20
926.3068
 30
0.0000
  0
VERTEX
  8
0
 10
1295.7764
 20
926.7157
 30
0.0000
  0
VERTEX
  8
0
 10
1295.4034
 20
927.0846
 30
0.0000
  0
VERTEX
  8
0
 10
1294.8960
 20
927.4311
 30
0.0000
  0
VERTEX
  8
0
 10
1294.3049
 20
927.7032
 30
0.0000
  0
VERTEX
  8
0
 10
1293.6515
 20
927.8910
 30
0.0000
  0
VERTEX
  8
0
 10
1292.9596
 20
927.9877
 30
0.0000
  0
VERTEX
  8
0
 10
1292.2543
 20
927.9898
 30
0.0000
  0
VERTEX
  8
0
 10
1291.5613
 20
927.8973
 30
0.0000
  0
VERTEX
  8
0
 10
1290.9056
 20
927.7135
 30
0.0000
  0
VERTEX
  8
0
 10
1290.3113
 20
927.4450
 30
0.0000
  0
VERTEX
  8
0
 10
1289.9749
 20
927.2344
 30
0.0000
  0
SEQEND
  0
POLYLINE
  6
continous
  8
BYBLOCK
 70
0
 66
1
  0
VERTEX
  8
0
 10
1247.5485
 20
897.2344
 30
0.0000
  0
VERTEX
  8
0
 10
1247.1404
 20
896.8916
 30
0.0000
  0
VERTEX
  8
0
 10
1246.8211
 20
896.5046
 30
0.0000
  0
VERTEX
  8
0
 10
1246.5998
 20
896.0847
 30
0.0000
  0
VERTEX
  8
0
 10
1246.4831
 20
895.6443
 30
0.0000
  0
VERTEX
  8
0
 10
1246.4651
 20
895.4204
 30
0.0000
  0
SEQEND
  0
LINE
  6
continous
  8
BYBLOCK
 10
1247.5485
 20
897.2344
 30
0.0000
 11
1247.5485
 21
897.3051
 31
0.0000
  0
POLYLINE
  6
continous
  8
BYBLOCK
 70
0
 66
1
  0
VERTEX
  8
0
 10
1253.8645
 20
895.4189
 30
0.0000
  0
VERTEX
  8
0
 10
1253.8005
 20
895.8701
 30
0.0000
  0
VERTEX
  8
0
 10
1253.6272
 20
896.3068
 30
0.0000
  0
VERTEX
  8
0
 10
1253.3500
 20
896.7157
 30
0.0000
  0
VERTEX
  8
0
 10
1252.9770
 20
897.0846
 30
0.0000
  0
VERTEX
  8
0
 10
1252.4696
 20
897.4311
 30
0.0000
  0
VERTEX
  8
0
 10
1251.8785
 20
897.7032
 30
0.0000
  0
VERTEX
  8
0
 10
1251.2251
 20
897.8910
 30
0.0000
  0
VERTEX
  8
0
 10
1250.5332
 20
897.9877
 30
0.0000
  0
VERTEX
  8
0
 10
1249.8279
 20
897.9898
 30
0.0000
  0
VERTEX
  8
0
 10
1249.1349
 20
897.8973
 30
0.0000
  0
VERTEX
  8
0
 10
1248.4792
 20
897.7135
 30
0.0000
  0
VERTEX
  8
0
 10
1247.8849
 20
897.4450
 30
0.0000
  0
VERTEX
  8
0
 10
1247.5485
 20
897.2344
 30
0.0000
  0
SEQEND
  0
POLYLINE
  6
continous
  8
BYBLOCK
 70
0
 66
1
  0
VERTEX
  8
0
 10
1205.1221
 20
867.2344
 30
0.0000
  0
VERTEX
  8
0
 10
1204.7140
 20
866.8916
 30
0.0000
  0
VERTEX
  8
0
 10
1204.3947
 20
866.5046
 30
0.0000
  0
VERTEX
  8
0
 10
1204.1734
 20
866.0847
 30
0.0000
  0
VERTEX
  8
0
 10
1204.0567
 20
865.6443
 30
0.0000
  0
VERTEX
  8
0
 10
1204.0387
 20
865.4204
 30
0.0000
  0
SEQEND
  0
LINE
  6
continous
  8
BYBLOCK
 10
1205.1221
 20
867.2344
 30
0.0000
 11
1205.1221
 21
867.3051
 31
0.0000
  0
POLYLINE
  6
continous
  8
BYBLOCK
 70
0
 66
1
  0
VERTEX
  8
0
 10
1211.4381
 20
865.4189
 30
0.0000
  0
VERTEX
  8
0
 10
1211.3741
 20
865.8701
 30
0.0000
  0
VERTEX
  8
0
 10
1211.2008
 20
866.3068
 30
0.0000
  0
VERTEX
  8
0
 10
1210.9236
 20
866.7157
 30
0.0000
  0
VERTEX
  8
0
 10
1210.5506
 20
867.0846
 30
0.0000
  0
VERTEX
  8
0
 10
1210.0432
 20
867.4311
 30
0.0000
  0
VERTEX
  8
0
 10
1209.4521
 20
867.7032
 30
0.0000
  0
VERTEX
  8
0
 10
1208.7987
 20
867.8910
 30
0.0000
  0
VERTEX
  8
0
 10
1208.1068
 20
867.9877
 30
0.0000
  0
VERTEX
  8
0
 10
1207.4015
 20
867.9898
 30
0.0000
  0
VERTEX
  8
0
 10
1206.7085
 20
867.8973
 30
0.0000
  0
VERTEX
  8
0
 10
1206.0528
 20
867.7135
 30
0.0000
  0
VERTEX
  8
0
 10
1205.4584
 20
867.4450
 30
0.0000
  0
VERTEX
  8
0
 10
1205.1221
 20
867.2344
 30
0.0000
  0
SEQEND
  0
POLYLINE
  6
continous
  8
BYBLOCK
 70
0
 66
1
  0
VERTEX
  8
0
 10
1162.6957
 20
837.2344
 30
0.0000
  0
VERTEX
  8
0
 10
1162.2876
 20
836.8916
 30
0.0000
  0
VERTEX
  8
0
 10
1161.9683
 20
836.5046
 30
0.0000
  0
VERTEX
  8
0
 10
1161.7470
 20
836.0847
 30
0.0000
  0
VERTEX
  8
0
 10
1161.6303
 20
835.6443
 30
0.0000
  0
VERTEX
  8
0
 10
1161.6123
 20
835.4204
 30
0.0000
  0
SEQEND
  0
LINE
  6
continous
  8
BYBLOCK
 10
1162.6957
 20
837.2344
 30
0.0000
 11
1162.6957
 21
837.3051
 31
0.0000
  0
POLYLINE
  6
continous
  8
BYBLOCK
 70
0
 66
1
  0
VERTEX
  8
0
 10
1169.0117
 20
835.4189
 30
0.0000
  0
VERTEX
  8
0
 10
1168.9477
 20
835.8701
 30
0.0000
  0
VERTEX
  8
0
 10
1168.7744
 20
836.3068
 30
0.0000
  0
VERTEX
  8
0
 10
1168.4971
 20
836.7157
 30
0.0000
  0
VERTEX
  8
0
 10
1168.1242
 20
837.0846
 30
0.0000
  0
VERTEX
  8
0
 10
1167.6168
 20
837.4311
 30
0.0000
  0
VERTEX
  8
0
 10
1167.0257
 20
837.7032
 30
0.0000
  0
VERTEX
  8
0
 10
1166.3723
 20
837.8910
 30
0.0000
  0
VERTEX
  8
0
 10
1165.6804
 20
837.9877
 30
0.0000
  0
VERTEX
  8
0
 10
1164.9751
 20
837.9898
 30
0.0000
  0
VERTEX
  8
0
 10
1164.2821
 20
837.8973
 30
0.0000
  0
VERTEX
  8
0
 10
1163.6264
 20
837.7135
 30
0.0000
  0
VERTEX
  8
0
 10
1163.0320
 20
837.4450
 30
0.0000
  0
VERTEX
  8
0
 10
1162.6957
 20
837.2344
 30
0.0000
  0
SEQEND
  0
POLYLINE
  6
continous
  8
BYBLOCK
 70
0
 66
1
  0
VERTEX
  8
0
 10
1120.2693
 20
807.2344
 30
0.0000
  0
VERTEX
  8
0
 10
1119.8612
 20
806.8916
 30
0.0000
  0
VERTEX
  8
0
 10
1119.5418
 20
806.5046
 30
0.0000
  0
VERTEX
  8
0
 10
1119.3206
 20
806.0847
 30
0.0000
  0
VERTEX
  8
0
 10
1119.2039
 20
805.6443
 30
0.0000
  0
VERTEX
  8
0
 10
1119.1859
 20
805.4204
 30
0.0000
  0
SEQEND
  0
LINE
  6
continous
  8
BYBLOCK
 10
1120.2693
 20
807.2344
 30
0.0000
 11
1120.2693
 21
807.3051
 31
0.0000
  0
POLYLINE
  6
continous
  8
BYBLOCK
 70
0
 66
1
  0
VERTEX
  8
0
 10
1126.5852
 20
805.4189
 30
0.0000
  0
VERTEX
  8
0
 10
1126.5212
 20
805.8701
 30
0.0000
  0
VERTEX
  8
0
 10
1126.3480
 20
806.3068
 30
0.0000
  0
VERTEX
  8
0
 10
1126.0707
 20
806.7157
 30
0.0000
  0
VERTEX
  8
0
 10
1125.6978
 20
807.0846
 30
0.0000
  0
VERTEX
  8
0
 10
1125.1904
 20
807.4311
 30
0.0000
  0
VERTEX
  8
0
 10
1124.5993
 20
807.7032
 30
0.0000
  0
VERTEX
  8
0
 10
1123.9459
 20
807.8910
 30
0.0000
  0
VERTEX
  8
0
 10
1123.2540
 20
807.9877
 30
0.0000
  0
VERTEX
  8
0
 10
1122.5487
 20
807.9898
 30
0.0000
  0
VERTEX
  8
0
 10
1121.8556
 20
807.8973
 30
0.0000
  0
VERTEX
  8
0
 10
1121.2000
 20
807.7135
 30
0.0000
  0
VERTEX
  8
0
 10
1120.6056
 20
807.4450
 30
0.0000
  0
VERTEX
  8
0
 10
1120.2693
 20
807.2344
 30
0.0000
  0
SEQEND
  0
POLYLINE
  6
continous
  8
BYBLOCK
 70
0
 66
1
  0
VERTEX
  8
0
 10
1077.8429
 20
777.2344
 30
0.0000
  0
VERTEX
  8
0
 10
1077.4348
 20
776.8916
 30
0.0000
  0
VERTEX
  8
0
 10
1077.1154
 20
776.5046
 30
0.0000
  0
VERTEX
  8
0
 10
1076.8942
 20
776.0847
 30
0.0000
  0
VERTEX
  8
0
 10
1076.7775
 20
775.6443
 30
0.0000
  0
VERTEX
  8
0
 10
1076.7595
 20
775.4204
 30
0.0000
  0
SEQEND
  0
LINE
  6
continous
  8
BYBLOCK
 10
1077.8429
 20
777.2344
 30
0.0000
 11
1077.8429
 21
777.3051
 31
0.0000
  0
POLYLINE
  6
continous
  8
BYBLOCK
 70
0
 66
1
  0
VERTEX
  8
0
 10
1084.1588
 20
775.4189
 30
0.0000
  0
VERTEX
  8
0
 10
1084.0948
 20
775.8701
 30
0.0000
  0
VERTEX
  8
0
 10
1083.9216
 20
776.3068
 30
0.0000
  0
VERTEX
  8
0
 10
1083.6443
 20
776.7157
 30
0.0000
  0
VERTEX
  8
0
 10
1083.2714
 20
777.0846
 30
0.0000
  0
VERTEX
  8
0
 10
1082.7640
 20
777.4311
 30
0.0000
  0
VERTEX
  8
0
 10
1082.1729
 20
777.7032
 30
0.0000
  0
VERTEX
  8
0
 10
1081.5195
 20
777.8910
 30
0.0000
  0
VERTEX
  8
0
 10
1080.8276
 20
777.9877
 30
0.0000
  0
VERTEX
  8
0
 10
1080.1223
 20
777.9898
 30
0.0000
  0
VERTEX
  8
0
 10
1079.4292
 20
777.8973
 30
0.0000
  0
VERTEX
  8
0
 10
1078.7736
 20
777.7135
 30
0.0000
  0
VERTEX
  8
0
 10
1078.1792
 20
777.4450
 30
0.0000
  0
VERTEX
  8
0
 10
1077.8429
 20
777.2344
 30
0.0000
  0
SEQEND
  0
POLYLINE
  6
continous
  8
BYBLOCK
 70
0
 66
1
  0
VERTEX
  8
0
 10
1035.4165
 20
747.2344
 30
0.0000
  0
VERTEX
  8
0
 10
1035.0084
 20
746.8916
 30
0.0000
  0
VERTEX
  8
0
 10
1034.6890
 20
746.5046
 30
0.0000
  0
VERTEX
  8
0
 10
1034.4678
 20
746.0847
 30
0.0000
  0
VERTEX
  8
0
 10
1034.3511
 20
745.6443
 30
0.0000
  0
VERTEX
  8
0
 10
1034.3331
 20
745.4204
 30
0.0000
  0
SEQEND
  0
LINE
  6
continous
  8
BYBLOCK
 10
1035.4165
 20
747.2344
 30
0.0000
 11
1035.4165
 21
747.3051
 31
0.0000
  0
POLYLINE
  6
continous
  8
BYBLOCK
 70
0
 66
1
  0
VERTEX
  8
0
 10
1041.7324
 20
745.4189
 30
0.0000
  0
VERTEX
  8
0
 10
1041.6684
 20
745.8701
 30
0.0000
  0
VERTEX
  8
0
 10
1041.4952
 20
746.3068
 30
0.0000
  0
VERTEX
  8
0
 10
1041.2179
 20
746.7157
 30
0.0000
  0
VERTEX
  8
0
 10
1040.8450
 20
747.0846
 30
0.0000
  0
VERTEX
  8
0
 10
1040.3376
 20
747.4311
 30
0.0000
  0
VERTEX
  8
0
 10
1039.7465
 20
747.7032
 30
0.0000
  0
VERTEX
  8
0
 10
1039.0931
 20
747.8910
 30
0.0000
  0
VERTEX
  8
0
 10
1038.4012
 20
747.9877
 30
0.0000
  0
VERTEX
  8
0
 10
1037.6959
 20
747.9898
 30
0.0000
  0
VERTEX
  8
0
 10
1037.0028
 20
747.8973
 30
0.0000
  0
VERTEX
  8
0
 10
1036.3472
 20
747.7135
 30
0.0000
  0
VERTEX
  8
0
 10
1035.7528
 20
747.4450
 30
0.0000
  0
VERTEX
  8
0
 10
1035.4165
 20
747.2344
 30
0.0000
  0
SEQEND
  0
POLYLINE
  6
continous
  8
BYBLOCK
 70
0
 66
1
  0
VERTEX
  8
0
 10
992.9901
 20
717.2344
 30
0.0000
  0
VERTEX
  8
0
 10
992.5820
 20
716.8916
 30
0.0000
  0
VERTEX
  8
0
 10
992.2626
 20
716.5046
 30
0.0000
  0
VERTEX
  8
0
 10
992.0414
 20
716.0847
 30
0.0000
  0
VERTEX
  8
0
 10
991.9246
 20
715.6443
 30
0.0000
  0
VERTEX
  8
0
 10
991.9067
 20
715.4204
 30
0.0000
  0
SEQEND
  0
LINE
  6
continous
  8
BYBLOCK
 10
992.9901
 20
717.2344
 30
0.0000
 11
992.9901
 21
717.3051
 31
0.0000
  0
POLYLINE
  6
continous
  8
BYBLOCK
 70
0
 66
1
  0
VERTEX
  8
0
 10
999.3060
 20
715.4189
 30
0.0000
  0
VERTEX
  8
0
 10
999.2420
 20
715.8701
 30
0.0000
  0
VERTEX
  8
0
 10
999.0688
 20
716.3068
 30
0.0000
  0
VERTEX
  8
0
 10
998.7915
 20
716.7157
 30
0.0000
  0
VERTEX
  8
0
 10
998.4185
 20
717.0846
 30
0.0000
  0
VERTEX
  8
0
 10
997.9112
 20
717.4311
 30
0.0000
  0
VERTEX
  8
0
 10
997.3201
 20
717.7032
 30
0.0000
  0
VERTEX
  8
0
 10
996.6667
 20
717.8910
 30
0.0000
  0
VERTEX
  8
0
 10
995.9748
 20
717.9877
 30
0.0000
  0
VERTEX
  8
0
 10
995.2695
 20
717.9898
 30
0.0000
  0
VERTEX
  8
0
 10
994.5764
 20
717.8973
 30
0.0000
  0
VERTEX
  8
0
 10
993.9208
 20
717.7135
 30
0.0000
  0
VERTEX
  8
0
 10
993.3264
 20
717.4450
 30
0.0000
  0
VERTEX
  8
0
 10
992.9901
 20
717.2344
 30
0.0000
  0
SEQEND
  0
POLYLINE
  6
continous
  8
BYBLOCK
 70
0
 66
1
  0
VERTEX
  8
0
 10
950.5636
 20
687.2344
 30
0.0000
  0
VERTEX
  8
0
 10
950.1556
 20
686.8916
 30
0.0000
  0
VERTEX
  8
0
 10
949.8362
 20
686.5046
 30
0.0000
  0
VERTEX
  8
0
 10
949.6149
 20
686.0847
 30
0.0000
  0
VERTEX
  8
0
 10
949.4982
 20
685.6443
 30
0.0000
  0
VERTEX
  8
0
 10
949.4803
 20
685.4204
 30
0.0000
  0
SEQEND
  0
LINE
  6
continous
  8
BYBLOCK
 10
950.5636
 20
687.2344
 30
0.0000
 11
950.5636
 21
687.3051
 31
0.0000
  0
POLYLINE
  6
continous
  8
BYBLOCK
 70
0
 66
1
  0
VERTEX
  8
0
 10
956.8796
 20
685.4189
 30
0.0000
  0
VERTEX
  8
0
 10
956.8156
 20
685.8701
 30
0.0000
  0
VERTEX
  8
0
 10
956.6424
 20
686.3068
 30
0.0000
  0
VERTEX
  8
0
 10
956.3651
 20
686.7157
 30
0.0000
  0
VERTEX
  8
0
 10
955.9921
 20
687.0846
 30
0.0000
  0
VERTEX
  8
0
 10
955.4848
 20
687.4311
 30
0.0000
  0
VERTEX
  8
0
 10
954.8937
 20
687.7032
 30
0.0000
  0
VERTEX
  8
0
 10
954.2403
 20
687.8910
 30
0.0000
  0
VERTEX
  8
0
 10
953.5484
 20
687.9877
 30
0.0000
  0
VERTEX
  8
0
 10
952.8431
 20
687.9898
 30
0.0000
  0
VERTEX
  8
0
 10
952.1500
 20
687.8973
 30
0.0000
  0
VERTEX
  8
0
 10
951.4944
 20
687.7135
 30
0.0000
  0
VERTEX
  8
0
 10
950.9000
 20
687.4450
 30
0.0000
  0
VERTEX
  8
0
 10
950.5636
 20
687.2344
 30
0.0000
  0
SEQEND
  0
POLYLINE
  6
continous
  8
BYBLOCK
 70
0
 66
1
  0
VERTEX
  8
0
 10
908.1372
 20
657.2344
 30
0.0000
  0
VERTEX
  8
0
 10
907.7292
 20
656.8916
 30
0.0000
  0
VERTEX
  8
0
 10
907.4098
 20
656.5046
 30
0.0000
  0
VERTEX
  8
0
 10
907.1885
 20
656.0847
 30
0.0000
  0
VERTEX
  8
0
 10
907.0718
 20
655.6443
 30
0.0000
  0
VERTEX
  8
0
 10
907.0539
 20
655.4204
 30
0.0000
  0
SEQEND
  0
LINE
  6
continous
  8
BYBLOCK
 10
908.1372
 20
657.2344
 30
0.0000
 11
908.1372
 21
657.3051
 31
0.0000
  0
POLYLINE
  6
continous
  8
BYBLOCK
 70
0
 66
1
  0
VERTEX
  8
0
 10
914.4532
 20
655.4189
 30
0.0000
  0
VERTEX
  8
0
 10
914.3892
 20
655.8701
 30
0.0000
  0
VERTEX
  8
0
 10
914.2160
 20
656.3068
 30
0.0000
  0
VERTEX
  8
0
 10
913.9387
 20
656.7157
 30
0.0000
  0
VERTEX
  8
0
 10
913.5657
 20
657.0846
 30
0.0000
  0
VERTEX
  8
0
 10
913.0584
 20
657.4311
 30
0.0000
  0
VERTEX
  8
0
 10
912.4673
 20
657.7032
 30
0.0000
  0
VERTEX
  8
0
 10
911.8139
 20
657.8910
 30
0.0000
  0
VERTEX
  8
0
 10
911.1220
 20
657.9877
 30
0.0000
  0
VERTEX
  8
0
 10
910.4167
 20
657.9898
 30
0.0000
  0
VERTEX
  8
0
 10
909.7236
 20
657.8973
 30
0.0000
  0
VERTEX
  8
0
 10
909.0680
 20
657.7135
 30
0.0000
  0
VERTEX
  8
0
 10
908.4736
 20
657.4450
 30
0.0000
  0
VERTEX
  8
0
 10
908.1372
 20
657.2344
 30
0.0000
  0
SEQEND
  0
POLYLINE
  6
continous
  8
BYBLOCK
 70
0
 66
1
  0
VERTEX
  8
0
 10
865.7108
 20
627.2344
 30
0.0000
  0
VERTEX
  8
0
 10
865.3028
 20
626.8916
 30
0.0000
  0
VERTEX
  8
0
 10
864.9834
 20
626.5046
 30
0.0000
  0
VERTEX
  8
0
 10
864.7621
 20
626.0847
 30
0.0000
  0
VERTEX
  8
0
 10
864.6454
 20
625.6443
 30
0.0000
  0
VERTEX
  8
0
 10
864.6275
 20
625.4204
 30
0.0000
  0
SEQEND
  0
LINE
  6
continous
  8
BYBLOCK
 10
865.7108
 20
627.2344
 30
0.0000
 11
865.7108
 21
627.3051
 31
0.0000
  0
POLYLINE
  6
continous
  8
BYBLOCK
 70
0
 66
1
  0
VERTEX
  8
0
 10
872.0268
 20
625.4189
 30
0.0000
  0
VERTEX
  8
0
 10
871.9628
 20
625.8701
 30
0.0000
  0
VERTEX
  8
0
 10
871.7896
 20
626.3068
 30
0.0000
  0
VERTEX
  8
0
 10
871.5123
 20
626.7157
 30
0.0000
  0
VERTEX
  8
0
 10
871.1393
 20
627.0846
 30
0.0000
  0
VERTEX
  8
0
 10
870.6320
 20
627.4311
 30
0.0000
  0
VERTEX
  8
0
 10
870.0409
 20
627.7032
 30
0.0000
  0
VERTEX
  8
0
 10
869.3875
 20
627.8910
 30
0.0000
  0
VERTEX
  8
0
 10
868.6956
 20
627.9877
 30
0.0000
  0
VERTEX
  8
0
 10
867.9903
 20
627.9898
 30
0.0000
  0
VERTEX
  8
0
 10
867.2972
 20
627.8973
 30
0.0000
  0
VERTEX
  8
0
 10
866.6416
 20
627.7135
 30
0.0000
  0
VERTEX
  8
0
 10
866.0472
 20
627.4450
 30
0.0000
  0
VERTEX
  8
0
 10
865.7108
 20
627.2344
 30
0.0000
  0
SEQEND
  0
POLYLINE
  6
continous
  8
BYBLOCK
 70
0
 66
1
  0
VERTEX
  8
0
 10
823.2844
 20
597.2344
 30
0.0000
  0
VERTEX
  8
0
 10
822.8764
 20
596.8916
 30
0.0000
  0
VERTEX
  8
0
 10
822.5570
 20
596.5046
 30
0.0000
  0
VERTEX
  8
0
 10
822.3357
 20
596.0847
 30
0.0000
  0
VERTEX
  8
0
 10
822.2190
 20
595.6443
 30
0.0000
  0
VERTEX
  8
0
 10
822.2011
 20
595.4204
 30
0.0000
  0
SEQEND
  0
LINE
  6
continous
  8
BYBLOCK
 10
823.2844
 20
597.2344
 30
0.0000
 11
823.2844
 21
597.3051
 31
0.0000
  0
POLYLINE
  6
continous
  8
BYBLOCK
 70
0
 66
1
  0
VERTEX
  8
0
 10
829.6004
 20
595.4189
 30
0.0000
  0
VERTEX
  8
0
 10
829.5364
 20
595.8701
 30
0.0000
  0
VERTEX
  8
0
 10
829.3632
 20
596.3068
 30
0.0000
  0
VERTEX
  8
0
 10
829.0859
 20
596.7157
 30
0.0000
  0
VERTEX
  8
0
 10
828.7129
 20
597.0846
 30
0.0000
  0
VERTEX
  8
0
 10
828.2056
 20
597.4311
 30
0.0000
  0
VERTEX
  8
0
 10
827.6145
 20
597.7032
 30
0.0000
  0
VERTEX
  8
0
 10
826.9611
 20
597.8910
 30
0.0000
  0
VERTEX
  8
0
 10
826.2692
 20
597.9877
 30
0.0000
  0
VERTEX
  8
0
 10
825.5639
 20
597.9898
 30
0.0000
  0
VERTEX
  8
0
 10
824.8708
 20
597.8973
 30
0.0000
  0
VERTEX
  8
0
 10
824.2152
 20
597.7135
 30
0.0000
  0
VERTEX
  8
0
 10
823.6208
 20
597.4450
 30
0.0000
  0
VERTEX
  8
0
 10
823.2844
 20
597.2344
 30
0.0000
  0
SEQEND
  0
POLYLINE
  6
continous
  8
BYBLOCK
 70
0
 66
1
  0
VERTEX
  8
0
 10
780.8580
 20
567.2344
 30
0.0000
  0
VERTEX
  8
0
 10
780.4499
 20
566.8916
 30
0.0000
  0
VERTEX
  8
0
 10
780.1306
 20
566.5046
 30
0.0000
  0
VERTEX
  8
0
 10
779.9093
 20
566.0847
 30
0.0000
  0
VERTEX
  8
0
 10
779.7926
 20
565.6443
 30
0.0000
  0
VERTEX
  8
0
 10
779.7747
 20
565.4204
 30
0.0000
  0
SEQEND
  0
LINE
  6
continous
  8
BYBLOCK
 10
780.8580
 20
567.2344
 30
0.0000
 11
780.8580
 21
567.3051
 31
0.0000
  0
POLYLINE
  6
continous
  8
BYBLOCK
 70
0
 66
1
  0
VERTEX
  8
0
 10
787.1740
 20
565.4189
 30
0.0000
  0
VERTEX
  8
0
 10
787.1100
 20
565.8701
 30
0.0000
  0
VERTEX
  8
0
 10
786.9368
 20
566.3068
 30
0.0000
  0
VERTEX
  8
0
 10
786.6595
 20
566.7157
 30
0.0000
  0
VERTEX
  8
0
 10
786.2865
 20
567.0846
 30
0.0000
  0
VERTEX
  8
0
 10
785.7792
 20
567.4311
 30
0.0000
  0
VERTEX
  8
0
 10
785.1880
 20
567.7032
 30
0.0000
  0
VERTEX
  8
0
 10
784.5347
 20
567.8910
 30
0.0000
  0
VERTEX
  8
0
 10
783.8428
 20
567.9877
 30
0.0000
  0
VERTEX
  8
0
 10
783.1375
 20
567.9898
 30
0.0000
  0
VERTEX
  8
0
 10
782.4444
 20
567.8973
 30
0.0000
  0
VERTEX
  8
0
 10
781.7888
 20
567.7135
 30
0.0000
  0
VERTEX
  8
0
 10
781.1944
 20
567.4450
 30
0.0000
  0
VERTEX
  8
0
 10
780.8580
 20
567.2344
 30
0.0000
  0
SEQEND
  0
POLYLINE
  6
continous
  8
BYBLOCK
 70
0
 66
1
  0
VERTEX
  8
0
 10
738.4316
 20
537.2344
 30
0.0000
  0
VERTEX
  8
0
 10
738.0235
 20
536.8916
 30
0.0000
  0
VERTEX
  8
0
 10
737.7042
 20
536.5046
 30
0.0000
  0
VERTEX
  8
0
 10
737.4829
 20
536.0847
 30
0.0000
  0
VERTEX
  8
0
 10
737.3662
 20
535.6443
 30
0.0000
  0
VERTEX
  8
0
 10
737.3483
 20
535.4204
 30
0.0000
  0
SEQEND
  0
LINE
  6
continous
  8
BYBLOCK
 10
738.4316
 20
537.2344
 30
0.0000
 11
738.4316
 21
537.3051
 31
0.0000
  0
POLYLINE
  6
continous
  8
BYBLOCK
 70
0
 66
1
  0
VERTEX
  8
0
 10
744.7476
 20
535.4189
 30
0.0000
  0
VERTEX
  8
0
 10
744.6836
 20
535.8701
 30
0.0000
  0
VERTEX
  8
0
 10
744.5104
 20
536.3068
 30
0.0000
  0
VERTEX
  8
0
 10
744.2331
 20
536.7157
 30
0.0000
  0
VERTEX
  8
0
 10
743.8601
 20
537.0846
 30
0.0000
  0
VERTEX
  8
0
 10
743.3527
 20
537.4311
 30
0.0000
  0
VERTEX
  8
0
 10
742.7616
 20
537.7032
 30
0.0000
  0
VERTEX
  8
0
 10
742.1083
 20
537.8910
 30
0.0000
  0
VERTEX
  8
0
 10
741.4163
 20
537.9877
 30
0.0000
  0
VERTEX
  8
0
 10
740.7110
 20
537.9898
 30
0.0000
  0
VERTEX
  8
0
 10
740.0180
 20
537.8973
 30
0.0000
  0
VERTEX
  8
0
 10
739.3624
 20
537.7135
 30
0.0000
  0
VERTEX
  8
0
 10
738.7680
 20
537.4450
 30
0.0000
  0
VERTEX
  8
0
 10
738.4316
 20
537.2344
 30
0.0000
  0
SEQEND
  0
POLYLINE
  6
continous
  8
BYBLOCK
 70
0
 66
1
  0
VERTEX
  8
0
 10
696.0052
 20
507.2344
 30
0.0000
  0
VERTEX
  8
0
 10
695.5971
 20
506.8916
 30
0.0000
  0
VERTEX
  8
0
 10
695.2778
 20
506.5046
 30
0.0000
  0
VERTEX
  8
0
 10
695.0565
 20
506.0847
 30
0.0000
  0
VERTEX
  8
0
 10
694.9398
 20
505.6443
 30
0.0000
  0
VERTEX
  8
0
 10
694.9218
 20
505.4204
 30
0.0000
  0
SEQEND
  0
LINE
  6
continous
  8
BYBLOCK
 10
696.0052
 20
507.2344
 30
0.0000
 11
696.0052
 21
507.3051
 31
0.0000
  0
POLYLINE
  6
continous
  8
BYBLOCK
 70
0
 66
1
  0
VERTEX
  8
0
 10
702.3212
 20
505.4189
 30
0.0000
  0
VERTEX
  8
0
 10
702.2572
 20
505.8701
 30
0.0000
  0
VERTEX
  8
0
 10
702.0839
 20
506.3068
 30
0.0000
  0
VERTEX
  8
0
 10
701.8067
 20
506.7157
 30
0.0000
  0
VERTEX
  8
0
 10
701.4337
 20
507.0846
 30
0.0000
  0
VERTEX
  8
0
 10
700.9263
 20
507.4311
 30
0.0000
  0
VERTEX
  8
0
 10
700.3352
 20
507.7032
 30
0.0000
  0
VERTEX
  8
0
 10
699.6818
 20
507.8910
 30
0.0000
  0
VERTEX
  8
0
 10
698.9899
 20
507.9877
 30
0.0000
  0
VERTEX
  8
0
 10
698.2846
 20
507.9898
 30
0.0000
  0
VERTEX
  8
0
 10
697.5916
 20
507.8973
 30
0.0000
  0
VERTEX
  8
0
 10
696.9359
 20
507.7135
 30
0.0000
  0
VERTEX
  8
0
 10
696.3416
 20
507.4450
 30
0.0000
  0
VERTEX
  8
0
 10
696.0052
 20
507.2344
 30
0.0000
  0
SEQEND
  0
POLYLINE
  6
continous
  8
BYBLOCK
 70
0
 66
1
  0
VERTEX
  8
0
 10
653.5788
 20
477.2344
 30
0.0000
  0
VERTEX
  8
0
 10
653.1707
 20
476.8916
 30
0.0000
  0
VERTEX
  8
0
 10
652.8514
 20
476.5046
 30
0.0000
  0
VERTEX
  8
0
 10
652.6301
 20
476.0847
 30
0.0000
  0
VERTEX
  8
0
 10
652.5134
 20
475.6443
 30
0.0000
  0
VERTEX
  8
0
 10
652.4954
 20
475.4204
 30
0.0000
  0
SEQEND
  0
LINE
  6
continous
  8
BYBLOCK
 10
653.5788
 20
477.2344
 30
0.0000
 11
653.5788
 21
477.3051
 31
0.0000
  0
POLYLINE
  6
continous
  8
BYBLOCK
 70
0
 66
1
  0
VERTEX
  8
0
 10
659.8948
 20
475.4189
 30
0.0000
  0
VERTEX
  8
0
 10
659.8308
 20
475.8701
 30
0.0000
  0
VERTEX
  8
0
 10
659.6575
 20
476.3068
 30
0.0000
  0
VERTEX
  8
0
 10
659.3803
 20
476.7157
 30
0.0000
  0
VERTEX
  8
0
 10
659.0073
 20
477.0846
 30
0.0000
  0
VERTEX
  8
0
 10
658.4999
 20
477.4311
 30
0.0000
  0
VERTEX
  8
0
 10
657.9088
 20
477.7032
 30
0.0000
  0
VERTEX
  8
0
 10
657.2554
 20
477.8910
 30
0.0000
  0
VERTEX
  8
0
 10
656.5635
 20
477.9877
 30
0.0000
  0
VERTEX
  8
0
 10
655.8582
 20
477.9898
 30
0.0000
  0
VERTEX
  8
0
 10
655.1652
 20
477.8973
 30
0.0000
  0
VERTEX
  8
0
 10
654.5095
 20
477.7135
 30
0.0000
  0
VERTEX
  8
0
 10
653.9152
 20
477.4450
 30
0.0000
  0
VERTEX
  8
0
 10
653.5788
 20
477.2344
 30
0.0000
  0
SEQEND
  0
POLYLINE
  6
continous
  8
BYBLOCK
 70
0
 66
1
  0
VERTEX
  8
0
 10
611.1524
 20
447.2344
 30
0.0000
  0
VERTEX
  8
0
 10
610.7443
 20
446.8916
 30
0.0000
  0
VERTEX
  8
0
 10
610.4250
 20
446.5046
 30
0.0000
  0
VERTEX
  8
0
 10
610.2037
 20
446.0847
 30
0.0000
  0
VERTEX
  8
0
 10
610.0870
 20
445.6443
 30
0.0000
  0
VERTEX
  8
0
 10
610.0690
 20
445.4204
 30
0.0000
  0
SEQEND
  0
LINE
  6
continous
  8
BYBLOCK
 10
611.1524
 20
447.2344
 30
0.0000
 11
611.1524
 21
447.3051
 31
0.0000
  0
POLYLINE
  6
continous
  8
BYBLOCK
 70
0
 66
1
  0
VERTEX
  8
0
 10
617.4684
 20
445.4189
 30
0.0000
  0
VERTEX
  8
0
 10
617.4044
 20
445.8701
 30
0.0000
  0
VERTEX
  8
0
 10
617.2311
 20
446.3068
 30
0.0000
  0
VERTEX
  8
0
 10
616.9539
 20
446.7157
 30
0.0000
  0
VERTEX
  8
0
 10
616.5809
 20
447.0846
 30
0.0000
  0
VERTEX
  8
0
 10
616.0735
 20
447.4311
 30
0.0000
  0
VERTEX
  8
0
 10
615.4824
 20
447.7032
 30
0.0000
  0
VERTEX
  8
0
 10
614.8290
 20
447.8910
 30
0.0000
  0
VERTEX
  8
0
 10
614.1371
 20
447.9877
 30
0.0000
  0
VERTEX
  8
0
 10
613.4318
 20
447.9898
 30
0.0000
  0
VERTEX
  8
0
 10
612.7388
 20
447.8973
 30
0.0000
  0
VERTEX
  8
0
 10
612.0831
 20
447.7135
 30
0.0000
  0
VERTEX
  8
0
 10
611.4887
 20
447.4450
 30
0.0000
  0
VERTEX
  8
0
 10
611.1524
 20
447.2344
 30
0.0000
  0
SEQEND
  0
POLYLINE
  6
continous
  8
BYBLOCK
 70
0
 66
1
  0
VERTEX
  8
0
 10
568.7260
 20
417.2344
 30
0.0000
  0
VERTEX
  8
0
 10
568.3179
 20
416.8916
 30
0.0000
  0
VERTEX
  8
0
 10
567.9986
 20
416.5046
 30
0.0000
  0
VERTEX
  8
0
 10
567.7773
 20
416.0847
 30
0.0000
  0
VERTEX
  8
0
 10
567.6606
 20
415.6443
 30
0.0000
  0
VERTEX
  8
0
 10
567.6426
 20
415.4204
 30
0.0000
  0
SEQEND
  0
LINE
  6
continous
  8
BYBLOCK
 10
568.7260
 20
417.2344
 30
0.0000
 11
568.7260
 21
417.3051
 31
0.0000
  0
POLYLINE
  6
continous
  8
BYBLOCK
 70
0
 66
1
  0
VERTEX
  8
0
 10
575.0420
 20
415.4189
 30
0.0000
  0
VERTEX
  8
0
 10
574.9780
 20
415.8701
 30
0.0000
  0
VERTEX
  8
0
 10
574.8047
 20
416.3068
 30
0.0000
  0
VERTEX
  8
0
 10
574.5275
 20
416.7157
 30
0.0000
  0
VERTEX
  8
0
 10
574.1545
 20
417.0846
 30
0.0000
  0
VERTEX
  8
0
 10
573.6471
 20
417.4311
 30
0.0000
  0
VERTEX
  8
0
 10
573.0560
 20
417.7032
 30
0.0000
  0
VERTEX
  8
0
 10
572.4026
 20
417.8910
 30
0.0000
  0
VERTEX
  8
0
 10
571.7107
 20
417.9877
 30
0.0000
  0
VERTEX
  8
0
 10
571.0054
 20
417.9898
 30
0.0000
  0
VERTEX
  8
0
 10
570.3124
 20
417.8973
 30
0.0000
  0
VERTEX
  8
0
 10
569.6567
 20
417.7135
 30
0.0000
  0
VERTEX
  8
0
 10
569.0623
 20
417.4450
 30
0.0000
  0
VERTEX
  8
0
 10
568.7260
 20
417.2344
 30
0.0000
  0
SEQEND
  0
POLYLINE
  6
continous
  8
BYBLOCK
 70
0
 66
1
  0
VERTEX
  8
0
 10
526.2996
 20
387.2344
 30
0.0000
  0
VERTEX
  8
0
 10
525.8915
 20
386.8916
 30
0.0000
  0
VERTEX
  8
0
 10
525.5722
 20
386.5046
 30
0.0000
  0
VERTEX
  8
0
 10
525.3509
 20
386.0847
 30
0.0000
  0
VERTEX
  8
0
 10
525.2342
 20
385.6443
 30
0.0000
  0
VERTEX
  8
0
 10
525.2162
 20
385.4204
 30
0.0000
  0
SEQEND
  0
LINE
  6
continous
  8
BYBLOCK
 10
526.2996
 20
387.2344
 30
0.0000
 11
526.2996
 21
387.3051
 31
0.0000
  0
POLYLINE
  6
continous
  8
BYBLOCK
 70
0
 66
1
  0
VERTEX
  8
0
 10
532.6156
 20
385.4189
 30
0.0000
  0
VERTEX
  8
0
 10
532.5516
 20
385.8701
 30
0.0000
  0
VERTEX
  8
0
 10
532.3783
 20
386.3068
 30
0.0000
  0
VERTEX
  8
0
 10
532.1010
 20
386.7157
 30
0.0000
  0
VERTEX
  8
0
 10
531.7281
 20
387.0846
 30
0.0000
  0
VERTEX
  8
0
 10
531.2207
 20
387.4311
 30
0.0000
  0
VERTEX
  8
0
 10
530.6296
 20
387.7032
 30
0.0000
  0
VERTEX
  8
0
 10
529.9762
 20
387.8910
 30
0.0000
  0
VERTEX
  8
0
 10
529.2843
 20
387.9877
 30
0.0000
  0
VERTEX
  8
0
 10
528.5790
 20
387.9898
 30
0.0000
  0
VERTEX
  8
0
 10
527.8860
 20
387.8973
 30
0.0000
  0
VERTEX
  8
0
 10
527.2303
 20
387.7135
 30
0.0000
  0
VERTEX
  8
0
 10
526.6359
 20
387.4450
 30
0.0000
  0
VERTEX
  8
0
 10
526.2996
 20
387.2344
 30
0.0000
  0
SEQEND
  0
POLYLINE
  6
continous
  8
BYBLOCK
 70
0
 66
1
  0
VERTEX
  8
0
 10
483.8732
 20
357.2344
 30
0.0000
  0
VERTEX
  8
0
 10
483.4651
 20
356.8916
 30
0.0000
  0
VERTEX
  8
0
 10
483.1457
 20
356.5046
 30
0.0000
  0
VERTEX
  8
0
 10
482.9245
 20
356.0847
 30
0.0000
  0
VERTEX
  8
0
 10
482.8078
 20
355.6443
 30
0.0000
  0
VERTEX
  8
0
 10
482.7898
 20
355.4204
 30
0.0000
  0
SEQEND
  0
LINE
  6
continous
  8
BYBLOCK
 10
483.8732
 20
357.2344
 30
0.0000
 11
483.8732
 21
357.3051
 31
0.0000
  0
POLYLINE
  6
continous
  8
BYBLOCK
 70
0
 66
1
  0
VERTEX
  8
0
 10
490.1891
 20
355.4189
 30
0.0000
  0
VERTEX
  8
0
 10
490.1251
 20
355.8701
 30
0.0000
  0
VERTEX
  8
0
 10
489.9519
 20
356.3068
 30
0.0000
  0
VERTEX
  8
0
 10
489.6746
 20
356.7157
 30
0.0000
  0
VERTEX
  8
0
 10
489.3017
 20
357.0846
 30
0.0000
  0
VERTEX
  8
0
 10
488.7943
 20
357.4311
 30
0.0000
  0
VERTEX
  8
0
 10
488.2032
 20
357.7032
 30
0.0000
  0
VERTEX
  8
0
 10
487.5498
 20
357.8910
 30
0.0000
  0
VERTEX
  8
0
 10
486.8579
 20
357.9877
 30
0.0000
  0
VERTEX
  8
0
 10
486.1526
 20
357.9898
 30
0.0000
  0
VERTEX
  8
0
 10
485.4595
 20
357.8973
 30
0.0000
  0
VERTEX
  8
0
 10
484.8039
 20
357.7135
 30
0.0000
  0
VERTEX
  8
0
 10
484.2095
 20
357.4450
 30
0.0000
  0
VERTEX
  8
0
 10
483.8732
 20
357.2344
 30
0.0000
  0
SEQEND
  0
POLYLINE
  6
continous
  8
BYBLOCK
 70
0
 66
1
  0
VERTEX
  8
0
 10
441.4468
 20
327.2344
 30
0.0000
  0
VERTEX
  8
0
 10
441.0387
 20
326.8916
 30
0.0000
  0
VERTEX
  8
0
 10
440.7193
 20
326.5046
 30
0.0000
  0
VERTEX
  8
0
 10
440.4981
 20
326.0847
 30
0.0000
  0
VERTEX
  8
0
 10
440.3814
 20
325.6443
 30
0.0000
  0
VERTEX
  8
0
 10
440.3634
 20
325.4204
 30
0.0000
  0
SEQEND
  0
LINE
  6
continous
  8
BYBLOCK
 10
441.4468
 20
327.2344
 30
0.0000
 11
441.4468
 21
327.3051
 31
0.0000
  0
POLYLINE
  6
continous
  8
BYBLOCK
 70
0
 66
1
  0
VERTEX
  8
0
 10
447.7627
 20
325.4189
 30
0.0000
  0
VERTEX
  8
0
 10
447.6987
 20
325.8701
 30
0.0000
  0
VERTEX
  8
0
 10
447.5255
 20
326.3068
 30
0.0000
  0
VERTEX
  8
0
 10
447.2482
 20
326.7157
 30
0.0000
  0
VERTEX
  8
0
 10
446.8753
 20
327.0846
 30
0.0000
  0
VERTEX
  8
0
 10
446.3679
 20
327.4311
 30
0.0000
  0
VERTEX
  8
0
 10
445.7768
 20
327.7032
 30
0.0000
  0
VERTEX
  8
0
 10
445.1234
 20
327.8910
 30
0.0000
  0
VERTEX
  8
0
 10
444.4315
 20
327.9877
 30
0.0000
  0
VERTEX
  8
0
 10
443.7262
 20
327.9898
 30
0.0000
  0
VERTEX
  8
0
 10
443.0331
 20
327.8973
 30
0.0000
  0
VERTEX
  8
0
 10
442.3775
 20
327.7135
 30
0.0000
  0
VERTEX
  8
0
 10
441.7831
 20
327.4450
 30
0.0000
  0
VERTEX
  8
0
 10
441.4468
 20
327.2344
 30
0.0000
  0
SEQEND
  0
POLYLINE
  6
continous
  8
BYBLOCK
 70
0
 66
1
  0
VERTEX
  8
0
 10
399.0204
 20
297.2344
 30
0.0000
  0
VERTEX
  8
0
 10
398.6123
 20
296.8916
 30
0.0000
  0
VERTEX
  8
0
 10
398.2929
 20
296.5046
 30
0.0000
  0
VERTEX
  8
0
 10
398.0717
 20
296.0847
 30
0.0000
  0
VERTEX
  8
0
 10
397.9549
 20
295.6443
 30
0.0000
  0
VERTEX
  8
0
 10
397.9370
 20
295.4204
 30
0.0000
  0
SEQEND
  0
LINE
  6
continous
  8
BYBLOCK
 10
399.0204
 20
297.2344
 30
0.0000
 11
399.0204
 21
297.3051
 31
0.0000
  0
POLYLINE
  6
continous
  8
BYBLOCK
 70
0
 66
1
  0
VERTEX
  8
0
 10
405.3363
 20
295.4189
 30
0.0000
  0
VERTEX
  8
0
 10
405.2723
 20
295.8701
 30
0.0000
  0
VERTEX
  8
0
 10
405.0991
 20
296.3068
 30
0.0000
  0
VERTEX
  8
0
 10
404.8218
 20
296.7157
 30
0.0000
  0
VERTEX
  8
0
 10
404.4488
 20
297.0846
 30
0.0000
  0
VERTEX
  8
0
 10
403.9415
 20
297.4311
 30
0.0000
  0
VERTEX
  8
0
 10
403.3504
 20
297.7032
 30
0.0000
  0
VERTEX
  8
0
 10
402.6970
 20
297.8910
 30
0.0000
  0
VERTEX
  8
0
 10
402.0051
 20
297.9877
 30
0.0000
  0
VERTEX
  8
0
 10
401.2998
 20
297.9898
 30
0.0000
  0
VERTEX
  8
0
 10
400.6067
 20
297.8973
 30
0.0000
  0
VERTEX
  8
0
 10
399.9511
 20
297.7135
 30
0.0000
  0
VERTEX
  8
0
 10
399.3567
 20
297.4450
 30
0.0000
  0
VERTEX
  8
0
 10
399.0204
 20
297.2344
 30
0.0000
  0
SEQEND
  0
POLYLINE
  6
continous
  8
BYBLOCK
 70
0
 66
1
  0
VERTEX
  8
0
 10
356.5939
 20
267.2344
 30
0.0000
  0
VERTEX
  8
0
 10
356.1859
 20
266.8916
 30
0.0000
  0
VERTEX
  8
0
 10
355.8665
 20
266.5046
 30
0.0000
  0
VERTEX
  8
0
 10
355.6452
 20
266.0847
 30
0.0000
  0
VERTEX
  8
0
 10
355.5285
 20
265.6443
 30
0.0000
  0
VERTEX
  8
0
 10
355.5106
 20
265.4204
 30
0.0000
  0
SEQEND
  0
LINE
  6
continous
  8
BYBLOCK
 10
356.5939
 20
267.2344
 30
0.0000
 11
356.5939
 21
267.3051
 31
0.0000
  0
POLYLINE
  6
continous
  8
BYBLOCK
 70
0
 66
1
  0
VERTEX
  8
0
 10
362.9099
 20
265.4189
 30
0.0000
  0
VERTEX
  8
0
 10
362.8459
 20
265.8701
 30
0.0000
  0
VERTEX
  8
0
 10
362.6727
 20
266.3068
 30
0.0000
  0
VERTEX
  8
0
 10
362.3954
 20
266.7157
 30
0.0000
  0
VERTEX
  8
0
 10
362.0224
 20
267.0846
 30
0.0000
  0
VERTEX
  8
0
 10
361.5151
 20
267.4311
 30
0.0000
  0
VERTEX
  8
0
 10
360.9240
 20
267.7032
 30
0.0000
  0
VERTEX
  8
0
 10
360.2706
 20
267.8910
 30
0.0000
  0
VERTEX
  8
0
 10
359.5787
 20
267.9877
 30
0.0000
  0
VERTEX
  8
0
 10
358.8734
 20
267.9898
 30
0.0000
  0
VERTEX
  8
0
 10
358.1803
 20
267.8973
 30
0.0000
  0
VERTEX
  8
0
 10
357.5247
 20
267.7135
 30
0.0000
  0
VERTEX
  8
0
 10
356.9303
 20
267.4450
 30
0.0000
  0
VERTEX
  8
0
 10
356.5939
 20
267.2344
 30
0.0000
  0
SEQEND
  0
POLYLINE
  6
continous
  8
BYBLOCK
 70
0
 66
1
  0
VERTEX
  8
0
 10
314.1675
 20
237.2344
 30
0.0000
  0
VERTEX
  8
0
 10
313.7595
 20
236.8916
 30
0.0000
  0
VERTEX
  8
0
 10
313.4401
 20
236.5046
 30
0.0000
  0
VERTEX
  8
0
 10
313.2188
 20
236.0847
 30
0.0000
  0
VERTEX
  8
0
 10
313.1021
 20
235.6443
 30
0.0000
  0
VERTEX
  8
0
 10
313.0842
 20
235.4204
 30
0.0000
  0
SEQEND
  0
LINE
  6
continous
  8
BYBLOCK
 10
314.1675
 20
237.2344
 30
0.0000
 11
314.1675
 21
237.3051
 31
0.0000
  0
POLYLINE
  6
continous
  8
BYBLOCK
 70
0
 66
1
  0
VERTEX
  8
0
 10
320.4835
 20
235.4189
 30
0.0000
  0
VERTEX
  8
0
 10
320.4195
 20
235.8701
 30
0.0000
  0
VERTEX
  8
0
 10
320.2463
 20
236.3068
 30
0.0000
  0
VERTEX
  8
0
 10
319.9690
 20
236.7157
 30
0.0000
  0
VERTEX
  8
0
 10
319.5960
 20
237.0846
 30
0.0000
  0
VERTEX
  8
0
 10
319.0887
 20
237.4311
 30
0.0000
  0
VERTEX
  8
0
 10
318.4976
 20
237.7032
 30
0.0000
  0
VERTEX
  8
0
 10
317.8442
 20
237.8910
 30
0.0000
  0
VERTEX
  8
0
 10
317.1523
 20
237.9877
 30
0.0000
  0
VERTEX
  8
0
 10
316.4470
 20
237.9898
 30
0.0000
  0
VERTEX
  8
0
 10
315.7539
 20
237.8973
 30
0.0000
  0
VERTEX
  8
0
 10
315.0983
 20
237.7135
 30
0.0000
  0
VERTEX
  8
0
 10
314.5039
 20
237.4450
 30
0.0000
  0
VERTEX
  8
0
 10
314.1675
 20
237.2344
 30
0.0000
  0
SEQEND
  0
POLYLINE
  6
continous
  8
BYBLOCK
 70
0
 66
1
  0
VERTEX
  8
0
 10
271.7411
 20
207.2344
 30
0.0000
  0
VERTEX
  8
0
 10
271.3331
 20
206.8916
 30
0.0000
  0
VERTEX
  8
0
 10
271.0137
 20
206.5046
 30
0.0000
  0
VERTEX
  8
0
 10
270.7924
 20
206.0847
 30
0.0000
  0
VERTEX
  8
0
 10
270.6757
 20
205.6443
 30
0.0000
  0
VERTEX
  8
0
 10
270.6578
 20
205.4204
 30
0.0000
  0
SEQEND
  0
LINE
  6
continous
  8
BYBLOCK
 10
271.7411
 20
207.2344
 30
0.0000
 11
271.7411
 21
207.3051
 31
0.0000
  0
POLYLINE
  6
continous
  8
BYBLOCK
 70
0
 66
1
  0
VERTEX
  8
0
 10
278.0571
 20
205.4189
 30
0.0000
  0
VERTEX
  8
0
 10
277.9931
 20
205.8701
 30
0.0000
  0
VERTEX
  8
0
 10
277.8199
 20
206.3068
 30
0.0000
  0
VERTEX
  8
0
 10
277.5426
 20
206.7157
 30
0.0000
  0
VERTEX
  8
0
 10
277.1696
 20
207.0846
 30
0.0000
  0
VERTEX
  8
0
 10
276.6623
 20
207.4311
 30
0.0000
  0
VERTEX
  8
0
 10
276.0712
 20
207.7032
 30
0.0000
  0
VERTEX
  8
0
 10
275.4178
 20
207.8910
 30
0.0000
  0
VERTEX
  8
0
 10
274.7259
 20
207.9877
 30
0.0000
  0
VERTEX
  8
0
 10
274.0206
 20
207.9898
 30
0.0000
  0
VERTEX
  8
0
 10
273.3275
 20
207.8973
 30
0.0000
  0
VERTEX
  8
0
 10
272.6719
 20
207.7135
 30
0.0000
  0
VERTEX
  8
0
 10
272.0775
 20
207.4450
 30
0.0000
  0
VERTEX
  8
0
 10
271.7411
 20
207.2344
 30
0.0000
  0
SEQEND
  0
POLYLINE
  6
continous
  8
BYBLOCK
 70
0
 66
1
  0
VERTEX
  8
0
 10
229.3147
 20
177.2344
 30
0.0000
  0
VERTEX
  8
0
 10
228.9067
 20
176.8916
 30
0.0000
  0
VERTEX
  8
0
 10
228.5873
 20
176.5046
 30
0.0000
  0
VERTEX
  8
0
 10
228.3660
 20
176.0847
 30
0.0000
  0
VERTEX
  8
0
 10
228.2493
 20
175.6443
 30
0.0000
  0
VERTEX
  8
0
 10
228.2314
 20
175.4204
 30
0.0000
  0
SEQEND
  0
LINE
  6
continous
  8
BYBLOCK
 10
229.3147
 20
177.2344
 30
0.0000
 11
229.3147
 21
177.3051
 31
0.0000
  0
POLYLINE
  6
continous
  8
BYBLOCK
 70
0
 66
1
  0
VERTEX
  8
0
 10
235.6307
 20
175.4189
 30
0.0000
  0
VERTEX
  8
0
 10
235.5667
 20
175.8701
 30
0.0000
  0
VERTEX
  8
0
 10
235.3935
 20
176.3068
 30
0.0000
  0
VERTEX
  8
0
 10
235.1162
 20
176.7157
 30
0.0000
  0
VERTEX
  8
0
 10
234.7432
 20
177.0846
 30
0.0000
  0
VERTEX
  8
0
 10
234.2359
 20
177.4311
 30
0.0000
  0
VERTEX
  8
0
 10
233.6448
 20
177.7032
 30
0.0000
  0
VERTEX
  8
0
 10
232.9914
 20
177.8910
 30
0.0000
  0
VERTEX
  8
0
 10
232.2995
 20
177.9877
 30
0.0000
  0
VERTEX
  8
0
 10
231.5942
 20
177.9898
 30
0.0000
  0
VERTEX
  8
0
 10
230.9011
 20
177.8973
 30
0.0000
  0
VERTEX
  8
0
 10
230.2455
 20
177.7135
 30
0.0000
  0
VERTEX
  8
0
 10
229.6511
 20
177.4450
 30
0.0000
  0
VERTEX
  8
0
 10
229.3147
 20
177.2344
 30
0.0000
  0
SEQEND
  0
POLYLINE
  6
continous
  8
BYBLOCK
 70
0
 66
1
  0
VERTEX
  8
0
 10
186.8883
 20
147.2344
 30
0.0000
  0
VERTEX
  8
0
 10
186.4803
 20
146.8916
 30
0.0000
  0
VERTEX
  8
0
 10
186.1609
 20
146.5046
 30
0.0000
  0
VERTEX
  8
0
 10
185.9396
 20
146.0847
 30
0.0000
  0
VERTEX
  8
0
 10
185.8229
 20
145.6443
 30
0.0000
  0
VERTEX
  8
0
 10
185.8050
 20
145.4204
 30
0.0000
  0
SEQEND
  0
LINE
  6
continous
  8
BYBLOCK
 10
186.8883
 20
147.2344
 30
0.0000
 11
186.8883
 21
147.3051
 31
0.0000
  0
POLYLINE
  6
continous
  8
BYBLOCK
 70
0
 66
1
  0
VERTEX
  8
0
 10
193.2043
 20
145.4189
 30
0.0000
  0
VERTEX
  8
0
 10
193.1403
 20
145.8701
 30
0.0000
  0
VERTEX
  8
0
 10
192.9671
 20
146.3068
 30
0.0000
  0
VERTEX
  8
0
 10
192.6898
 20
146.7157
 30
0.0000
  0
VERTEX
  8
0
 10
192.3168
 20
147.0846
 30
0.0000
  0
VERTEX
  8
0
 10
191.8095
 20
147.4311
 30
0.0000
  0
VERTEX
  8
0
 10
191.2183
 20
147.7032
 30
0.0000
  0
VERTEX
  8
0
 10
190.5650
 20
147.8910
 30
0.0000
  0
VERTEX
  8
0
 10
189.8731
 20
147.9877
 30
0.0000
  0
VERTEX
  8
0
 10
189.1678
 20
147.9898
 30
0.0000
  0
VERTEX
  8
0
 10
188.4747
 20
147.8973
 30
0.0000
  0
VERTEX
  8
0
 10
187.8191
 20
147.7135
 30
0.0000
  0
VERTEX
  8
0
 10
187.2247
 20
147.4450
 30
0.0000
  0
VERTEX
  8
0
 10
186.8883
 20
147.2344
 30
0.0000
  0
SEQEND
  0
POLYLINE
  6
continous
  8
BYBLOCK
 70
0
 66
1
  0
VERTEX
  8
0
 10
144.4619
 20
117.2344
 30
0.0000
  0
VERTEX
  8
0
 10
144.0538
 20
116.8916
 30
0.0000
  0
VERTEX
  8
0
 10
143.7345
 20
116.5046
 30
0.0000
  0
VERTEX
  8
0
 10
143.5132
 20
116.0847
 30
0.0000
  0
VERTEX
  8
0
 10
143.3965
 20
115.6443
 30
0.0000
  0
VERTEX
  8
0
 10
143.3786
 20
115.4204
 30
0.0000
  0
SEQEND
  0
LINE
  6
continous
  8
BYBLOCK
 10
144.4619
 20
117.2344
 30
0.0000
 11
144.4619
 21
117.3051
 31
0.0000
  0
POLYLINE
  6
continous
  8
BYBLOCK
 70
0
 66
1
  0
VERTEX
  8
0
 10
150.7779
 20
115.4189
 30
0.0000
  0
VERTEX
  8
0
 10
150.7139
 20
115.8701
 30
0.0000
  0
VERTEX
  8
0
 10
150.5407
 20
116.3068
 30
0.0000
  0
VERTEX
  8
0
 10
150.2634
 20
116.7157
 30
0.0000
  0
VERTEX
  8
0
 10
149.8904
 20
117.0846
 30
0.0000
  0
VERTEX
  8
0
 10
149.3830
 20
117.4311
 30
0.0000
  0
VERTEX
  8
0
 10
148.7919
 20
117.7032
 30
0.0000
  0
VERTEX
  8
0
 10
148.1386
 20
117.8910
 30
0.0000
  0
VERTEX
  8
0
 10
147.4466
 20
117.9877
 30
0.0000
  0
VERTEX
  8
0
 10
146.7414
 20
117.9898
 30
0.0000
  0
VERTEX
  8
0
 10
146.0483
 20
117.8973
 30
0.0000
  0
VERTEX
  8
0
 10
145.3927
 20
117.7135
 30
0.0000
  0
VERTEX
  8
0
 10
144.7983
 20
117.4450
 30
0.0000
  0
VERTEX
  8
0
 10
144.4619
 20
117.2344
 30
0.0000
  0
SEQEND
  0
POLYLINE
  6
continous
  8
BYBLOCK
 70
0
 66
1
  0
VERTEX
  8
0
 10
102.0355
 20
87.2344
 30
0.0000
  0
VERTEX
  8
0
 10
101.6274
 20
86.8916
 30
0.0000
  0
VERTEX
  8
0
 10
101.3081
 20
86.5046
 30
0.0000
  0
VERTEX
  8
0
 10
101.0868
 20
86.0847
 30
0.0000
  0
VERTEX
  8
0
 10
100.9701
 20
85.6443
 30
0.0000
  0
VERTEX
  8
0
 10
100.9522
 20
85.4204
 30
0.0000
  0
SEQEND
  0
LINE
  6
continous
  8
BYBLOCK
 10
102.0355
 20
87.2344
 30
0.0000
 11
102.0355
 21
87.3051
 31
0.0000
  0
POLYLINE
  6
continous
  8
BYBLOCK
 70
0
 66
1
  0
VERTEX
  8
0
 10
108.3515
 20
85.4189
 30
0.0000
  0
VERTEX
  8
0
 10
108.2875
 20
85.8701
 30
0.0000
  0
VERTEX
  8
0
 10
108.1142
 20
86.3068
 30
0.0000
  0
VERTEX
  8
0
 10
107.8370
 20
86.7157
 30
0.0000
  0
VERTEX
  8
0
 10
107.4640
 20
87.0846
 30
0.0000
  0
VERTEX
  8
0
 10
106.9566
 20
87.4311
 30
0.0000
  0
VERTEX
  8
0
 10
106.3655
 20
87.7032
 30
0.0000
  0
VERTEX
  8
0
 10
105.7122
 20
87.8910
 30
0.0000
  0
VERTEX
  8
0
 10
105.0202
 20
87.9877
 30
0.0000
  0
VERTEX
  8
0
 10
104.3149
 20
87.9898
 30
0.0000
  0
VERTEX
  8
0
 10
103.6219
 20
87.8973
 30
0.0000
  0
VERTEX
  8
0
 10
102.9663
 20
87.7135
 30
0.0000
  0
VERTEX
  8
0
 10
102.3719
 20
87.4450
 30
0.0000
  0
VERTEX
  8
0
 10
102.0355
 20
87.2344
 30
0.0000
  0
SEQEND
  0
POLYLINE
  6
continous
  8
BYBLOCK
 70
0
 66
1
  0
VERTEX
  8
0
 10
59.6091
 20
57.2344
 30
0.0000
  0
VERTEX
  8
0
 10
59.2010
 20
56.8916
 30
0.0000
  0
VERTEX
  8
0
 10
58.8817
 20
56.5046
 30
0.0000
  0
VERTEX
  8
0
 10
58.6604
 20
56.0847
 30
0.0000
  0
VERTEX
  8
0
 10
58.5437
 20
55.6443
 30
0.0000
  0
VERTEX
  8
0
 10
58.5257
 20
55.4204
 30
0.0000
  0
SEQEND
  0
LINE
  6
continous
  8
BYBLOCK
 10
59.6091
 20
57.2344
 30
0.0000
 11
59.6091
 21
57.3051
 31
0.0000
  0
POLYLINE
  6
continous
  8
BYBLOCK
 70
0
 66
1
  0
VERTEX
  8
0
 10
65.9251
 20
55.4189
 30
0.0000
  0
VERTEX
  8
0
 10
65.8611
 20
55.8701
 30
0.0000
  0
VERTEX
  8
0
 10
65.6878
 20
56.3068
 30
0.0000
  0
VERTEX
  8
0
 10
65.4106
 20
56.7157
 30
0.0000
  0
VERTEX
  8
0
 10
65.0376
 20
57.0846
 30
0.0000
  0
VERTEX
  8
0
 10
64.5302
 20
57.4311
 30
0.0000
  0
VERTEX
  8
0
 10
63.9391
 20
57.7032
 30
0.0000
  0
VERTEX
  8
0
 10
63.2857
 20
57.8910
 30
0.0000
  0
VERTEX
  8
0
 10
62.5938
 20
57.9877
 30
0.0000
  0
VERTEX
  8
0
 10
61.8885
 20
57.9898
 30
0.0000
  0
VERTEX
  8
0
 10
61.1955
 20
57.8973
 30
0.0000
  0
VERTEX
  8
0
 10
60.5398
 20
57.7135
 30
0.0000
  0
VERTEX
  8
0
 10
59.9455
 20
57.4450
 30
0.0000
  0
VERTEX
  8
0
 10
59.6091
 20
57.2344
 30
0.0000
  0
SEQEND
  0
LINE
  6
continous
  8
BYBLOCK
 10
17.1827
 20
27.2344
 30
0.0000
 11
17.1827
 21
27.3051
 31
0.0000
  0
POLYLINE
  6
continous
  8
BYBLOCK
 70
0
 66
1
  0
VERTEX
  8
0
 10
16.0990
 20
25.4551
 30
0.0000
  0
VERTEX
  8
0
 10
16.1552
 20
25.0008
 30
0.0000
  0
VERTEX
  8
0
 10
16.3221
 20
24.5603
 30
0.0000
  0
VERTEX
  8
0
 10
16.5947
 20
24.1470
 30
0.0000
  0
VERTEX
  8
0
 10
16.9646
 20
23.7734
 30
0.0000
  0
VERTEX
  8
0
 10
17.4207
 20
23.4509
 30
0.0000
  0
VERTEX
  8
0
 10
18.0052
 20
23.1669
 30
0.0000
  0
VERTEX
  8
0
 10
18.6556
 20
22.9669
 30
0.0000
  0
VERTEX
  8
0
 10
19.3481
 20
22.8583
 30
0.0000
  0
VERTEX
  8
0
 10
20.0571
 20
22.8452
 30
0.0000
  0
VERTEX
  8
0
 10
20.7566
 20
22.9280
 30
0.0000
  0
VERTEX
  8
0
 10
21.4210
 20
23.1036
 30
0.0000
  0
VERTEX
  8
0
 10
22.0257
 20
23.3657
 30
0.0000
  0
VERTEX
  8
0
 10
22.4153
 20
23.6051
 30
0.0000
  0
SEQEND
  0
POLYLINE
  6
continous
  8
BYBLOCK
 70
0
 66
1
  0
VERTEX
  8
0
 10
17.1827
 20
27.3051
 30
0.0000
  0
VERTEX
  8
0
 10
16.7681
 20
26.9558
 30
0.0000
  0
VERTEX
  8
0
 10
16.4457
 20
26.5608
 30
0.0000
  0
VERTEX
  8
0
 10
16.2251
 20
26.1323
 30
0.0000
  0
VERTEX
  8
0
 10
16.1131
 20
25.6832
 30
0.0000
  0
VERTEX
  8
0
 10
16.0990
 20
25.4551
 30
0.0000
  0
SEQEND
  0
POLYLINE
  6
continous
  8
BYBLOCK
 70
0
 66
1
  0
VERTEX
  8
0
 10
23.4990
 20
25.4551
 30
0.0000
  0
VERTEX
  8
0
 10
23.4428
 20
25.9094
 30
0.0000
  0
VERTEX
  8
0
 10
23.2759
 20
26.3500
 30
0.0000
  0
VERTEX
  8
0
 10
23.0033
 20
26.7633
 30
0.0000
  0
VERTEX
  8
0
 10
22.6334
 20
27.1369
 30
0.0000
  0
VERTEX
  8
0
 10
22.1773
 20
27.4593
 30
0.0000
  0
VERTEX
  8
0
 10
21.5928
 20
27.7434
 30
0.0000
  0
VERTEX
  8
0
 10
20.9424
 20
27.9434
 30
0.0000
  0
VERTEX
  8
0
 10
20.2499
 20
28.0519
 30
0.0000
  0
VERTEX
  8
0
 10
19.5409
 20
28.0651
 30
0.0000
  0
VERTEX
  8
0
 10
18.8414
 20
27.9823
 30
0.0000
  0
VERTEX
  8
0
 10
18.1770
 20
27.8066
 30
0.0000
  0
VERTEX
  8
0
 10
17.5723
 20
27.5446
 30
0.0000
  0
VERTEX
  8
0
 10
17.1827
 20
27.3051
 30
0.0000
  0
SEQEND
  0
POLYLINE
  6
continous
  8
BYBLOCK
 70
0
 66
1
  0
VERTEX
  8
0
 10
22.4153
 20
23.6051
 30
0.0000
  0
VERTEX
  8
0
 10
22.8299
 20
23.9545
 30
0.0000
  0
VERTEX
  8
0
 10
23.1523
 20
24.3494
 30
0.0000
  0
VERTEX
  8
0
 10
23.3729
 20
24.7780
 30
0.0000
  0
VERTEX
  8
0
 10
23.4849
 20
25.2271
 30
0.0000
  0
VERTEX
  8
0
 10
23.4990
 20
25.4551
 30
0.0000
  0
SEQEND
  0
POLYLINE
  6
continous
  8
BYBLOCK
 70
0
 66
1
  0
VERTEX
  8
0
 10
2688.9626
 20
1915.4551
 30
0.0000
  0
VERTEX
  8
0
 10
2689.0188
 20
1915.0008
 30
0.0000
  0
VERTEX
  8
0
 10
2689.1858
 20
1914.5603
 30
0.0000
  0
VERTEX
  8
0
 10
2689.4583
 20
1914.1470
 30
0.0000
  0
VERTEX
  8
0
 10
2689.8283
 20
1913.7734
 30
0.0000
  0
VERTEX
  8
0
 10
2690.2843
 20
1913.4509
 30
0.0000
  0
VERTEX
  8
0
 10
2690.8688
 20
1913.1669
 30
0.0000
  0
VERTEX
  8
0
 10
2691.5193
 20
1912.9669
 30
0.0000
  0
VERTEX
  8
0
 10
2692.2117
 20
1912.8583
 30
0.0000
  0
VERTEX
  8
0
 10
2692.9207
 20
1912.8452
 30
0.0000
  0
VERTEX
  8
0
 10
2693.6203
 20
1912.9280
 30
0.0000
  0
VERTEX
  8
0
 10
2694.2846
 20
1913.1036
 30
0.0000
  0
VERTEX
  8
0
 10
2694.8893
 20
1913.3657
 30
0.0000
  0
VERTEX
  8
0
 10
2695.2789
 20
1913.6051
 30
0.0000
  0
SEQEND
  0
POLYLINE
  6
continous
  8
BYBLOCK
 70
0
 66
1
  0
VERTEX
  8
0
 10
2690.0463
 20
1917.3051
 30
0.0000
  0
VERTEX
  8
0
 10
2689.6318
 20
1916.9558
 30
0.0000
  0
VERTEX
  8
0
 10
2689.3093
 20
1916.5608
 30
0.0000
  0
VERTEX
  8
0
 10
2689.0887
 20
1916.1323
 30
0.0000
  0
VERTEX
  8
0
 10
2688.9767
 20
1915.6832
 30
0.0000
  0
VERTEX
  8
0
 10
2688.9626
 20
1915.4551
 30
0.0000
  0
SEQEND
  0
POLYLINE
  6
continous
  8
BYBLOCK
 70
0
 66
1
  0
VERTEX
  8
0
 10
2696.3626
 20
1915.4551
 30
0.0000
  0
VERTEX
  8
0
 10
2696.3064
 20
1915.9094
 30
0.0000
  0
VERTEX
  8
0
 10
2696.1395
 20
1916.3500
 30
0.0000
  0
VERTEX
  8
0
 10
2695.8669
 20
1916.7633
 30
0.0000
  0
VERTEX
  8
0
 10
2695.4970
 20
1917.1369
 30
0.0000
  0
VERTEX
  8
0
 10
2695.0409
 20
1917.4593
 30
0.0000
  0
VERTEX
  8
0
 10
2694.4564
 20
1917.7434
 30
0.0000
  0
VERTEX
  8
0
 10
2693.8060
 20
1917.9434
 30
0.0000
  0
VERTEX
  8
0
 10
2693.1135
 20
1918.0519
 30
0.0000
  0
VERTEX
  8
0
 10
2692.4045
 20
1918.0651
 30
0.0000
  0
VERTEX
  8
0
 10
2691.7050
 20
1917.9823
 30
0.0000
  0
VERTEX
  8
0
 10
2691.0406
 20
1917.8066
 30
0.0000
  0
VERTEX
  8
0
 10
2690.4359
 20
1917.5446
 30
0.0000
  0
VERTEX
  8
0
 10
2690.0463
 20
1917.3051
 30
0.0000
  0
SEQEND
  0
POLYLINE
  6
continous
  8
BYBLOCK
 70
0
 66
1
  0
VERTEX
  8
0
 10
2695.2789
 20
1913.6051
 30
0.0000
  0
VERTEX
  8
0
 10
2695.6935
 20
1913.9545
 30
0.0000
  0
VERTEX
  8
0
 10
2696.0160
 20
1914.3494
 30
0.0000
  0
VERTEX
  8
0
 10
2696.2365
 20
1914.7780
 30
0.0000
  0
VERTEX
  8
0
 10
2696.3485
 20
1915.2271
 30
0.0000
  0
VERTEX
  8
0
 10
2696.3626
 20
1915.4551
 30
0.0000
  0
SEQEND
  0
POLYLINE
  6
continous
  8
BYBLOCK
 70
0
 66
1
  0
VERTEX
  8
0
 10
2646.5362
 20
1885.4551
 30
0.0000
  0
VERTEX
  8
0
 10
2646.5924
 20
1885.0008
 30
0.0000
  0
VERTEX
  8
0
 10
2646.7594
 20
1884.5603
 30
0.0000
  0
VERTEX
  8
0
 10
2647.0319
 20
1884.1470
 30
0.0000
  0
VERTEX
  8
0
 10
2647.4019
 20
1883.7734
 30
0.0000
  0
VERTEX
  8
0
 10
2647.8579
 20
1883.4509
 30
0.0000
  0
VERTEX
  8
0
 10
2648.4424
 20
1883.1669
 30
0.0000
  0
VERTEX
  8
0
 10
2649.0929
 20
1882.9669
 30
0.0000
  0
VERTEX
  8
0
 10
2649.7853
 20
1882.8583
 30
0.0000
  0
VERTEX
  8
0
 10
2650.4943
 20
1882.8452
 30
0.0000
  0
VERTEX
  8
0
 10
2651.1938
 20
1882.9280
 30
0.0000
  0
VERTEX
  8
0
 10
2651.8582
 20
1883.1036
 30
0.0000
  0
VERTEX
  8
0
 10
2652.4629
 20
1883.3657
 30
0.0000
  0
VERTEX
  8
0
 10
2652.8525
 20
1883.6051
 30
0.0000
  0
SEQEND
  0
POLYLINE
  6
continous
  8
BYBLOCK
 70
0
 66
1
  0
VERTEX
  8
0
 10
2647.6199
 20
1887.3051
 30
0.0000
  0
VERTEX
  8
0
 10
2647.2054
 20
1886.9558
 30
0.0000
  0
VERTEX
  8
0
 10
2646.8829
 20
1886.5608
 30
0.0000
  0
VERTEX
  8
0
 10
2646.6623
 20
1886.1323
 30
0.0000
  0
VERTEX
  8
0
 10
2646.5503
 20
1885.6832
 30
0.0000
  0
VERTEX
  8
0
 10
2646.5362
 20
1885.4551
 30
0.0000
  0
SEQEND
  0
POLYLINE
  6
continous
  8
BYBLOCK
 70
0
 66
1
  0
VERTEX
  8
0
 10
2653.9362
 20
1885.4551
 30
0.0000
  0
VERTEX
  8
0
 10
2653.8800
 20
1885.9094
 30
0.0000
  0
VERTEX
  8
0
 10
2653.7131
 20
1886.3500
 30
0.0000
  0
VERTEX
  8
0
 10
2653.4405
 20
1886.7633
 30
0.0000
  0
VERTEX
  8
0
 10
2653.0706
 20
1887.1369
 30
0.0000
  0
VERTEX
  8
0
 10
2652.6145
 20
1887.4593
 30
0.0000
  0
VERTEX
  8
0
 10
2652.0300
 20
1887.7434
 30
0.0000
  0
VERTEX
  8
0
 10
2651.3796
 20
1887.9434
 30
0.0000
  0
VERTEX
  8
0
 10
2650.6871
 20
1888.0519
 30
0.0000
  0
VERTEX
  8
0
 10
2649.9781
 20
1888.0651
 30
0.0000
  0
VERTEX
  8
0
 10
2649.2786
 20
1887.9823
 30
0.0000
  0
VERTEX
  8
0
 10
2648.6142
 20
1887.8066
 30
0.0000
  0
VERTEX
  8
0
 10
2648.0095
 20
1887.5446
 30
0.0000
  0
VERTEX
  8
0
 10
2647.6199
 20
1887.3051
 30
0.0000
  0
SEQEND
  0
POLYLINE
  6
continous
  8
BYBLOCK
 70
0
 66
1
  0
VERTEX
  8
0
 10
2652.8525
 20
1883.6051
 30
0.0000
  0
VERTEX
  8
0
 10
2653.2671
 20
1883.9545
 30
0.0000
  0
VERTEX
  8
0
 10
2653.5896
 20
1884.3494
 30
0.0000
  0
VERTEX
  8
0
 10
2653.8101
 20
1884.7780
 30
0.0000
  0
VERTEX
  8
0
 10
2653.9221
 20
1885.2271
 30
0.0000
  0
VERTEX
  8
0
 10
2653.9362
 20
1885.4551
 30
0.0000
  0
SEQEND
  0
POLYLINE
  6
continous
  8
BYBLOCK
 70
0
 66
1
  0
VERTEX
  8
0
 10
2604.1098
 20
1855.4551
 30
0.0000
  0
VERTEX
  8
0
 10
2604.1660
 20
1855.0008
 30
0.0000
  0
VERTEX
  8
0
 10
2604.3329
 20
1854.5603
 30
0.0000
  0
VERTEX
  8
0
 10
2604.6055
 20
1854.1470
 30
0.0000
  0
VERTEX
  8
0
 10
2604.9754
 20
1853.7734
 30
0.0000
  0
VERTEX
  8
0
 10
2605.4315
 20
1853.4509
 30
0.0000
  0
VERTEX
  8
0
 10
2606.0160
 20
1853.1669
 30
0.0000
  0
VERTEX
  8
0
 10
2606.6664
 20
1852.9669
 30
0.0000
  0
VERTEX
  8
0
 10
2607.3589
 20
1852.8583
 30
0.0000
  0
VERTEX
  8
0
 10
2608.0679
 20
1852.8452
 30
0.0000
  0
VERTEX
  8
0
 10
2608.7674
 20
1852.9280
 30
0.0000
  0
VERTEX
  8
0
 10
2609.4318
 20
1853.1036
 30
0.0000
  0
VERTEX
  8
0
 10
2610.0365
 20
1853.3657
 30
0.0000
  0
VERTEX
  8
0
 10
2610.4261
 20
1853.6051
 30
0.0000
  0
SEQEND
  0
POLYLINE
  6
continous
  8
BYBLOCK
 70
0
 66
1
  0
VERTEX
  8
0
 10
2605.1935
 20
1857.3051
 30
0.0000
  0
VERTEX
  8
0
 10
2604.7789
 20
1856.9558
 30
0.0000
  0
VERTEX
  8
0
 10
2604.4565
 20
1856.5608
 30
0.0000
  0
VERTEX
  8
0
 10
2604.2359
 20
1856.1323
 30
0.0000
  0
VERTEX
  8
0
 10
2604.1239
 20
1855.6832
 30
0.0000
  0
VERTEX
  8
0
 10
2604.1098
 20
1855.4551
 30
0.0000
  0
SEQEND
  0
POLYLINE
  6
continous
  8
BYBLOCK
 70
0
 66
1
  0
VERTEX
  8
0
 10
2611.5098
 20
1855.4551
 30
0.0000
  0
VERTEX
  8
0
 10
2611.4536
 20
1855.9094
 30
0.0000
  0
VERTEX
  8
0
 10
2611.2867
 20
1856.3500
 30
0.0000
  0
VERTEX
  8
0
 10
2611.0141
 20
1856.7633
 30
0.0000
  0
VERTEX
  8
0
 10
2610.6442
 20
1857.1369
 30
0.0000
  0
VERTEX
  8
0
 10
2610.1881
 20
1857.4593
 30
0.0000
  0
VERTEX
  8
0
 10
2609.6036
 20
1857.7434
 30
0.0000
  0
VERTEX
  8
0
 10
2608.9532
 20
1857.9434
 30
0.0000
  0
VERTEX
  8
0
 10
2608.2607
 20
1858.0519
 30
0.0000
  0
VERTEX
  8
0
 10
2607.5517
 20
1858.0651
 30
0.0000
  0
VERTEX
  8
0
 10
2606.8522
 20
1857.9823
 30
0.0000
  0
VERTEX
  8
0
 10
2606.1878
 20
1857.8066
 30
0.0000
  0
VERTEX
  8
0
 10
2605.5831
 20
1857.5446
 30
0.0000
  0
VERTEX
  8
0
 10
2605.1935
 20
1857.3051
 30
0.0000
  0
SEQEND
  0
POLYLINE
  6
continous
  8
BYBLOCK
 70
0
 66
1
  0
VERTEX
  8
0
 10
2610.4261
 20
1853.6051
 30
0.0000
  0
VERTEX
  8
0
 10
2610.8407
 20
1853.9545
 30
0.0000
  0
VERTEX
  8
0
 10
2611.1631
 20
1854.3494
 30
0.0000
  0
VERTEX
  8
0
 10
2611.3837
 20
1854.7780
 30
0.0000
  0
VERTEX
  8
0
 10
2611.4957
 20
1855.2271
 30
0.0000
  0
VERTEX
  8
0
 10
2611.5098
 20
1855.4551
 30
0.0000
  0
SEQEND
  0
POLYLINE
  6
continous
  8
BYBLOCK
 70
0
 66
1
  0
VERTEX
  8
0
 10
2561.6834
 20
1825.4551
 30
0.0000
  0
VERTEX
  8
0
 10
2561.7396
 20
1825.0008
 30
0.0000
  0
VERTEX
  8
0
 10
2561.9065
 20
1824.5603
 30
0.0000
  0
VERTEX
  8
0
 10
2562.1791
 20
1824.1470
 30
0.0000
  0
VERTEX
  8
0
 10
2562.5490
 20
1823.7734
 30
0.0000
  0
VERTEX
  8
0
 10
2563.0051
 20
1823.4509
 30
0.0000
  0
VERTEX
  8
0
 10
2563.5896
 20
1823.1669
 30
0.0000
  0
VERTEX
  8
0
 10
2564.2400
 20
1822.9669
 30
0.0000
  0
VERTEX
  8
0
 10
2564.9325
 20
1822.8583
 30
0.0000
  0
VERTEX
  8
0
 10
2565.6415
 20
1822.8452
 30
0.0000
  0
VERTEX
  8
0
 10
2566.3410
 20
1822.9280
 30
0.0000
  0
VERTEX
  8
0
 10
2567.0054
 20
1823.1036
 30
0.0000
  0
VERTEX
  8
0
 10
2567.6101
 20
1823.3657
 30
0.0000
  0
VERTEX
  8
0
 10
2567.9997
 20
1823.6051
 30
0.0000
  0
SEQEND
  0
POLYLINE
  6
continous
  8
BYBLOCK
 70
0
 66
1
  0
VERTEX
  8
0
 10
2562.7671
 20
1827.3051
 30
0.0000
  0
VERTEX
  8
0
 10
2562.3525
 20
1826.9558
 30
0.0000
  0
VERTEX
  8
0
 10
2562.0301
 20
1826.5608
 30
0.0000
  0
VERTEX
  8
0
 10
2561.8095
 20
1826.1323
 30
0.0000
  0
VERTEX
  8
0
 10
2561.6975
 20
1825.6832
 30
0.0000
  0
VERTEX
  8
0
 10
2561.6834
 20
1825.4551
 30
0.0000
  0
SEQEND
  0
POLYLINE
  6
continous
  8
BYBLOCK
 70
0
 66
1
  0
VERTEX
  8
0
 10
2569.0834
 20
1825.4551
 30
0.0000
  0
VERTEX
  8
0
 10
2569.0272
 20
1825.9094
 30
0.0000
  0
VERTEX
  8
0
 10
2568.8603
 20
1826.3500
 30
0.0000
  0
VERTEX
  8
0
 10
2568.5877
 20
1826.7633
 30
0.0000
  0
VERTEX
  8
0
 10
2568.2178
 20
1827.1369
 30
0.0000
  0
VERTEX
  8
0
 10
2567.7617
 20
1827.4593
 30
0.0000
  0
VERTEX
  8
0
 10
2567.1772
 20
1827.7434
 30
0.0000
  0
VERTEX
  8
0
 10
2566.5268
 20
1827.9434
 30
0.0000
  0
VERTEX
  8
0
 10
2565.8343
 20
1828.0519
 30
0.0000
  0
VERTEX
  8
0
 10
2565.1253
 20
1828.0651
 30
0.0000
  0
VERTEX
  8
0
 10
2564.4258
 20
1827.9823
 30
0.0000
  0
VERTEX
  8
0
 10
2563.7614
 20
1827.8066
 30
0.0000
  0
VERTEX
  8
0
 10
2563.1567
 20
1827.5446
 30
0.0000
  0
VERTEX
  8
0
 10
2562.7671
 20
1827.3051
 30
0.0000
  0
SEQEND
  0
POLYLINE
  6
continous
  8
BYBLOCK
 70
0
 66
1
  0
VERTEX
  8
0
 10
2567.9997
 20
1823.6051
 30
0.0000
  0
VERTEX
  8
0
 10
2568.4143
 20
1823.9545
 30
0.0000
  0
VERTEX
  8
0
 10
2568.7367
 20
1824.3494
 30
0.0000
  0
VERTEX
  8
0
 10
2568.9573
 20
1824.7780
 30
0.0000
  0
VERTEX
  8
0
 10
2569.0693
 20
1825.2271
 30
0.0000
  0
VERTEX
  8
0
 10
2569.0834
 20
1825.4551
 30
0.0000
  0
SEQEND
  0
POLYLINE
  6
continous
  8
BYBLOCK
 70
0
 66
1
  0
VERTEX
  8
0
 10
2519.2570
 20
1795.4551
 30
0.0000
  0
VERTEX
  8
0
 10
2519.3132
 20
1795.0008
 30
0.0000
  0
VERTEX
  8
0
 10
2519.4801
 20
1794.5603
 30
0.0000
  0
VERTEX
  8
0
 10
2519.7527
 20
1794.1470
 30
0.0000
  0
VERTEX
  8
0
 10
2520.1226
 20
1793.7734
 30
0.0000
  0
VERTEX
  8
0
 10
2520.5787
 20
1793.4509
 30
0.0000
  0
VERTEX
  8
0
 10
2521.1632
 20
1793.1669
 30
0.0000
  0
VERTEX
  8
0
 10
2521.8136
 20
1792.9669
 30
0.0000
  0
VERTEX
  8
0
 10
2522.5061
 20
1792.8583
 30
0.0000
  0
VERTEX
  8
0
 10
2523.2151
 20
1792.8452
 30
0.0000
  0
VERTEX
  8
0
 10
2523.9146
 20
1792.9280
 30
0.0000
  0
VERTEX
  8
0
 10
2524.5790
 20
1793.1036
 30
0.0000
  0
VERTEX
  8
0
 10
2525.1837
 20
1793.3657
 30
0.0000
  0
VERTEX
  8
0
 10
2525.5733
 20
1793.6051
 30
0.0000
  0
SEQEND
  0
POLYLINE
  6
continous
  8
BYBLOCK
 70
0
 66
1
  0
VERTEX
  8
0
 10
2520.3407
 20
1797.3051
 30
0.0000
  0
VERTEX
  8
0
 10
2519.9261
 20
1796.9558
 30
0.0000
  0
VERTEX
  8
0
 10
2519.6037
 20
1796.5608
 30
0.0000
  0
VERTEX
  8
0
 10
2519.3831
 20
1796.1323
 30
0.0000
  0
VERTEX
  8
0
 10
2519.2711
 20
1795.6832
 30
0.0000
  0
VERTEX
  8
0
 10
2519.2570
 20
1795.4551
 30
0.0000
  0
SEQEND
  0
POLYLINE
  6
continous
  8
BYBLOCK
 70
0
 66
1
  0
VERTEX
  8
0
 10
2526.6570
 20
1795.4551
 30
0.0000
  0
VERTEX
  8
0
 10
2526.6008
 20
1795.9094
 30
0.0000
  0
VERTEX
  8
0
 10
2526.4339
 20
1796.3500
 30
0.0000
  0
VERTEX
  8
0
 10
2526.1613
 20
1796.7633
 30
0.0000
  0
VERTEX
  8
0
 10
2525.7914
 20
1797.1369
 30
0.0000
  0
VERTEX
  8
0
 10
2525.3353
 20
1797.4593
 30
0.0000
  0
VERTEX
  8
0
 10
2524.7508
 20
1797.7434
 30
0.0000
  0
VERTEX
  8
0
 10
2524.1004
 20
1797.9434
 30
0.0000
  0
VERTEX
  8
0
 10
2523.4079
 20
1798.0519
 30
0.0000
  0
VERTEX
  8
0
 10
2522.6989
 20
1798.0651
 30
0.0000
  0
VERTEX
  8
0
 10
2521.9994
 20
1797.9823
 30
0.0000
  0
VERTEX
  8
0
 10
2521.3350
 20
1797.8066
 30
0.0000
  0
VERTEX
  8
0
 10
2520.7303
 20
1797.5446
 30
0.0000
  0
VERTEX
  8
0
 10
2520.3407
 20
1797.3051
 30
0.0000
  0
SEQEND
  0
POLYLINE
  6
continous
  8
BYBLOCK
 70
0
 66
1
  0
VERTEX
  8
0
 10
2525.5733
 20
1793.6051
 30
0.0000
  0
VERTEX
  8
0
 10
2525.9879
 20
1793.9545
 30
0.0000
  0
VERTEX
  8
0
 10
2526.3103
 20
1794.3494
 30
0.0000
  0
VERTEX
  8
0
 10
2526.5309
 20
1794.7780
 30
0.0000
  0
VERTEX
  8
0
 10
2526.6429
 20
1795.2271
 30
0.0000
  0
VERTEX
  8
0
 10
2526.6570
 20
1795.4551
 30
0.0000
  0
SEQEND
  0
POLYLINE
  6
continous
  8
BYBLOCK
 70
0
 66
1
  0
VERTEX
  8
0
 10
2476.8306
 20
1765.4551
 30
0.0000
  0
VERTEX
  8
0
 10
2476.8868
 20
1765.0008
 30
0.0000
  0
VERTEX
  8
0
 10
2477.0537
 20
1764.5603
 30
0.0000
  0
VERTEX
  8
0
 10
2477.3263
 20
1764.1470
 30
0.0000
  0
VERTEX
  8
0
 10
2477.6962
 20
1763.7734
 30
0.0000
  0
VERTEX
  8
0
 10
2478.1523
 20
1763.4509
 30
0.0000
  0
VERTEX
  8
0
 10
2478.7368
 20
1763.1669
 30
0.0000
  0
VERTEX
  8
0
 10
2479.3872
 20
1762.9669
 30
0.0000
  0
VERTEX
  8
0
 10
2480.0797
 20
1762.8583
 30
0.0000
  0
VERTEX
  8
0
 10
2480.7887
 20
1762.8452
 30
0.0000
  0
VERTEX
  8
0
 10
2481.4882
 20
1762.9280
 30
0.0000
  0
VERTEX
  8
0
 10
2482.1526
 20
1763.1036
 30
0.0000
  0
VERTEX
  8
0
 10
2482.7573
 20
1763.3657
 30
0.0000
  0
VERTEX
  8
0
 10
2483.1469
 20
1763.6051
 30
0.0000
  0
SEQEND
  0
POLYLINE
  6
continous
  8
BYBLOCK
 70
0
 66
1
  0
VERTEX
  8
0
 10
2477.9143
 20
1767.3051
 30
0.0000
  0
VERTEX
  8
0
 10
2477.4997
 20
1766.9558
 30
0.0000
  0
VERTEX
  8
0
 10
2477.1772
 20
1766.5608
 30
0.0000
  0
VERTEX
  8
0
 10
2476.9567
 20
1766.1323
 30
0.0000
  0
VERTEX
  8
0
 10
2476.8447
 20
1765.6832
 30
0.0000
  0
VERTEX
  8
0
 10
2476.8306
 20
1765.4551
 30
0.0000
  0
SEQEND
  0
POLYLINE
  6
continous
  8
BYBLOCK
 70
0
 66
1
  0
VERTEX
  8
0
 10
2484.2306
 20
1765.4551
 30
0.0000
  0
VERTEX
  8
0
 10
2484.1744
 20
1765.9094
 30
0.0000
  0
VERTEX
  8
0
 10
2484.0075
 20
1766.3500
 30
0.0000
  0
VERTEX
  8
0
 10
2483.7349
 20
1766.7633
 30
0.0000
  0
VERTEX
  8
0
 10
2483.3650
 20
1767.1369
 30
0.0000
  0
VERTEX
  8
0
 10
2482.9089
 20
1767.4593
 30
0.0000
  0
VERTEX
  8
0
 10
2482.3244
 20
1767.7434
 30
0.0000
  0
VERTEX
  8
0
 10
2481.6740
 20
1767.9434
 30
0.0000
  0
VERTEX
  8
0
 10
2480.9815
 20
1768.0519
 30
0.0000
  0
VERTEX
  8
0
 10
2480.2725
 20
1768.0651
 30
0.0000
  0
VERTEX
  8
0
 10
2479.5730
 20
1767.9823
 30
0.0000
  0
VERTEX
  8
0
 10
2478.9086
 20
1767.8066
 30
0.0000
  0
VERTEX
  8
0
 10
2478.3039
 20
1767.5446
 30
0.0000
  0
VERTEX
  8
0
 10
2477.9143
 20
1767.3051
 30
0.0000
  0
SEQEND
  0
POLYLINE
  6
continous
  8
BYBLOCK
 70
0
 66
1
  0
VERTEX
  8
0
 10
2483.1469
 20
1763.6051
 30
0.0000
  0
VERTEX
  8
0
 10
2483.5615
 20
1763.9545
 30
0.0000
  0
VERTEX
  8
0
 10
2483.8839
 20
1764.3494
 30
0.0000
  0
VERTEX
  8
0
 10
2484.1045
 20
1764.7780
 30
0.0000
  0
VERTEX
  8
0
 10
2484.2165
 20
1765.2271
 30
0.0000
  0
VERTEX
  8
0
 10
2484.2306
 20
1765.4551
 30
0.0000
  0
SEQEND
  0
POLYLINE
  6
continous
  8
BYBLOCK
 70
0
 66
1
  0
VERTEX
  8
0
 10
2434.4042
 20
1735.4551
 30
0.0000
  0
VERTEX
  8
0
 10
2434.4604
 20
1735.0008
 30
0.0000
  0
VERTEX
  8
0
 10
2434.6273
 20
1734.5603
 30
0.0000
  0
VERTEX
  8
0
 10
2434.8999
 20
1734.1470
 30
0.0000
  0
VERTEX
  8
0
 10
2435.2698
 20
1733.7734
 30
0.0000
  0
VERTEX
  8
0
 10
2435.7259
 20
1733.4509
 30
0.0000
  0
VERTEX
  8
0
 10
2436.3104
 20
1733.1669
 30
0.0000
  0
VERTEX
  8
0
 10
2436.9608
 20
1732.9669
 30
0.0000
  0
VERTEX
  8
0
 10
2437.6533
 20
1732.8583
 30
0.0000
  0
VERTEX
  8
0
 10
2438.3623
 20
1732.8452
 30
0.0000
  0
VERTEX
  8
0
 10
2439.0618
 20
1732.9280
 30
0.0000
  0
VERTEX
  8
0
 10
2439.7262
 20
1733.1036
 30
0.0000
  0
VERTEX
  8
0
 10
2440.3309
 20
1733.3657
 30
0.0000
  0
VERTEX
  8
0
 10
2440.7205
 20
1733.6051
 30
0.0000
  0
SEQEND
  0
POLYLINE
  6
continous
  8
BYBLOCK
 70
0
 66
1
  0
VERTEX
  8
0
 10
2435.4879
 20
1737.3051
 30
0.0000
  0
VERTEX
  8
0
 10
2435.0733
 20
1736.9558
 30
0.0000
  0
VERTEX
  8
0
 10
2434.7508
 20
1736.5608
 30
0.0000
  0
VERTEX
  8
0
 10
2434.5303
 20
1736.1323
 30
0.0000
  0
VERTEX
  8
0
 10
2434.4183
 20
1735.6832
 30
0.0000
  0
VERTEX
  8
0
 10
2434.4042
 20
1735.4551
 30
0.0000
  0
SEQEND
  0
POLYLINE
  6
continous
  8
BYBLOCK
 70
0
 66
1
  0
VERTEX
  8
0
 10
2441.8042
 20
1735.4551
 30
0.0000
  0
VERTEX
  8
0
 10
2441.7480
 20
1735.9094
 30
0.0000
  0
VERTEX
  8
0
 10
2441.5810
 20
1736.3500
 30
0.0000
  0
VERTEX
  8
0
 10
2441.3085
 20
1736.7633
 30
0.0000
  0
VERTEX
  8
0
 10
2440.9385
 20
1737.1369
 30
0.0000
  0
VERTEX
  8
0
 10
2440.4825
 20
1737.4593
 30
0.0000
  0
VERTEX
  8
0
 10
2439.8980
 20
1737.7434
 30
0.0000
  0
VERTEX
  8
0
 10
2439.2475
 20
1737.9434
 30
0.0000
  0
VERTEX
  8
0
 10
2438.5551
 20
1738.0519
 30
0.0000
  0
VERTEX
  8
0
 10
2437.8461
 20
1738.0651
 30
0.0000
  0
VERTEX
  8
0
 10
2437.1466
 20
1737.9823
 30
0.0000
  0
VERTEX
  8
0
 10
2436.4822
 20
1737.8066
 30
0.0000
  0
VERTEX
  8
0
 10
2435.8775
 20
1737.5446
 30
0.0000
  0
VERTEX
  8
0
 10
2435.4879
 20
1737.3051
 30
0.0000
  0
SEQEND
  0
POLYLINE
  6
continous
  8
BYBLOCK
 70
0
 66
1
  0
VERTEX
  8
0
 10
2440.7205
 20
1733.6051
 30
0.0000
  0
VERTEX
  8
0
 10
2441.1350
 20
1733.9545
 30
0.0000
  0
VERTEX
  8
0
 10
2441.4575
 20
1734.3494
 30
0.0000
  0
VERTEX
  8
0
 10
2441.6781
 20
1734.7780
 30
0.0000
  0
VERTEX
  8
0
 10
2441.7901
 20
1735.2271
 30
0.0000
  0
VERTEX
  8
0
 10
2441.8042
 20
1735.4551
 30
0.0000
  0
SEQEND
  0
POLYLINE
  6
continous
  8
BYBLOCK
 70
0
 66
1
  0
VERTEX
  8
0
 10
2391.9778
 20
1705.4551
 30
0.0000
  0
VERTEX
  8
0
 10
2392.0340
 20
1705.0008
 30
0.0000
  0
VERTEX
  8
0
 10
2392.2009
 20
1704.5603
 30
0.0000
  0
VERTEX
  8
0
 10
2392.4735
 20
1704.1470
 30
0.0000
  0
VERTEX
  8
0
 10
2392.8434
 20
1703.7734
 30
0.0000
  0
VERTEX
  8
0
 10
2393.2995
 20
1703.4509
 30
0.0000
  0
VERTEX
  8
0
 10
2393.8840
 20
1703.1669
 30
0.0000
  0
VERTEX
  8
0
 10
2394.5344
 20
1702.9669
 30
0.0000
  0
VERTEX
  8
0
 10
2395.2269
 20
1702.8583
 30
0.0000
  0
VERTEX
  8
0
 10
2395.9359
 20
1702.8452
 30
0.0000
  0
VERTEX
  8
0
 10
2396.6354
 20
1702.9280
 30
0.0000
  0
VERTEX
  8
0
 10
2397.2997
 20
1703.1036
 30
0.0000
  0
VERTEX
  8
0
 10
2397.9045
 20
1703.3657
 30
0.0000
  0
VERTEX
  8
0
 10
2398.2941
 20
1703.6051
 30
0.0000
  0
SEQEND
  0
POLYLINE
  6
continous
  8
BYBLOCK
 70
0
 66
1
  0
VERTEX
  8
0
 10
2393.0615
 20
1707.3051
 30
0.0000
  0
VERTEX
  8
0
 10
2392.6469
 20
1706.9558
 30
0.0000
  0
VERTEX
  8
0
 10
2392.3244
 20
1706.5608
 30
0.0000
  0
VERTEX
  8
0
 10
2392.1038
 20
1706.1323
 30
0.0000
  0
VERTEX
  8
0
 10
2391.9919
 20
1705.6832
 30
0.0000
  0
VERTEX
  8
0
 10
2391.9778
 20
1705.4551
 30
0.0000
  0
SEQEND
  0
POLYLINE
  6
continous
  8
BYBLOCK
 70
0
 66
1
  0
VERTEX
  8
0
 10
2399.3778
 20
1705.4551
 30
0.0000
  0
VERTEX
  8
0
 10
2399.3216
 20
1705.9094
 30
0.0000
  0
VERTEX
  8
0
 10
2399.1546
 20
1706.3500
 30
0.0000
  0
VERTEX
  8
0
 10
2398.8821
 20
1706.7633
 30
0.0000
  0
VERTEX
  8
0
 10
2398.5121
 20
1707.1369
 30
0.0000
  0
VERTEX
  8
0
 10
2398.0561
 20
1707.4593
 30
0.0000
  0
VERTEX
  8
0
 10
2397.4716
 20
1707.7434
 30
0.0000
  0
VERTEX
  8
0
 10
2396.8211
 20
1707.9434
 30
0.0000
  0
VERTEX
  8
0
 10
2396.1287
 20
1708.0519
 30
0.0000
  0
VERTEX
  8
0
 10
2395.4197
 20
1708.0651
 30
0.0000
  0
VERTEX
  8
0
 10
2394.7201
 20
1707.9823
 30
0.0000
  0
VERTEX
  8
0
 10
2394.0558
 20
1707.8066
 30
0.0000
  0
VERTEX
  8
0
 10
2393.4511
 20
1707.5446
 30
0.0000
  0
VERTEX
  8
0
 10
2393.0615
 20
1707.3051
 30
0.0000
  0
SEQEND
  0
POLYLINE
  6
continous
  8
BYBLOCK
 70
0
 66
1
  0
VERTEX
  8
0
 10
2398.2941
 20
1703.6051
 30
0.0000
  0
VERTEX
  8
0
 10
2398.7086
 20
1703.9545
 30
0.0000
  0
VERTEX
  8
0
 10
2399.0311
 20
1704.3494
 30
0.0000
  0
VERTEX
  8
0
 10
2399.2517
 20
1704.7780
 30
0.0000
  0
VERTEX
  8
0
 10
2399.3637
 20
1705.2271
 30
0.0000
  0
VERTEX
  8
0
 10
2399.3778
 20
1705.4551
 30
0.0000
  0
SEQEND
  0
POLYLINE
  6
continous
  8
BYBLOCK
 70
0
 66
1
  0
VERTEX
  8
0
 10
2349.5514
 20
1675.4551
 30
0.0000
  0
VERTEX
  8
0
 10
2349.6076
 20
1675.0008
 30
0.0000
  0
VERTEX
  8
0
 10
2349.7745
 20
1674.5603
 30
0.0000
  0
VERTEX
  8
0
 10
2350.0471
 20
1674.1470
 30
0.0000
  0
VERTEX
  8
0
 10
2350.4170
 20
1673.7734
 30
0.0000
  0
VERTEX
  8
0
 10
2350.8731
 20
1673.4509
 30
0.0000
  0
VERTEX
  8
0
 10
2351.4576
 20
1673.1669
 30
0.0000
  0
VERTEX
  8
0
 10
2352.1080
 20
1672.9669
 30
0.0000
  0
VERTEX
  8
0
 10
2352.8005
 20
1672.8583
 30
0.0000
  0
VERTEX
  8
0
 10
2353.5095
 20
1672.8452
 30
0.0000
  0
VERTEX
  8
0
 10
2354.2090
 20
1672.9280
 30
0.0000
  0
VERTEX
  8
0
 10
2354.8733
 20
1673.1036
 30
0.0000
  0
VERTEX
  8
0
 10
2355.4781
 20
1673.3657
 30
0.0000
  0
VERTEX
  8
0
 10
2355.8677
 20
1673.6051
 30
0.0000
  0
SEQEND
  0
POLYLINE
  6
continous
  8
BYBLOCK
 70
0
 66
1
  0
VERTEX
  8
0
 10
2350.6351
 20
1677.3051
 30
0.0000
  0
VERTEX
  8
0
 10
2350.2205
 20
1676.9558
 30
0.0000
  0
VERTEX
  8
0
 10
2349.8980
 20
1676.5608
 30
0.0000
  0
VERTEX
  8
0
 10
2349.6774
 20
1676.1323
 30
0.0000
  0
VERTEX
  8
0
 10
2349.5654
 20
1675.6832
 30
0.0000
  0
VERTEX
  8
0
 10
2349.5514
 20
1675.4551
 30
0.0000
  0
SEQEND
  0
POLYLINE
  6
continous
  8
BYBLOCK
 70
0
 66
1
  0
VERTEX
  8
0
 10
2356.9514
 20
1675.4551
 30
0.0000
  0
VERTEX
  8
0
 10
2356.8952
 20
1675.9094
 30
0.0000
  0
VERTEX
  8
0
 10
2356.7282
 20
1676.3500
 30
0.0000
  0
VERTEX
  8
0
 10
2356.4557
 20
1676.7633
 30
0.0000
  0
VERTEX
  8
0
 10
2356.0857
 20
1677.1369
 30
0.0000
  0
VERTEX
  8
0
 10
2355.6297
 20
1677.4593
 30
0.0000
  0
VERTEX
  8
0
 10
2355.0452
 20
1677.7434
 30
0.0000
  0
VERTEX
  8
0
 10
2354.3947
 20
1677.9434
 30
0.0000
  0
VERTEX
  8
0
 10
2353.7023
 20
1678.0519
 30
0.0000
  0
VERTEX
  8
0
 10
2352.9933
 20
1678.0651
 30
0.0000
  0
VERTEX
  8
0
 10
2352.2937
 20
1677.9823
 30
0.0000
  0
VERTEX
  8
0
 10
2351.6294
 20
1677.8066
 30
0.0000
  0
VERTEX
  8
0
 10
2351.0247
 20
1677.5446
 30
0.0000
  0
VERTEX
  8
0
 10
2350.6351
 20
1677.3051
 30
0.0000
  0
SEQEND
  0
POLYLINE
  6
continous
  8
BYBLOCK
 70
0
 66
1
  0
VERTEX
  8
0
 10
2355.8677
 20
1673.6051
 30
0.0000
  0
VERTEX
  8
0
 10
2356.2822
 20
1673.9545
 30
0.0000
  0
VERTEX
  8
0
 10
2356.6047
 20
1674.3494
 30
0.0000
  0
VERTEX
  8
0
 10
2356.8253
 20
1674.7780
 30
0.0000
  0
VERTEX
  8
0
 10
2356.9373
 20
1675.2271
 30
0.0000
  0
VERTEX
  8
0
 10
2356.9514
 20
1675.4551
 30
0.0000
  0
SEQEND
  0
POLYLINE
  6
continous
  8
BYBLOCK
 70
0
 66
1
  0
VERTEX
  8
0
 10
2307.1250
 20
1645.4551
 30
0.0000
  0
VERTEX
  8
0
 10
2307.1812
 20
1645.0008
 30
0.0000
  0
VERTEX
  8
0
 10
2307.3481
 20
1644.5603
 30
0.0000
  0
VERTEX
  8
0
 10
2307.6207
 20
1644.1470
 30
0.0000
  0
VERTEX
  8
0
 10
2307.9906
 20
1643.7734
 30
0.0000
  0
VERTEX
  8
0
 10
2308.4466
 20
1643.4509
 30
0.0000
  0
VERTEX
  8
0
 10
2309.0312
 20
1643.1669
 30
0.0000
  0
VERTEX
  8
0
 10
2309.6816
 20
1642.9669
 30
0.0000
  0
VERTEX
  8
0
 10
2310.3740
 20
1642.8583
 30
0.0000
  0
VERTEX
  8
0
 10
2311.0831
 20
1642.8452
 30
0.0000
  0
VERTEX
  8
0
 10
2311.7826
 20
1642.9280
 30
0.0000
  0
VERTEX
  8
0
 10
2312.4469
 20
1643.1036
 30
0.0000
  0
VERTEX
  8
0
 10
2313.0517
 20
1643.3657
 30
0.0000
  0
VERTEX
  8
0
 10
2313.4413
 20
1643.6051
 30
0.0000
  0
SEQEND
  0
POLYLINE
  6
continous
  8
BYBLOCK
 70
0
 66
1
  0
VERTEX
  8
0
 10
2308.2087
 20
1647.3051
 30
0.0000
  0
VERTEX
  8
0
 10
2307.7941
 20
1646.9558
 30
0.0000
  0
VERTEX
  8
0
 10
2307.4716
 20
1646.5608
 30
0.0000
  0
VERTEX
  8
0
 10
2307.2510
 20
1646.1323
 30
0.0000
  0
VERTEX
  8
0
 10
2307.1390
 20
1645.6832
 30
0.0000
  0
VERTEX
  8
0
 10
2307.1250
 20
1645.4551
 30
0.0000
  0
SEQEND
  0
POLYLINE
  6
continous
  8
BYBLOCK
 70
0
 66
1
  0
VERTEX
  8
0
 10
2314.5250
 20
1645.4551
 30
0.0000
  0
VERTEX
  8
0
 10
2314.4687
 20
1645.9094
 30
0.0000
  0
VERTEX
  8
0
 10
2314.3018
 20
1646.3500
 30
0.0000
  0
VERTEX
  8
0
 10
2314.0293
 20
1646.7633
 30
0.0000
  0
VERTEX
  8
0
 10
2313.6593
 20
1647.1369
 30
0.0000
  0
VERTEX
  8
0
 10
2313.2033
 20
1647.4593
 30
0.0000
  0
VERTEX
  8
0
 10
2312.6188
 20
1647.7434
 30
0.0000
  0
VERTEX
  8
0
 10
2311.9683
 20
1647.9434
 30
0.0000
  0
VERTEX
  8
0
 10
2311.2759
 20
1648.0519
 30
0.0000
  0
VERTEX
  8
0
 10
2310.5669
 20
1648.0651
 30
0.0000
  0
VERTEX
  8
0
 10
2309.8673
 20
1647.9823
 30
0.0000
  0
VERTEX
  8
0
 10
2309.2030
 20
1647.8066
 30
0.0000
  0
VERTEX
  8
0
 10
2308.5982
 20
1647.5446
 30
0.0000
  0
VERTEX
  8
0
 10
2308.2087
 20
1647.3051
 30
0.0000
  0
SEQEND
  0
POLYLINE
  6
continous
  8
BYBLOCK
 70
0
 66
1
  0
VERTEX
  8
0
 10
2313.4413
 20
1643.6051
 30
0.0000
  0
VERTEX
  8
0
 10
2313.8558
 20
1643.9545
 30
0.0000
  0
VERTEX
  8
0
 10
2314.1783
 20
1644.3494
 30
0.0000
  0
VERTEX
  8
0
 10
2314.3989
 20
1644.7780
 30
0.0000
  0
VERTEX
  8
0
 10
2314.5109
 20
1645.2271
 30
0.0000
  0
VERTEX
  8
0
 10
2314.5250
 20
1645.4551
 30
0.0000
  0
SEQEND
  0
POLYLINE
  6
continous
  8
BYBLOCK
 70
0
 66
1
  0
VERTEX
  8
0
 10
2264.6986
 20
1615.4551
 30
0.0000
  0
VERTEX
  8
0
 10
2264.7548
 20
1615.0008
 30
0.0000
  0
VERTEX
  8
0
 10
2264.9217
 20
1614.5603
 30
0.0000
  0
VERTEX
  8
0
 10
2265.1943
 20
1614.1470
 30
0.0000
  0
VERTEX
  8
0
 10
2265.5642
 20
1613.7734
 30
0.0000
  0
VERTEX
  8
0
 10
2266.0202
 20
1613.4509
 30
0.0000
  0
VERTEX
  8
0
 10
2266.6048
 20
1613.1669
 30
0.0000
  0
VERTEX
  8
0
 10
2267.2552
 20
1612.9669
 30
0.0000
  0
VERTEX
  8
0
 10
2267.9476
 20
1612.8583
 30
0.0000
  0
VERTEX
  8
0
 10
2268.6567
 20
1612.8452
 30
0.0000
  0
VERTEX
  8
0
 10
2269.3562
 20
1612.9280
 30
0.0000
  0
VERTEX
  8
0
 10
2270.0205
 20
1613.1036
 30
0.0000
  0
VERTEX
  8
0
 10
2270.6253
 20
1613.3657
 30
0.0000
  0
VERTEX
  8
0
 10
2271.0148
 20
1613.6051
 30
0.0000
  0
SEQEND
  0
POLYLINE
  6
continous
  8
BYBLOCK
 70
0
 66
1
  0
VERTEX
  8
0
 10
2265.7823
 20
1617.3051
 30
0.0000
  0
VERTEX
  8
0
 10
2265.3677
 20
1616.9558
 30
0.0000
  0
VERTEX
  8
0
 10
2265.0452
 20
1616.5608
 30
0.0000
  0
VERTEX
  8
0
 10
2264.8246
 20
1616.1323
 30
0.0000
  0
VERTEX
  8
0
 10
2264.7126
 20
1615.6832
 30
0.0000
  0
VERTEX
  8
0
 10
2264.6986
 20
1615.4551
 30
0.0000
  0
SEQEND
  0
POLYLINE
  6
continous
  8
BYBLOCK
 70
0
 66
1
  0
VERTEX
  8
0
 10
2272.0986
 20
1615.4551
 30
0.0000
  0
VERTEX
  8
0
 10
2272.0423
 20
1615.9094
 30
0.0000
  0
VERTEX
  8
0
 10
2271.8754
 20
1616.3500
 30
0.0000
  0
VERTEX
  8
0
 10
2271.6028
 20
1616.7633
 30
0.0000
  0
VERTEX
  8
0
 10
2271.2329
 20
1617.1369
 30
0.0000
  0
VERTEX
  8
0
 10
2270.7769
 20
1617.4593
 30
0.0000
  0
VERTEX
  8
0
 10
2270.1923
 20
1617.7434
 30
0.0000
  0
VERTEX
  8
0
 10
2269.5419
 20
1617.9434
 30
0.0000
  0
VERTEX
  8
0
 10
2268.8495
 20
1618.0519
 30
0.0000
  0
VERTEX
  8
0
 10
2268.1405
 20
1618.0651
 30
0.0000
  0
VERTEX
  8
0
 10
2267.4409
 20
1617.9823
 30
0.0000
  0
VERTEX
  8
0
 10
2266.7766
 20
1617.8066
 30
0.0000
  0
VERTEX
  8
0
 10
2266.1718
 20
1617.5446
 30
0.0000
  0
VERTEX
  8
0
 10
2265.7823
 20
1617.3051
 30
0.0000
  0
SEQEND
  0
POLYLINE
  6
continous
  8
BYBLOCK
 70
0
 66
1
  0
VERTEX
  8
0
 10
2271.0148
 20
1613.6051
 30
0.0000
  0
VERTEX
  8
0
 10
2271.4294
 20
1613.9545
 30
0.0000
  0
VERTEX
  8
0
 10
2271.7519
 20
1614.3494
 30
0.0000
  0
VERTEX
  8
0
 10
2271.9725
 20
1614.7780
 30
0.0000
  0
VERTEX
  8
0
 10
2272.0845
 20
1615.2271
 30
0.0000
  0
VERTEX
  8
0
 10
2272.0986
 20
1615.4551
 30
0.0000
  0
SEQEND
  0
POLYLINE
  6
continous
  8
BYBLOCK
 70
0
 66
1
  0
VERTEX
  8
0
 10
2222.2721
 20
1585.4551
 30
0.0000
  0
VERTEX
  8
0
 10
2222.3284
 20
1585.0008
 30
0.0000
  0
VERTEX
  8
0
 10
2222.4953
 20
1584.5603
 30
0.0000
  0
VERTEX
  8
0
 10
2222.7679
 20
1584.1470
 30
0.0000
  0
VERTEX
  8
0
 10
2223.1378
 20
1583.7734
 30
0.0000
  0
VERTEX
  8
0
 10
2223.5938
 20
1583.4509
 30
0.0000
  0
VERTEX
  8
0
 10
2224.1784
 20
1583.1669
 30
0.0000
  0
VERTEX
  8
0
 10
2224.8288
 20
1582.9669
 30
0.0000
  0
VERTEX
  8
0
 10
2225.5212
 20
1582.8583
 30
0.0000
  0
VERTEX
  8
0
 10
2226.2302
 20
1582.8452
 30
0.0000
  0
VERTEX
  8
0
 10
2226.9298
 20
1582.9280
 30
0.0000
  0
VERTEX
  8
0
 10
2227.5941
 20
1583.1036
 30
0.0000
  0
VERTEX
  8
0
 10
2228.1989
 20
1583.3657
 30
0.0000
  0
VERTEX
  8
0
 10
2228.5884
 20
1583.6051
 30
0.0000
  0
SEQEND
  0
POLYLINE
  6
continous
  8
BYBLOCK
 70
0
 66
1
  0
VERTEX
  8
0
 10
2223.3559
 20
1587.3051
 30
0.0000
  0
VERTEX
  8
0
 10
2222.9413
 20
1586.9558
 30
0.0000
  0
VERTEX
  8
0
 10
2222.6188
 20
1586.5608
 30
0.0000
  0
VERTEX
  8
0
 10
2222.3982
 20
1586.1323
 30
0.0000
  0
VERTEX
  8
0
 10
2222.2862
 20
1585.6832
 30
0.0000
  0
VERTEX
  8
0
 10
2222.2721
 20
1585.4551
 30
0.0000
  0
SEQEND
  0
POLYLINE
  6
continous
  8
BYBLOCK
 70
0
 66
1
  0
VERTEX
  8
0
 10
2229.6721
 20
1585.4551
 30
0.0000
  0
VERTEX
  8
0
 10
2229.6159
 20
1585.9094
 30
0.0000
  0
VERTEX
  8
0
 10
2229.4490
 20
1586.3500
 30
0.0000
  0
VERTEX
  8
0
 10
2229.1764
 20
1586.7633
 30
0.0000
  0
VERTEX
  8
0
 10
2228.8065
 20
1587.1369
 30
0.0000
  0
VERTEX
  8
0
 10
2228.3505
 20
1587.4593
 30
0.0000
  0
VERTEX
  8
0
 10
2227.7659
 20
1587.7434
 30
0.0000
  0
VERTEX
  8
0
 10
2227.1155
 20
1587.9434
 30
0.0000
  0
VERTEX
  8
0
 10
2226.4231
 20
1588.0519
 30
0.0000
  0
VERTEX
  8
0
 10
2225.7140
 20
1588.0651
 30
0.0000
  0
VERTEX
  8
0
 10
2225.0145
 20
1587.9823
 30
0.0000
  0
VERTEX
  8
0
 10
2224.3502
 20
1587.8066
 30
0.0000
  0
VERTEX
  8
0
 10
2223.7454
 20
1587.5446
 30
0.0000
  0
VERTEX
  8
0
 10
2223.3559
 20
1587.3051
 30
0.0000
  0
SEQEND
  0
POLYLINE
  6
continous
  8
BYBLOCK
 70
0
 66
1
  0
VERTEX
  8
0
 10
2228.5884
 20
1583.6051
 30
0.0000
  0
VERTEX
  8
0
 10
2229.0030
 20
1583.9545
 30
0.0000
  0
VERTEX
  8
0
 10
2229.3255
 20
1584.3494
 30
0.0000
  0
VERTEX
  8
0
 10
2229.5461
 20
1584.7780
 30
0.0000
  0
VERTEX
  8
0
 10
2229.6581
 20
1585.2271
 30
0.0000
  0
VERTEX
  8
0
 10
2229.6721
 20
1585.4551
 30
0.0000
  0
SEQEND
  0
POLYLINE
  6
continous
  8
BYBLOCK
 70
0
 66
1
  0
VERTEX
  8
0
 10
2179.8457
 20
1555.4551
 30
0.0000
  0
VERTEX
  8
0
 10
2179.9020
 20
1555.0008
 30
0.0000
  0
VERTEX
  8
0
 10
2180.0689
 20
1554.5603
 30
0.0000
  0
VERTEX
  8
0
 10
2180.3414
 20
1554.1470
 30
0.0000
  0
VERTEX
  8
0
 10
2180.7114
 20
1553.7734
 30
0.0000
  0
VERTEX
  8
0
 10
2181.1674
 20
1553.4509
 30
0.0000
  0
VERTEX
  8
0
 10
2181.7519
 20
1553.1669
 30
0.0000
  0
VERTEX
  8
0
 10
2182.4024
 20
1552.9669
 30
0.0000
  0
VERTEX
  8
0
 10
2183.0948
 20
1552.8583
 30
0.0000
  0
VERTEX
  8
0
 10
2183.8038
 20
1552.8452
 30
0.0000
  0
VERTEX
  8
0
 10
2184.5034
 20
1552.9280
 30
0.0000
  0
VERTEX
  8
0
 10
2185.1677
 20
1553.1036
 30
0.0000
  0
VERTEX
  8
0
 10
2185.7725
 20
1553.3657
 30
0.0000
  0
VERTEX
  8
0
 10
2186.1620
 20
1553.6051
 30
0.0000
  0
SEQEND
  0
POLYLINE
  6
continous
  8
BYBLOCK
 70
0
 66
1
  0
VERTEX
  8
0
 10
2180.9294
 20
1557.3051
 30
0.0000
  0
VERTEX
  8
0
 10
2180.5149
 20
1556.9558
 30
0.0000
  0
VERTEX
  8
0
 10
2180.1924
 20
1556.5608
 30
0.0000
  0
VERTEX
  8
0
 10
2179.9718
 20
1556.1323
 30
0.0000
  0
VERTEX
  8
0
 10
2179.8598
 20
1555.6832
 30
0.0000
  0
VERTEX
  8
0
 10
2179.8457
 20
1555.4551
 30
0.0000
  0
SEQEND
  0
POLYLINE
  6
continous
  8
BYBLOCK
 70
0
 66
1
  0
VERTEX
  8
0
 10
2187.2457
 20
1555.4551
 30
0.0000
  0
VERTEX
  8
0
 10
2187.1895
 20
1555.9094
 30
0.0000
  0
VERTEX
  8
0
 10
2187.0226
 20
1556.3500
 30
0.0000
  0
VERTEX
  8
0
 10
2186.7500
 20
1556.7633
 30
0.0000
  0
VERTEX
  8
0
 10
2186.3801
 20
1557.1369
 30
0.0000
  0
VERTEX
  8
0
 10
2185.9241
 20
1557.4593
 30
0.0000
  0
VERTEX
  8
0
 10
2185.3395
 20
1557.7434
 30
0.0000
  0
VERTEX
  8
0
 10
2184.6891
 20
1557.9434
 30
0.0000
  0
VERTEX
  8
0
 10
2183.9967
 20
1558.0519
 30
0.0000
  0
VERTEX
  8
0
 10
2183.2876
 20
1558.0651
 30
0.0000
  0
VERTEX
  8
0
 10
2182.5881
 20
1557.9823
 30
0.0000
  0
VERTEX
  8
0
 10
2181.9238
 20
1557.8066
 30
0.0000
  0
VERTEX
  8
0
 10
2181.3190
 20
1557.5446
 30
0.0000
  0
VERTEX
  8
0
 10
2180.9294
 20
1557.3051
 30
0.0000
  0
SEQEND
  0
POLYLINE
  6
continous
  8
BYBLOCK
 70
0
 66
1
  0
VERTEX
  8
0
 10
2186.1620
 20
1553.6051
 30
0.0000
  0
VERTEX
  8
0
 10
2186.5766
 20
1553.9545
 30
0.0000
  0
VERTEX
  8
0
 10
2186.8991
 20
1554.3494
 30
0.0000
  0
VERTEX
  8
0
 10
2187.1197
 20
1554.7780
 30
0.0000
  0
VERTEX
  8
0
 10
2187.2317
 20
1555.2271
 30
0.0000
  0
VERTEX
  8
0
 10
2187.2457
 20
1555.4551
 30
0.0000
  0
SEQEND
  0
POLYLINE
  6
continous
  8
BYBLOCK
 70
0
 66
1
  0
VERTEX
  8
0
 10
2137.4193
 20
1525.4551
 30
0.0000
  0
VERTEX
  8
0
 10
2137.4755
 20
1525.0008
 30
0.0000
  0
VERTEX
  8
0
 10
2137.6425
 20
1524.5603
 30
0.0000
  0
VERTEX
  8
0
 10
2137.9150
 20
1524.1470
 30
0.0000
  0
VERTEX
  8
0
 10
2138.2850
 20
1523.7734
 30
0.0000
  0
VERTEX
  8
0
 10
2138.7410
 20
1523.4509
 30
0.0000
  0
VERTEX
  8
0
 10
2139.3255
 20
1523.1669
 30
0.0000
  0
VERTEX
  8
0
 10
2139.9760
 20
1522.9669
 30
0.0000
  0
VERTEX
  8
0
 10
2140.6684
 20
1522.8583
 30
0.0000
  0
VERTEX
  8
0
 10
2141.3774
 20
1522.8452
 30
0.0000
  0
VERTEX
  8
0
 10
2142.0770
 20
1522.9280
 30
0.0000
  0
VERTEX
  8
0
 10
2142.7413
 20
1523.1036
 30
0.0000
  0
VERTEX
  8
0
 10
2143.3460
 20
1523.3657
 30
0.0000
  0
VERTEX
  8
0
 10
2143.7356
 20
1523.6051
 30
0.0000
  0
SEQEND
  0
POLYLINE
  6
continous
  8
BYBLOCK
 70
0
 66
1
  0
VERTEX
  8
0
 10
2138.5030
 20
1527.3051
 30
0.0000
  0
VERTEX
  8
0
 10
2138.0885
 20
1526.9558
 30
0.0000
  0
VERTEX
  8
0
 10
2137.7660
 20
1526.5608
 30
0.0000
  0
VERTEX
  8
0
 10
2137.5454
 20
1526.1323
 30
0.0000
  0
VERTEX
  8
0
 10
2137.4334
 20
1525.6832
 30
0.0000
  0
VERTEX
  8
0
 10
2137.4193
 20
1525.4551
 30
0.0000
  0
SEQEND
  0
POLYLINE
  6
continous
  8
BYBLOCK
 70
0
 66
1
  0
VERTEX
  8
0
 10
2144.8193
 20
1525.4551
 30
0.0000
  0
VERTEX
  8
0
 10
2144.7631
 20
1525.9094
 30
0.0000
  0
VERTEX
  8
0
 10
2144.5962
 20
1526.3500
 30
0.0000
  0
VERTEX
  8
0
 10
2144.3236
 20
1526.7633
 30
0.0000
  0
VERTEX
  8
0
 10
2143.9537
 20
1527.1369
 30
0.0000
  0
VERTEX
  8
0
 10
2143.4976
 20
1527.4593
 30
0.0000
  0
VERTEX
  8
0
 10
2142.9131
 20
1527.7434
 30
0.0000
  0
VERTEX
  8
0
 10
2142.2627
 20
1527.9434
 30
0.0000
  0
VERTEX
  8
0
 10
2141.5703
 20
1528.0519
 30
0.0000
  0
VERTEX
  8
0
 10
2140.8612
 20
1528.0651
 30
0.0000
  0
VERTEX
  8
0
 10
2140.1617
 20
1527.9823
 30
0.0000
  0
VERTEX
  8
0
 10
2139.4974
 20
1527.8066
 30
0.0000
  0
VERTEX
  8
0
 10
2138.8926
 20
1527.5446
 30
0.0000
  0
VERTEX
  8
0
 10
2138.5030
 20
1527.3051
 30
0.0000
  0
SEQEND
  0
POLYLINE
  6
continous
  8
BYBLOCK
 70
0
 66
1
  0
VERTEX
  8
0
 10
2143.7356
 20
1523.6051
 30
0.0000
  0
VERTEX
  8
0
 10
2144.1502
 20
1523.9545
 30
0.0000
  0
VERTEX
  8
0
 10
2144.4727
 20
1524.3494
 30
0.0000
  0
VERTEX
  8
0
 10
2144.6933
 20
1524.7780
 30
0.0000
  0
VERTEX
  8
0
 10
2144.8053
 20
1525.2271
 30
0.0000
  0
VERTEX
  8
0
 10
2144.8193
 20
1525.4551
 30
0.0000
  0
SEQEND
  0
POLYLINE
  6
continous
  8
BYBLOCK
 70
0
 66
1
  0
VERTEX
  8
0
 10
2094.9929
 20
1495.4551
 30
0.0000
  0
VERTEX
  8
0
 10
2095.0491
 20
1495.0008
 30
0.0000
  0
VERTEX
  8
0
 10
2095.2161
 20
1494.5603
 30
0.0000
  0
VERTEX
  8
0
 10
2095.4886
 20
1494.1470
 30
0.0000
  0
VERTEX
  8
0
 10
2095.8586
 20
1493.7734
 30
0.0000
  0
VERTEX
  8
0
 10
2096.3146
 20
1493.4509
 30
0.0000
  0
VERTEX
  8
0
 10
2096.8991
 20
1493.1669
 30
0.0000
  0
VERTEX
  8
0
 10
2097.5496
 20
1492.9669
 30
0.0000
  0
VERTEX
  8
0
 10
2098.2420
 20
1492.8583
 30
0.0000
  0
VERTEX
  8
0
 10
2098.9510
 20
1492.8452
 30
0.0000
  0
VERTEX
  8
0
 10
2099.6506
 20
1492.9280
 30
0.0000
  0
VERTEX
  8
0
 10
2100.3149
 20
1493.1036
 30
0.0000
  0
VERTEX
  8
0
 10
2100.9196
 20
1493.3657
 30
0.0000
  0
VERTEX
  8
0
 10
2101.3092
 20
1493.6051
 30
0.0000
  0
SEQEND
  0
POLYLINE
  6
continous
  8
BYBLOCK
 70
0
 66
1
  0
VERTEX
  8
0
 10
2096.0766
 20
1497.3051
 30
0.0000
  0
VERTEX
  8
0
 10
2095.6621
 20
1496.9558
 30
0.0000
  0
VERTEX
  8
0
 10
2095.3396
 20
1496.5608
 30
0.0000
  0
VERTEX
  8
0
 10
2095.1190
 20
1496.1323
 30
0.0000
  0
VERTEX
  8
0
 10
2095.0070
 20
1495.6832
 30
0.0000
  0
VERTEX
  8
0
 10
2094.9929
 20
1495.4551
 30
0.0000
  0
SEQEND
  0
POLYLINE
  6
continous
  8
BYBLOCK
 70
0
 66
1
  0
VERTEX
  8
0
 10
2102.3929
 20
1495.4551
 30
0.0000
  0
VERTEX
  8
0
 10
2102.3367
 20
1495.9094
 30
0.0000
  0
VERTEX
  8
0
 10
2102.1698
 20
1496.3500
 30
0.0000
  0
VERTEX
  8
0
 10
2101.8972
 20
1496.7633
 30
0.0000
  0
VERTEX
  8
0
 10
2101.5273
 20
1497.1369
 30
0.0000
  0
VERTEX
  8
0
 10
2101.0712
 20
1497.4593
 30
0.0000
  0
VERTEX
  8
0
 10
2100.4867
 20
1497.7434
 30
0.0000
  0
VERTEX
  8
0
 10
2099.8363
 20
1497.9434
 30
0.0000
  0
VERTEX
  8
0
 10
2099.1438
 20
1498.0519
 30
0.0000
  0
VERTEX
  8
0
 10
2098.4348
 20
1498.0651
 30
0.0000
  0
VERTEX
  8
0
 10
2097.7353
 20
1497.9823
 30
0.0000
  0
VERTEX
  8
0
 10
2097.0710
 20
1497.8066
 30
0.0000
  0
VERTEX
  8
0
 10
2096.4662
 20
1497.5446
 30
0.0000
  0
VERTEX
  8
0
 10
2096.0766
 20
1497.3051
 30
0.0000
  0
SEQEND
  0
POLYLINE
  6
continous
  8
BYBLOCK
 70
0
 66
1
  0
VERTEX
  8
0
 10
2101.3092
 20
1493.6051
 30
0.0000
  0
VERTEX
  8
0
 10
2101.7238
 20
1493.9545
 30
0.0000
  0
VERTEX
  8
0
 10
2102.0463
 20
1494.3494
 30
0.0000
  0
VERTEX
  8
0
 10
2102.2669
 20
1494.7780
 30
0.0000
  0
VERTEX
  8
0
 10
2102.3788
 20
1495.2271
 30
0.0000
  0
VERTEX
  8
0
 10
2102.3929
 20
1495.4551
 30
0.0000
  0
SEQEND
  0
POLYLINE
  6
continous
  8
BYBLOCK
 70
0
 66
1
  0
VERTEX
  8
0
 10
2052.5665
 20
1465.4551
 30
0.0000
  0
VERTEX
  8
0
 10
2052.6227
 20
1465.0008
 30
0.0000
  0
VERTEX
  8
0
 10
2052.7897
 20
1464.5603
 30
0.0000
  0
VERTEX
  8
0
 10
2053.0622
 20
1464.1470
 30
0.0000
  0
VERTEX
  8
0
 10
2053.4322
 20
1463.7734
 30
0.0000
  0
VERTEX
  8
0
 10
2053.8882
 20
1463.4509
 30
0.0000
  0
VERTEX
  8
0
 10
2054.4727
 20
1463.1669
 30
0.0000
  0
VERTEX
  8
0
 10
2055.1232
 20
1462.9669
 30
0.0000
  0
VERTEX
  8
0
 10
2055.8156
 20
1462.8583
 30
0.0000
  0
VERTEX
  8
0
 10
2056.5246
 20
1462.8452
 30
0.0000
  0
VERTEX
  8
0
 10
2057.2242
 20
1462.9280
 30
0.0000
  0
VERTEX
  8
0
 10
2057.8885
 20
1463.1036
 30
0.0000
  0
VERTEX
  8
0
 10
2058.4932
 20
1463.3657
 30
0.0000
  0
VERTEX
  8
0
 10
2058.8828
 20
1463.6051
 30
0.0000
  0
SEQEND
  0
POLYLINE
  6
continous
  8
BYBLOCK
 70
0
 66
1
  0
VERTEX
  8
0
 10
2053.6502
 20
1467.3051
 30
0.0000
  0
VERTEX
  8
0
 10
2053.2357
 20
1466.9558
 30
0.0000
  0
VERTEX
  8
0
 10
2052.9132
 20
1466.5608
 30
0.0000
  0
VERTEX
  8
0
 10
2052.6926
 20
1466.1323
 30
0.0000
  0
VERTEX
  8
0
 10
2052.5806
 20
1465.6832
 30
0.0000
  0
VERTEX
  8
0
 10
2052.5665
 20
1465.4551
 30
0.0000
  0
SEQEND
  0
POLYLINE
  6
continous
  8
BYBLOCK
 70
0
 66
1
  0
VERTEX
  8
0
 10
2059.9665
 20
1465.4551
 30
0.0000
  0
VERTEX
  8
0
 10
2059.9103
 20
1465.9094
 30
0.0000
  0
VERTEX
  8
0
 10
2059.7434
 20
1466.3500
 30
0.0000
  0
VERTEX
  8
0
 10
2059.4708
 20
1466.7633
 30
0.0000
  0
VERTEX
  8
0
 10
2059.1009
 20
1467.1369
 30
0.0000
  0
VERTEX
  8
0
 10
2058.6448
 20
1467.4593
 30
0.0000
  0
VERTEX
  8
0
 10
2058.0603
 20
1467.7434
 30
0.0000
  0
VERTEX
  8
0
 10
2057.4099
 20
1467.9434
 30
0.0000
  0
VERTEX
  8
0
 10
2056.7174
 20
1468.0519
 30
0.0000
  0
VERTEX
  8
0
 10
2056.0084
 20
1468.0651
 30
0.0000
  0
VERTEX
  8
0
 10
2055.3089
 20
1467.9823
 30
0.0000
  0
VERTEX
  8
0
 10
2054.6445
 20
1467.8066
 30
0.0000
  0
VERTEX
  8
0
 10
2054.0398
 20
1467.5446
 30
0.0000
  0
VERTEX
  8
0
 10
2053.6502
 20
1467.3051
 30
0.0000
  0
SEQEND
  0
POLYLINE
  6
continous
  8
BYBLOCK
 70
0
 66
1
  0
VERTEX
  8
0
 10
2058.8828
 20
1463.6051
 30
0.0000
  0
VERTEX
  8
0
 10
2059.2974
 20
1463.9545
 30
0.0000
  0
VERTEX
  8
0
 10
2059.6199
 20
1464.3494
 30
0.0000
  0
VERTEX
  8
0
 10
2059.8404
 20
1464.7780
 30
0.0000
  0
VERTEX
  8
0
 10
2059.9524
 20
1465.2271
 30
0.0000
  0
VERTEX
  8
0
 10
2059.9665
 20
1465.4551
 30
0.0000
  0
SEQEND
  0
POLYLINE
  6
continous
  8
BYBLOCK
 70
0
 66
1
  0
VERTEX
  8
0
 10
2010.1401
 20
1435.4551
 30
0.0000
  0
VERTEX
  8
0
 10
2010.1963
 20
1435.0008
 30
0.0000
  0
VERTEX
  8
0
 10
2010.3633
 20
1434.5603
 30
0.0000
  0
VERTEX
  8
0
 10
2010.6358
 20
1434.1470
 30
0.0000
  0
VERTEX
  8
0
 10
2011.0057
 20
1433.7734
 30
0.0000
  0
VERTEX
  8
0
 10
2011.4618
 20
1433.4509
 30
0.0000
  0
VERTEX
  8
0
 10
2012.0463
 20
1433.1669
 30
0.0000
  0
VERTEX
  8
0
 10
2012.6967
 20
1432.9669
 30
0.0000
  0
VERTEX
  8
0
 10
2013.3892
 20
1432.8583
 30
0.0000
  0
VERTEX
  8
0
 10
2014.0982
 20
1432.8452
 30
0.0000
  0
VERTEX
  8
0
 10
2014.7977
 20
1432.9280
 30
0.0000
  0
VERTEX
  8
0
 10
2015.4621
 20
1433.1036
 30
0.0000
  0
VERTEX
  8
0
 10
2016.0668
 20
1433.3657
 30
0.0000
  0
VERTEX
  8
0
 10
2016.4564
 20
1433.6051
 30
0.0000
  0
SEQEND
  0
POLYLINE
  6
continous
  8
BYBLOCK
 70
0
 66
1
  0
VERTEX
  8
0
 10
2011.2238
 20
1437.3051
 30
0.0000
  0
VERTEX
  8
0
 10
2010.8093
 20
1436.9558
 30
0.0000
  0
VERTEX
  8
0
 10
2010.4868
 20
1436.5608
 30
0.0000
  0
VERTEX
  8
0
 10
2010.2662
 20
1436.1323
 30
0.0000
  0
VERTEX
  8
0
 10
2010.1542
 20
1435.6832
 30
0.0000
  0
VERTEX
  8
0
 10
2010.1401
 20
1435.4551
 30
0.0000
  0
SEQEND
  0
POLYLINE
  6
continous
  8
BYBLOCK
 70
0
 66
1
  0
VERTEX
  8
0
 10
2017.5401
 20
1435.4551
 30
0.0000
  0
VERTEX
  8
0
 10
2017.4839
 20
1435.9094
 30
0.0000
  0
VERTEX
  8
0
 10
2017.3170
 20
1436.3500
 30
0.0000
  0
VERTEX
  8
0
 10
2017.0444
 20
1436.7633
 30
0.0000
  0
VERTEX
  8
0
 10
2016.6745
 20
1437.1369
 30
0.0000
  0
VERTEX
  8
0
 10
2016.2184
 20
1437.4593
 30
0.0000
  0
VERTEX
  8
0
 10
2015.6339
 20
1437.7434
 30
0.0000
  0
VERTEX
  8
0
 10
2014.9835
 20
1437.9434
 30
0.0000
  0
VERTEX
  8
0
 10
2014.2910
 20
1438.0519
 30
0.0000
  0
VERTEX
  8
0
 10
2013.5820
 20
1438.0651
 30
0.0000
  0
VERTEX
  8
0
 10
2012.8825
 20
1437.9823
 30
0.0000
  0
VERTEX
  8
0
 10
2012.2181
 20
1437.8066
 30
0.0000
  0
VERTEX
  8
0
 10
2011.6134
 20
1437.5446
 30
0.0000
  0
VERTEX
  8
0
 10
2011.2238
 20
1437.3051
 30
0.0000
  0
SEQEND
  0
POLYLINE
  6
continous
  8
BYBLOCK
 70
0
 66
1
  0
VERTEX
  8
0
 10
2016.4564
 20
1433.6051
 30
0.0000
  0
VERTEX
  8
0
 10
2016.8710
 20
1433.9545
 30
0.0000
  0
VERTEX
  8
0
 10
2017.1935
 20
1434.3494
 30
0.0000
  0
VERTEX
  8
0
 10
2017.4140
 20
1434.7780
 30
0.0000
  0
VERTEX
  8
0
 10
2017.5260
 20
1435.2271
 30
0.0000
  0
VERTEX
  8
0
 10
2017.5401
 20
1435.4551
 30
0.0000
  0
SEQEND
  0
POLYLINE
  6
continous
  8
BYBLOCK
 70
0
 66
1
  0
VERTEX
  8
0
 10
1967.7137
 20
1405.4551
 30
0.0000
  0
VERTEX
  8
0
 10
1967.7699
 20
1405.0008
 30
0.0000
  0
VERTEX
  8
0
 10
1967.9368
 20
1404.5603
 30
0.0000
  0
VERTEX
  8
0
 10
1968.2094
 20
1404.1470
 30
0.0000
  0
VERTEX
  8
0
 10
1968.5793
 20
1403.7734
 30
0.0000
  0
VERTEX
  8
0
 10
1969.0354
 20
1403.4509
 30
0.0000
  0
VERTEX
  8
0
 10
1969.6199
 20
1403.1669
 30
0.0000
  0
VERTEX
  8
0
 10
1970.2703
 20
1402.9669
 30
0.0000
  0
VERTEX
  8
0
 10
1970.9628
 20
1402.8583
 30
0.0000
  0
VERTEX
  8
0
 10
1971.6718
 20
1402.8452
 30
0.0000
  0
VERTEX
  8
0
 10
1972.3713
 20
1402.9280
 30
0.0000
  0
VERTEX
  8
0
 10
1973.0357
 20
1403.1036
 30
0.0000
  0
VERTEX
  8
0
 10
1973.6404
 20
1403.3657
 30
0.0000
  0
VERTEX
  8
0
 10
1974.0300
 20
1403.6051
 30
0.0000
  0
SEQEND
  0
POLYLINE
  6
continous
  8
BYBLOCK
 70
0
 66
1
  0
VERTEX
  8
0
 10
1968.7974
 20
1407.3051
 30
0.0000
  0
VERTEX
  8
0
 10
1968.3828
 20
1406.9558
 30
0.0000
  0
VERTEX
  8
0
 10
1968.0604
 20
1406.5608
 30
0.0000
  0
VERTEX
  8
0
 10
1967.8398
 20
1406.1323
 30
0.0000
  0
VERTEX
  8
0
 10
1967.7278
 20
1405.6832
 30
0.0000
  0
VERTEX
  8
0
 10
1967.7137
 20
1405.4551
 30
0.0000
  0
SEQEND
  0
POLYLINE
  6
continous
  8
BYBLOCK
 70
0
 66
1
  0
VERTEX
  8
0
 10
1975.1137
 20
1405.4551
 30
0.0000
  0
VERTEX
  8
0
 10
1975.0575
 20
1405.9094
 30
0.0000
  0
VERTEX
  8
0
 10
1974.8906
 20
1406.3500
 30
0.0000
  0
VERTEX
  8
0
 10
1974.6180
 20
1406.7633
 30
0.0000
  0
VERTEX
  8
0
 10
1974.2481
 20
1407.1369
 30
0.0000
  0
VERTEX
  8
0
 10
1973.7920
 20
1407.4593
 30
0.0000
  0
VERTEX
  8
0
 10
1973.2075
 20
1407.7434
 30
0.0000
  0
VERTEX
  8
0
 10
1972.5571
 20
1407.9434
 30
0.0000
  0
VERTEX
  8
0
 10
1971.8646
 20
1408.0519
 30
0.0000
  0
VERTEX
  8
0
 10
1971.1556
 20
1408.0651
 30
0.0000
  0
VERTEX
  8
0
 10
1970.4561
 20
1407.9823
 30
0.0000
  0
VERTEX
  8
0
 10
1969.7917
 20
1407.8066
 30
0.0000
  0
VERTEX
  8
0
 10
1969.1870
 20
1407.5446
 30
0.0000
  0
VERTEX
  8
0
 10
1968.7974
 20
1407.3051
 30
0.0000
  0
SEQEND
  0
POLYLINE
  6
continous
  8
BYBLOCK
 70
0
 66
1
  0
VERTEX
  8
0
 10
1974.0300
 20
1403.6051
 30
0.0000
  0
VERTEX
  8
0
 10
1974.4446
 20
1403.9545
 30
0.0000
  0
VERTEX
  8
0
 10
1974.7670
 20
1404.3494
 30
0.0000
  0
VERTEX
  8
0
 10
1974.9876
 20
1404.7780
 30
0.0000
  0
VERTEX
  8
0
 10
1975.0996
 20
1405.2271
 30
0.0000
  0
VERTEX
  8
0
 10
1975.1137
 20
1405.4551
 30
0.0000
  0
SEQEND
  0
POLYLINE
  6
continous
  8
BYBLOCK
 70
0
 66
1
  0
VERTEX
  8
0
 10
1925.2873
 20
1375.4551
 30
0.0000
  0
VERTEX
  8
0
 10
1925.3435
 20
1375.0008
 30
0.0000
  0
VERTEX
  8
0
 10
1925.5104
 20
1374.5603
 30
0.0000
  0
VERTEX
  8
0
 10
1925.7830
 20
1374.1470
 30
0.0000
  0
VERTEX
  8
0
 10
1926.1529
 20
1373.7734
 30
0.0000
  0
VERTEX
  8
0
 10
1926.6090
 20
1373.4509
 30
0.0000
  0
VERTEX
  8
0
 10
1927.1935
 20
1373.1669
 30
0.0000
  0
VERTEX
  8
0
 10
1927.8439
 20
1372.9669
 30
0.0000
  0
VERTEX
  8
0
 10
1928.5364
 20
1372.8583
 30
0.0000
  0
VERTEX
  8
0
 10
1929.2454
 20
1372.8452
 30
0.0000
  0
VERTEX
  8
0
 10
1929.9449
 20
1372.9280
 30
0.0000
  0
VERTEX
  8
0
 10
1930.6093
 20
1373.1036
 30
0.0000
  0
VERTEX
  8
0
 10
1931.2140
 20
1373.3657
 30
0.0000
  0
VERTEX
  8
0
 10
1931.6036
 20
1373.6051
 30
0.0000
  0
SEQEND
  0
POLYLINE
  6
continous
  8
BYBLOCK
 70
0
 66
1
  0
VERTEX
  8
0
 10
1926.3710
 20
1377.3051
 30
0.0000
  0
VERTEX
  8
0
 10
1925.9564
 20
1376.9558
 30
0.0000
  0
VERTEX
  8
0
 10
1925.6340
 20
1376.5608
 30
0.0000
  0
VERTEX
  8
0
 10
1925.4134
 20
1376.1323
 30
0.0000
  0
VERTEX
  8
0
 10
1925.3014
 20
1375.6832
 30
0.0000
  0
VERTEX
  8
0
 10
1925.2873
 20
1375.4551
 30
0.0000
  0
SEQEND
  0
POLYLINE
  6
continous
  8
BYBLOCK
 70
0
 66
1
  0
VERTEX
  8
0
 10
1932.6873
 20
1375.4551
 30
0.0000
  0
VERTEX
  8
0
 10
1932.6311
 20
1375.9094
 30
0.0000
  0
VERTEX
  8
0
 10
1932.4642
 20
1376.3500
 30
0.0000
  0
VERTEX
  8
0
 10
1932.1916
 20
1376.7633
 30
0.0000
  0
VERTEX
  8
0
 10
1931.8217
 20
1377.1369
 30
0.0000
  0
VERTEX
  8
0
 10
1931.3656
 20
1377.4593
 30
0.0000
  0
VERTEX
  8
0
 10
1930.7811
 20
1377.7434
 30
0.0000
  0
VERTEX
  8
0
 10
1930.1307
 20
1377.9434
 30
0.0000
  0
VERTEX
  8
0
 10
1929.4382
 20
1378.0519
 30
0.0000
  0
VERTEX
  8
0
 10
1928.7292
 20
1378.0651
 30
0.0000
  0
VERTEX
  8
0
 10
1928.0297
 20
1377.9823
 30
0.0000
  0
VERTEX
  8
0
 10
1927.3653
 20
1377.8066
 30
0.0000
  0
VERTEX
  8
0
 10
1926.7606
 20
1377.5446
 30
0.0000
  0
VERTEX
  8
0
 10
1926.3710
 20
1377.3051
 30
0.0000
  0
SEQEND
  0
POLYLINE
  6
continous
  8
BYBLOCK
 70
0
 66
1
  0
VERTEX
  8
0
 10
1931.6036
 20
1373.6051
 30
0.0000
  0
VERTEX
  8
0
 10
1932.0182
 20
1373.9545
 30
0.0000
  0
VERTEX
  8
0
 10
1932.3406
 20
1374.3494
 30
0.0000
  0
VERTEX
  8
0
 10
1932.5612
 20
1374.7780
 30
0.0000
  0
VERTEX
  8
0
 10
1932.6732
 20
1375.2271
 30
0.0000
  0
VERTEX
  8
0
 10
1932.6873
 20
1375.4551
 30
0.0000
  0
SEQEND
  0
POLYLINE
  6
continous
  8
BYBLOCK
 70
0
 66
1
  0
VERTEX
  8
0
 10
1882.8609
 20
1345.4551
 30
0.0000
  0
VERTEX
  8
0
 10
1882.9171
 20
1345.0008
 30
0.0000
  0
VERTEX
  8
0
 10
1883.0840
 20
1344.5603
 30
0.0000
  0
VERTEX
  8
0
 10
1883.3566
 20
1344.1470
 30
0.0000
  0
VERTEX
  8
0
 10
1883.7265
 20
1343.7734
 30
0.0000
  0
VERTEX
  8
0
 10
1884.1826
 20
1343.4509
 30
0.0000
  0
VERTEX
  8
0
 10
1884.7671
 20
1343.1669
 30
0.0000
  0
VERTEX
  8
0
 10
1885.4175
 20
1342.9669
 30
0.0000
  0
VERTEX
  8
0
 10
1886.1100
 20
1342.8583
 30
0.0000
  0
VERTEX
  8
0
 10
1886.8190
 20
1342.8452
 30
0.0000
  0
VERTEX
  8
0
 10
1887.5185
 20
1342.9280
 30
0.0000
  0
VERTEX
  8
0
 10
1888.1829
 20
1343.1036
 30
0.0000
  0
VERTEX
  8
0
 10
1888.7876
 20
1343.3657
 30
0.0000
  0
VERTEX
  8
0
 10
1889.1772
 20
1343.6051
 30
0.0000
  0
SEQEND
  0
POLYLINE
  6
continous
  8
BYBLOCK
 70
0
 66
1
  0
VERTEX
  8
0
 10
1883.9446
 20
1347.3051
 30
0.0000
  0
VERTEX
  8
0
 10
1883.5300
 20
1346.9558
 30
0.0000
  0
VERTEX
  8
0
 10
1883.2076
 20
1346.5608
 30
0.0000
  0
VERTEX
  8
0
 10
1882.9870
 20
1346.1323
 30
0.0000
  0
VERTEX
  8
0
 10
1882.8750
 20
1345.6832
 30
0.0000
  0
VERTEX
  8
0
 10
1882.8609
 20
1345.4551
 30
0.0000
  0
SEQEND
  0
POLYLINE
  6
continous
  8
BYBLOCK
 70
0
 66
1
  0
VERTEX
  8
0
 10
1890.2609
 20
1345.4551
 30
0.0000
  0
VERTEX
  8
0
 10
1890.2047
 20
1345.9094
 30
0.0000
  0
VERTEX
  8
0
 10
1890.0378
 20
1346.3500
 30
0.0000
  0
VERTEX
  8
0
 10
1889.7652
 20
1346.7633
 30
0.0000
  0
VERTEX
  8
0
 10
1889.3953
 20
1347.1369
 30
0.0000
  0
VERTEX
  8
0
 10
1888.9392
 20
1347.4593
 30
0.0000
  0
VERTEX
  8
0
 10
1888.3547
 20
1347.7434
 30
0.0000
  0
VERTEX
  8
0
 10
1887.7043
 20
1347.9434
 30
0.0000
  0
VERTEX
  8
0
 10
1887.0118
 20
1348.0519
 30
0.0000
  0
VERTEX
  8
0
 10
1886.3028
 20
1348.0651
 30
0.0000
  0
VERTEX
  8
0
 10
1885.6033
 20
1347.9823
 30
0.0000
  0
VERTEX
  8
0
 10
1884.9389
 20
1347.8066
 30
0.0000
  0
VERTEX
  8
0
 10
1884.3342
 20
1347.5446
 30
0.0000
  0
VERTEX
  8
0
 10
1883.9446
 20
1347.3051
 30
0.0000
  0
SEQEND
  0
POLYLINE
  6
continous
  8
BYBLOCK
 70
0
 66
1
  0
VERTEX
  8
0
 10
1889.1772
 20
1343.6051
 30
0.0000
  0
VERTEX
  8
0
 10
1889.5918
 20
1343.9545
 30
0.0000
  0
VERTEX
  8
0
 10
1889.9142
 20
1344.3494
 30
0.0000
  0
VERTEX
  8
0
 10
1890.1348
 20
1344.7780
 30
0.0000
  0
VERTEX
  8
0
 10
1890.2468
 20
1345.2271
 30
0.0000
  0
VERTEX
  8
0
 10
1890.2609
 20
1345.4551
 30
0.0000
  0
SEQEND
  0
POLYLINE
  6
continous
  8
BYBLOCK
 70
0
 66
1
  0
VERTEX
  8
0
 10
1840.4345
 20
1315.4551
 30
0.0000
  0
VERTEX
  8
0
 10
1840.4907
 20
1315.0008
 30
0.0000
  0
VERTEX
  8
0
 10
1840.6576
 20
1314.5603
 30
0.0000
  0
VERTEX
  8
0
 10
1840.9302
 20
1314.1470
 30
0.0000
  0
VERTEX
  8
0
 10
1841.3001
 20
1313.7734
 30
0.0000
  0
VERTEX
  8
0
 10
1841.7562
 20
1313.4509
 30
0.0000
  0
VERTEX
  8
0
 10
1842.3407
 20
1313.1669
 30
0.0000
  0
VERTEX
  8
0
 10
1842.9911
 20
1312.9669
 30
0.0000
  0
VERTEX
  8
0
 10
1843.6836
 20
1312.8583
 30
0.0000
  0
VERTEX
  8
0
 10
1844.3926
 20
1312.8452
 30
0.0000
  0
VERTEX
  8
0
 10
1845.0921
 20
1312.9280
 30
0.0000
  0
VERTEX
  8
0
 10
1845.7565
 20
1313.1036
 30
0.0000
  0
VERTEX
  8
0
 10
1846.3612
 20
1313.3657
 30
0.0000
  0
VERTEX
  8
0
 10
1846.7508
 20
1313.6051
 30
0.0000
  0
SEQEND
  0
POLYLINE
  6
continous
  8
BYBLOCK
 70
0
 66
1
  0
VERTEX
  8
0
 10
1841.5182
 20
1317.3051
 30
0.0000
  0
VERTEX
  8
0
 10
1841.1036
 20
1316.9558
 30
0.0000
  0
VERTEX
  8
0
 10
1840.7811
 20
1316.5608
 30
0.0000
  0
VERTEX
  8
0
 10
1840.5606
 20
1316.1323
 30
0.0000
  0
VERTEX
  8
0
 10
1840.4486
 20
1315.6832
 30
0.0000
  0
VERTEX
  8
0
 10
1840.4345
 20
1315.4551
 30
0.0000
  0
SEQEND
  0
POLYLINE
  6
continous
  8
BYBLOCK
 70
0
 66
1
  0
VERTEX
  8
0
 10
1847.8345
 20
1315.4551
 30
0.0000
  0
VERTEX
  8
0
 10
1847.7783
 20
1315.9094
 30
0.0000
  0
VERTEX
  8
0
 10
1847.6113
 20
1316.3500
 30
0.0000
  0
VERTEX
  8
0
 10
1847.3388
 20
1316.7633
 30
0.0000
  0
VERTEX
  8
0
 10
1846.9688
 20
1317.1369
 30
0.0000
  0
VERTEX
  8
0
 10
1846.5128
 20
1317.4593
 30
0.0000
  0
VERTEX
  8
0
 10
1845.9283
 20
1317.7434
 30
0.0000
  0
VERTEX
  8
0
 10
1845.2778
 20
1317.9434
 30
0.0000
  0
VERTEX
  8
0
 10
1844.5854
 20
1318.0519
 30
0.0000
  0
VERTEX
  8
0
 10
1843.8764
 20
1318.0651
 30
0.0000
  0
VERTEX
  8
0
 10
1843.1769
 20
1317.9823
 30
0.0000
  0
VERTEX
  8
0
 10
1842.5125
 20
1317.8066
 30
0.0000
  0
VERTEX
  8
0
 10
1841.9078
 20
1317.5446
 30
0.0000
  0
VERTEX
  8
0
 10
1841.5182
 20
1317.3051
 30
0.0000
  0
SEQEND
  0
POLYLINE
  6
continous
  8
BYBLOCK
 70
0
 66
1
  0
VERTEX
  8
0
 10
1846.7508
 20
1313.6051
 30
0.0000
  0
VERTEX
  8
0
 10
1847.1653
 20
1313.9545
 30
0.0000
  0
VERTEX
  8
0
 10
1847.4878
 20
1314.3494
 30
0.0000
  0
VERTEX
  8
0
 10
1847.7084
 20
1314.7780
 30
0.0000
  0
VERTEX
  8
0
 10
1847.8204
 20
1315.2271
 30
0.0000
  0
VERTEX
  8
0
 10
1847.8345
 20
1315.4551
 30
0.0000
  0
SEQEND
  0
POLYLINE
  6
continous
  8
BYBLOCK
 70
0
 66
1
  0
VERTEX
  8
0
 10
1798.0081
 20
1285.4551
 30
0.0000
  0
VERTEX
  8
0
 10
1798.0643
 20
1285.0008
 30
0.0000
  0
VERTEX
  8
0
 10
1798.2312
 20
1284.5603
 30
0.0000
  0
VERTEX
  8
0
 10
1798.5038
 20
1284.1470
 30
0.0000
  0
VERTEX
  8
0
 10
1798.8737
 20
1283.7734
 30
0.0000
  0
VERTEX
  8
0
 10
1799.3298
 20
1283.4509
 30
0.0000
  0
VERTEX
  8
0
 10
1799.9143
 20
1283.1669
 30
0.0000
  0
VERTEX
  8
0
 10
1800.5647
 20
1282.9669
 30
0.0000
  0
VERTEX
  8
0
 10
1801.2572
 20
1282.8583
 30
0.0000
  0
VERTEX
  8
0
 10
1801.9662
 20
1282.8452
 30
0.0000
  0
VERTEX
  8
0
 10
1802.6657
 20
1282.9280
 30
0.0000
  0
VERTEX
  8
0
 10
1803.3301
 20
1283.1036
 30
0.0000
  0
VERTEX
  8
0
 10
1803.9348
 20
1283.3657
 30
0.0000
  0
VERTEX
  8
0
 10
1804.3244
 20
1283.6051
 30
0.0000
  0
SEQEND
  0
POLYLINE
  6
continous
  8
BYBLOCK
 70
0
 66
1
  0
VERTEX
  8
0
 10
1799.0918
 20
1287.3051
 30
0.0000
  0
VERTEX
  8
0
 10
1798.6772
 20
1286.9558
 30
0.0000
  0
VERTEX
  8
0
 10
1798.3547
 20
1286.5608
 30
0.0000
  0
VERTEX
  8
0
 10
1798.1342
 20
1286.1323
 30
0.0000
  0
VERTEX
  8
0
 10
1798.0222
 20
1285.6832
 30
0.0000
  0
VERTEX
  8
0
 10
1798.0081
 20
1285.4551
 30
0.0000
  0
SEQEND
  0
POLYLINE
  6
continous
  8
BYBLOCK
 70
0
 66
1
  0
VERTEX
  8
0
 10
1805.4081
 20
1285.4551
 30
0.0000
  0
VERTEX
  8
0
 10
1805.3519
 20
1285.9094
 30
0.0000
  0
VERTEX
  8
0
 10
1805.1849
 20
1286.3500
 30
0.0000
  0
VERTEX
  8
0
 10
1804.9124
 20
1286.7633
 30
0.0000
  0
VERTEX
  8
0
 10
1804.5424
 20
1287.1369
 30
0.0000
  0
VERTEX
  8
0
 10
1804.0864
 20
1287.4593
 30
0.0000
  0
VERTEX
  8
0
 10
1803.5019
 20
1287.7434
 30
0.0000
  0
VERTEX
  8
0
 10
1802.8514
 20
1287.9434
 30
0.0000
  0
VERTEX
  8
0
 10
1802.1590
 20
1288.0519
 30
0.0000
  0
VERTEX
  8
0
 10
1801.4500
 20
1288.0651
 30
0.0000
  0
VERTEX
  8
0
 10
1800.7504
 20
1287.9823
 30
0.0000
  0
VERTEX
  8
0
 10
1800.0861
 20
1287.8066
 30
0.0000
  0
VERTEX
  8
0
 10
1799.4814
 20
1287.5446
 30
0.0000
  0
VERTEX
  8
0
 10
1799.0918
 20
1287.3051
 30
0.0000
  0
SEQEND
  0
POLYLINE
  6
continous
  8
BYBLOCK
 70
0
 66
1
  0
VERTEX
  8
0
 10
1804.3244
 20
1283.6051
 30
0.0000
  0
VERTEX
  8
0
 10
1804.7389
 20
1283.9545
 30
0.0000
  0
VERTEX
  8
0
 10
1805.0614
 20
1284.3494
 30
0.0000
  0
VERTEX
  8
0
 10
1805.2820
 20
1284.7780
 30
0.0000
  0
VERTEX
  8
0
 10
1805.3940
 20
1285.2271
 30
0.0000
  0
VERTEX
  8
0
 10
1805.4081
 20
1285.4551
 30
0.0000
  0
SEQEND
  0
POLYLINE
  6
continous
  8
BYBLOCK
 70
0
 66
1
  0
VERTEX
  8
0
 10
1755.5817
 20
1255.4551
 30
0.0000
  0
VERTEX
  8
0
 10
1755.6379
 20
1255.0008
 30
0.0000
  0
VERTEX
  8
0
 10
1755.8048
 20
1254.5603
 30
0.0000
  0
VERTEX
  8
0
 10
1756.0774
 20
1254.1470
 30
0.0000
  0
VERTEX
  8
0
 10
1756.4473
 20
1253.7734
 30
0.0000
  0
VERTEX
  8
0
 10
1756.9034
 20
1253.4509
 30
0.0000
  0
VERTEX
  8
0
 10
1757.4879
 20
1253.1669
 30
0.0000
  0
VERTEX
  8
0
 10
1758.1383
 20
1252.9669
 30
0.0000
  0
VERTEX
  8
0
 10
1758.8308
 20
1252.8583
 30
0.0000
  0
VERTEX
  8
0
 10
1759.5398
 20
1252.8452
 30
0.0000
  0
VERTEX
  8
0
 10
1760.2393
 20
1252.9280
 30
0.0000
  0
VERTEX
  8
0
 10
1760.9036
 20
1253.1036
 30
0.0000
  0
VERTEX
  8
0
 10
1761.5084
 20
1253.3657
 30
0.0000
  0
VERTEX
  8
0
 10
1761.8980
 20
1253.6051
 30
0.0000
  0
SEQEND
  0
POLYLINE
  6
continous
  8
BYBLOCK
 70
0
 66
1
  0
VERTEX
  8
0
 10
1756.6654
 20
1257.3051
 30
0.0000
  0
VERTEX
  8
0
 10
1756.2508
 20
1256.9558
 30
0.0000
  0
VERTEX
  8
0
 10
1755.9283
 20
1256.5608
 30
0.0000
  0
VERTEX
  8
0
 10
1755.7077
 20
1256.1323
 30
0.0000
  0
VERTEX
  8
0
 10
1755.5958
 20
1255.6832
 30
0.0000
  0
VERTEX
  8
0
 10
1755.5817
 20
1255.4551
 30
0.0000
  0
SEQEND
  0
POLYLINE
  6
continous
  8
BYBLOCK
 70
0
 66
1
  0
VERTEX
  8
0
 10
1762.9817
 20
1255.4551
 30
0.0000
  0
VERTEX
  8
0
 10
1762.9255
 20
1255.9094
 30
0.0000
  0
VERTEX
  8
0
 10
1762.7585
 20
1256.3500
 30
0.0000
  0
VERTEX
  8
0
 10
1762.4860
 20
1256.7633
 30
0.0000
  0
VERTEX
  8
0
 10
1762.1160
 20
1257.1369
 30
0.0000
  0
VERTEX
  8
0
 10
1761.6600
 20
1257.4593
 30
0.0000
  0
VERTEX
  8
0
 10
1761.0755
 20
1257.7434
 30
0.0000
  0
VERTEX
  8
0
 10
1760.4250
 20
1257.9434
 30
0.0000
  0
VERTEX
  8
0
 10
1759.7326
 20
1258.0519
 30
0.0000
  0
VERTEX
  8
0
 10
1759.0236
 20
1258.0651
 30
0.0000
  0
VERTEX
  8
0
 10
1758.3240
 20
1257.9823
 30
0.0000
  0
VERTEX
  8
0
 10
1757.6597
 20
1257.8066
 30
0.0000
  0
VERTEX
  8
0
 10
1757.0550
 20
1257.5446
 30
0.0000
  0
VERTEX
  8
0
 10
1756.6654
 20
1257.3051
 30
0.0000
  0
SEQEND
  0
POLYLINE
  6
continous
  8
BYBLOCK
 70
0
 66
1
  0
VERTEX
  8
0
 10
1761.8980
 20
1253.6051
 30
0.0000
  0
VERTEX
  8
0
 10
1762.3125
 20
1253.9545
 30
0.0000
  0
VERTEX
  8
0
 10
1762.6350
 20
1254.3494
 30
0.0000
  0
VERTEX
  8
0
 10
1762.8556
 20
1254.7780
 30
0.0000
  0
VERTEX
  8
0
 10
1762.9676
 20
1255.2271
 30
0.0000
  0
VERTEX
  8
0
 10
1762.9817
 20
1255.4551
 30
0.0000
  0
SEQEND
  0
POLYLINE
  6
continous
  8
BYBLOCK
 70
0
 66
1
  0
VERTEX
  8
0
 10
1713.1553
 20
1225.4551
 30
0.0000
  0
VERTEX
  8
0
 10
1713.2115
 20
1225.0008
 30
0.0000
  0
VERTEX
  8
0
 10
1713.3784
 20
1224.5603
 30
0.0000
  0
VERTEX
  8
0
 10
1713.6510
 20
1224.1470
 30
0.0000
  0
VERTEX
  8
0
 10
1714.0209
 20
1223.7734
 30
0.0000
  0
VERTEX
  8
0
 10
1714.4770
 20
1223.4509
 30
0.0000
  0
VERTEX
  8
0
 10
1715.0615
 20
1223.1669
 30
0.0000
  0
VERTEX
  8
0
 10
1715.7119
 20
1222.9669
 30
0.0000
  0
VERTEX
  8
0
 10
1716.4043
 20
1222.8583
 30
0.0000
  0
VERTEX
  8
0
 10
1717.1134
 20
1222.8452
 30
0.0000
  0
VERTEX
  8
0
 10
1717.8129
 20
1222.9280
 30
0.0000
  0
VERTEX
  8
0
 10
1718.4772
 20
1223.1036
 30
0.0000
  0
VERTEX
  8
0
 10
1719.0820
 20
1223.3657
 30
0.0000
  0
VERTEX
  8
0
 10
1719.4716
 20
1223.6051
 30
0.0000
  0
SEQEND
  0
POLYLINE
  6
continous
  8
BYBLOCK
 70
0
 66
1
  0
VERTEX
  8
0
 10
1714.2390
 20
1227.3051
 30
0.0000
  0
VERTEX
  8
0
 10
1713.8244
 20
1226.9558
 30
0.0000
  0
VERTEX
  8
0
 10
1713.5019
 20
1226.5608
 30
0.0000
  0
VERTEX
  8
0
 10
1713.2813
 20
1226.1323
 30
0.0000
  0
VERTEX
  8
0
 10
1713.1693
 20
1225.6832
 30
0.0000
  0
VERTEX
  8
0
 10
1713.1553
 20
1225.4551
 30
0.0000
  0
SEQEND
  0
POLYLINE
  6
continous
  8
BYBLOCK
 70
0
 66
1
  0
VERTEX
  8
0
 10
1720.5553
 20
1225.4551
 30
0.0000
  0
VERTEX
  8
0
 10
1720.4991
 20
1225.9094
 30
0.0000
  0
VERTEX
  8
0
 10
1720.3321
 20
1226.3500
 30
0.0000
  0
VERTEX
  8
0
 10
1720.0596
 20
1226.7633
 30
0.0000
  0
VERTEX
  8
0
 10
1719.6896
 20
1227.1369
 30
0.0000
  0
VERTEX
  8
0
 10
1719.2336
 20
1227.4593
 30
0.0000
  0
VERTEX
  8
0
 10
1718.6491
 20
1227.7434
 30
0.0000
  0
VERTEX
  8
0
 10
1717.9986
 20
1227.9434
 30
0.0000
  0
VERTEX
  8
0
 10
1717.3062
 20
1228.0519
 30
0.0000
  0
VERTEX
  8
0
 10
1716.5972
 20
1228.0651
 30
0.0000
  0
VERTEX
  8
0
 10
1715.8976
 20
1227.9823
 30
0.0000
  0
VERTEX
  8
0
 10
1715.2333
 20
1227.8066
 30
0.0000
  0
VERTEX
  8
0
 10
1714.6285
 20
1227.5446
 30
0.0000
  0
VERTEX
  8
0
 10
1714.2390
 20
1227.3051
 30
0.0000
  0
SEQEND
  0
POLYLINE
  6
continous
  8
BYBLOCK
 70
0
 66
1
  0
VERTEX
  8
0
 10
1719.4716
 20
1223.6051
 30
0.0000
  0
VERTEX
  8
0
 10
1719.8861
 20
1223.9545
 30
0.0000
  0
VERTEX
  8
0
 10
1720.2086
 20
1224.3494
 30
0.0000
  0
VERTEX
  8
0
 10
1720.4292
 20
1224.7780
 30
0.0000
  0
VERTEX
  8
0
 10
1720.5412
 20
1225.2271
 30
0.0000
  0
VERTEX
  8
0
 10
1720.5553
 20
1225.4551
 30
0.0000
  0
SEQEND
  0
POLYLINE
  6
continous
  8
BYBLOCK
 70
0
 66
1
  0
VERTEX
  8
0
 10
1670.7289
 20
1195.4551
 30
0.0000
  0
VERTEX
  8
0
 10
1670.7851
 20
1195.0008
 30
0.0000
  0
VERTEX
  8
0
 10
1670.9520
 20
1194.5603
 30
0.0000
  0
VERTEX
  8
0
 10
1671.2246
 20
1194.1470
 30
0.0000
  0
VERTEX
  8
0
 10
1671.5945
 20
1193.7734
 30
0.0000
  0
VERTEX
  8
0
 10
1672.0505
 20
1193.4509
 30
0.0000
  0
VERTEX
  8
0
 10
1672.6351
 20
1193.1669
 30
0.0000
  0
VERTEX
  8
0
 10
1673.2855
 20
1192.9669
 30
0.0000
  0
VERTEX
  8
0
 10
1673.9779
 20
1192.8583
 30
0.0000
  0
VERTEX
  8
0
 10
1674.6870
 20
1192.8452
 30
0.0000
  0
VERTEX
  8
0
 10
1675.3865
 20
1192.9280
 30
0.0000
  0
VERTEX
  8
0
 10
1676.0508
 20
1193.1036
 30
0.0000
  0
VERTEX
  8
0
 10
1676.6556
 20
1193.3657
 30
0.0000
  0
VERTEX
  8
0
 10
1677.0452
 20
1193.6051
 30
0.0000
  0
SEQEND
  0
POLYLINE
  6
continous
  8
BYBLOCK
 70
0
 66
1
  0
VERTEX
  8
0
 10
1671.8126
 20
1197.3051
 30
0.0000
  0
VERTEX
  8
0
 10
1671.3980
 20
1196.9558
 30
0.0000
  0
VERTEX
  8
0
 10
1671.0755
 20
1196.5608
 30
0.0000
  0
VERTEX
  8
0
 10
1670.8549
 20
1196.1323
 30
0.0000
  0
VERTEX
  8
0
 10
1670.7429
 20
1195.6832
 30
0.0000
  0
VERTEX
  8
0
 10
1670.7289
 20
1195.4551
 30
0.0000
  0
SEQEND
  0
POLYLINE
  6
continous
  8
BYBLOCK
 70
0
 66
1
  0
VERTEX
  8
0
 10
1678.1289
 20
1195.4551
 30
0.0000
  0
VERTEX
  8
0
 10
1678.0726
 20
1195.9094
 30
0.0000
  0
VERTEX
  8
0
 10
1677.9057
 20
1196.3500
 30
0.0000
  0
VERTEX
  8
0
 10
1677.6332
 20
1196.7633
 30
0.0000
  0
VERTEX
  8
0
 10
1677.2632
 20
1197.1369
 30
0.0000
  0
VERTEX
  8
0
 10
1676.8072
 20
1197.4593
 30
0.0000
  0
VERTEX
  8
0
 10
1676.2227
 20
1197.7434
 30
0.0000
  0
VERTEX
  8
0
 10
1675.5722
 20
1197.9434
 30
0.0000
  0
VERTEX
  8
0
 10
1674.8798
 20
1198.0519
 30
0.0000
  0
VERTEX
  8
0
 10
1674.1708
 20
1198.0651
 30
0.0000
  0
VERTEX
  8
0
 10
1673.4712
 20
1197.9823
 30
0.0000
  0
VERTEX
  8
0
 10
1672.8069
 20
1197.8066
 30
0.0000
  0
VERTEX
  8
0
 10
1672.2021
 20
1197.5446
 30
0.0000
  0
VERTEX
  8
0
 10
1671.8126
 20
1197.3051
 30
0.0000
  0
SEQEND
  0
POLYLINE
  6
continous
  8
BYBLOCK
 70
0
 66
1
  0
VERTEX
  8
0
 10
1677.0452
 20
1193.6051
 30
0.0000
  0
VERTEX
  8
0
 10
1677.4597
 20
1193.9545
 30
0.0000
  0
VERTEX
  8
0
 10
1677.7822
 20
1194.3494
 30
0.0000
  0
VERTEX
  8
0
 10
1678.0028
 20
1194.7780
 30
0.0000
  0
VERTEX
  8
0
 10
1678.1148
 20
1195.2271
 30
0.0000
  0
VERTEX
  8
0
 10
1678.1289
 20
1195.4551
 30
0.0000
  0
SEQEND
  0
POLYLINE
  6
continous
  8
BYBLOCK
 70
0
 66
1
  0
VERTEX
  8
0
 10
1628.3025
 20
1165.4551
 30
0.0000
  0
VERTEX
  8
0
 10
1628.3587
 20
1165.0008
 30
0.0000
  0
VERTEX
  8
0
 10
1628.5256
 20
1164.5603
 30
0.0000
  0
VERTEX
  8
0
 10
1628.7982
 20
1164.1470
 30
0.0000
  0
VERTEX
  8
0
 10
1629.1681
 20
1163.7734
 30
0.0000
  0
VERTEX
  8
0
 10
1629.6241
 20
1163.4509
 30
0.0000
  0
VERTEX
  8
0
 10
1630.2087
 20
1163.1669
 30
0.0000
  0
VERTEX
  8
0
 10
1630.8591
 20
1162.9669
 30
0.0000
  0
VERTEX
  8
0
 10
1631.5515
 20
1162.8583
 30
0.0000
  0
VERTEX
  8
0
 10
1632.2605
 20
1162.8452
 30
0.0000
  0
VERTEX
  8
0
 10
1632.9601
 20
1162.9280
 30
0.0000
  0
VERTEX
  8
0
 10
1633.6244
 20
1163.1036
 30
0.0000
  0
VERTEX
  8
0
 10
1634.2292
 20
1163.3657
 30
0.0000
  0
VERTEX
  8
0
 10
1634.6187
 20
1163.6051
 30
0.0000
  0
SEQEND
  0
POLYLINE
  6
continous
  8
BYBLOCK
 70
0
 66
1
  0
VERTEX
  8
0
 10
1629.3862
 20
1167.3051
 30
0.0000
  0
VERTEX
  8
0
 10
1628.9716
 20
1166.9558
 30
0.0000
  0
VERTEX
  8
0
 10
1628.6491
 20
1166.5608
 30
0.0000
  0
VERTEX
  8
0
 10
1628.4285
 20
1166.1323
 30
0.0000
  0
VERTEX
  8
0
 10
1628.3165
 20
1165.6832
 30
0.0000
  0
VERTEX
  8
0
 10
1628.3025
 20
1165.4551
 30
0.0000
  0
SEQEND
  0
POLYLINE
  6
continous
  8
BYBLOCK
 70
0
 66
1
  0
VERTEX
  8
0
 10
1635.7025
 20
1165.4551
 30
0.0000
  0
VERTEX
  8
0
 10
1635.6462
 20
1165.9094
 30
0.0000
  0
VERTEX
  8
0
 10
1635.4793
 20
1166.3500
 30
0.0000
  0
VERTEX
  8
0
 10
1635.2067
 20
1166.7633
 30
0.0000
  0
VERTEX
  8
0
 10
1634.8368
 20
1167.1369
 30
0.0000
  0
VERTEX
  8
0
 10
1634.3808
 20
1167.4593
 30
0.0000
  0
VERTEX
  8
0
 10
1633.7962
 20
1167.7434
 30
0.0000
  0
VERTEX
  8
0
 10
1633.1458
 20
1167.9434
 30
0.0000
  0
VERTEX
  8
0
 10
1632.4534
 20
1168.0519
 30
0.0000
  0
VERTEX
  8
0
 10
1631.7444
 20
1168.0651
 30
0.0000
  0
VERTEX
  8
0
 10
1631.0448
 20
1167.9823
 30
0.0000
  0
VERTEX
  8
0
 10
1630.3805
 20
1167.8066
 30
0.0000
  0
VERTEX
  8
0
 10
1629.7757
 20
1167.5446
 30
0.0000
  0
VERTEX
  8
0
 10
1629.3862
 20
1167.3051
 30
0.0000
  0
SEQEND
  0
POLYLINE
  6
continous
  8
BYBLOCK
 70
0
 66
1
  0
VERTEX
  8
0
 10
1634.6187
 20
1163.6051
 30
0.0000
  0
VERTEX
  8
0
 10
1635.0333
 20
1163.9545
 30
0.0000
  0
VERTEX
  8
0
 10
1635.3558
 20
1164.3494
 30
0.0000
  0
VERTEX
  8
0
 10
1635.5764
 20
1164.7780
 30
0.0000
  0
VERTEX
  8
0
 10
1635.6884
 20
1165.2271
 30
0.0000
  0
VERTEX
  8
0
 10
1635.7025
 20
1165.4551
 30
0.0000
  0
SEQEND
  0
POLYLINE
  6
continous
  8
BYBLOCK
 70
0
 66
1
  0
VERTEX
  8
0
 10
1585.8760
 20
1135.4551
 30
0.0000
  0
VERTEX
  8
0
 10
1585.9323
 20
1135.0008
 30
0.0000
  0
VERTEX
  8
0
 10
1586.0992
 20
1134.5603
 30
0.0000
  0
VERTEX
  8
0
 10
1586.3718
 20
1134.1470
 30
0.0000
  0
VERTEX
  8
0
 10
1586.7417
 20
1133.7734
 30
0.0000
  0
VERTEX
  8
0
 10
1587.1977
 20
1133.4509
 30
0.0000
  0
VERTEX
  8
0
 10
1587.7822
 20
1133.1669
 30
0.0000
  0
VERTEX
  8
0
 10
1588.4327
 20
1132.9669
 30
0.0000
  0
VERTEX
  8
0
 10
1589.1251
 20
1132.8583
 30
0.0000
  0
VERTEX
  8
0
 10
1589.8341
 20
1132.8452
 30
0.0000
  0
VERTEX
  8
0
 10
1590.5337
 20
1132.9280
 30
0.0000
  0
VERTEX
  8
0
 10
1591.1980
 20
1133.1036
 30
0.0000
  0
VERTEX
  8
0
 10
1591.8028
 20
1133.3657
 30
0.0000
  0
VERTEX
  8
0
 10
1592.1923
 20
1133.6051
 30
0.0000
  0
SEQEND
  0
POLYLINE
  6
continous
  8
BYBLOCK
 70
0
 66
1
  0
VERTEX
  8
0
 10
1586.9597
 20
1137.3051
 30
0.0000
  0
VERTEX
  8
0
 10
1586.5452
 20
1136.9558
 30
0.0000
  0
VERTEX
  8
0
 10
1586.2227
 20
1136.5608
 30
0.0000
  0
VERTEX
  8
0
 10
1586.0021
 20
1136.1323
 30
0.0000
  0
VERTEX
  8
0
 10
1585.8901
 20
1135.6832
 30
0.0000
  0
VERTEX
  8
0
 10
1585.8760
 20
1135.4551
 30
0.0000
  0
SEQEND
  0
POLYLINE
  6
continous
  8
BYBLOCK
 70
0
 66
1
  0
VERTEX
  8
0
 10
1593.2760
 20
1135.4551
 30
0.0000
  0
VERTEX
  8
0
 10
1593.2198
 20
1135.9094
 30
0.0000
  0
VERTEX
  8
0
 10
1593.0529
 20
1136.3500
 30
0.0000
  0
VERTEX
  8
0
 10
1592.7803
 20
1136.7633
 30
0.0000
  0
VERTEX
  8
0
 10
1592.4104
 20
1137.1369
 30
0.0000
  0
VERTEX
  8
0
 10
1591.9544
 20
1137.4593
 30
0.0000
  0
VERTEX
  8
0
 10
1591.3698
 20
1137.7434
 30
0.0000
  0
VERTEX
  8
0
 10
1590.7194
 20
1137.9434
 30
0.0000
  0
VERTEX
  8
0
 10
1590.0270
 20
1138.0519
 30
0.0000
  0
VERTEX
  8
0
 10
1589.3179
 20
1138.0651
 30
0.0000
  0
VERTEX
  8
0
 10
1588.6184
 20
1137.9823
 30
0.0000
  0
VERTEX
  8
0
 10
1587.9541
 20
1137.8066
 30
0.0000
  0
VERTEX
  8
0
 10
1587.3493
 20
1137.5446
 30
0.0000
  0
VERTEX
  8
0
 10
1586.9597
 20
1137.3051
 30
0.0000
  0
SEQEND
  0
POLYLINE
  6
continous
  8
BYBLOCK
 70
0
 66
1
  0
VERTEX
  8
0
 10
1592.1923
 20
1133.6051
 30
0.0000
  0
VERTEX
  8
0
 10
1592.6069
 20
1133.9545
 30
0.0000
  0
VERTEX
  8
0
 10
1592.9294
 20
1134.3494
 30
0.0000
  0
VERTEX
  8
0
 10
1593.1500
 20
1134.7780
 30
0.0000
  0
VERTEX
  8
0
 10
1593.2620
 20
1135.2271
 30
0.0000
  0
VERTEX
  8
0
 10
1593.2760
 20
1135.4551
 30
0.0000
  0
SEQEND
  0
POLYLINE
  6
continous
  8
BYBLOCK
 70
0
 66
1
  0
VERTEX
  8
0
 10
1543.4496
 20
1105.4551
 30
0.0000
  0
VERTEX
  8
0
 10
1543.5058
 20
1105.0008
 30
0.0000
  0
VERTEX
  8
0
 10
1543.6728
 20
1104.5603
 30
0.0000
  0
VERTEX
  8
0
 10
1543.9453
 20
1104.1470
 30
0.0000
  0
VERTEX
  8
0
 10
1544.3153
 20
1103.7734
 30
0.0000
  0
VERTEX
  8
0
 10
1544.7713
 20
1103.4509
 30
0.0000
  0
VERTEX
  8
0
 10
1545.3558
 20
1103.1669
 30
0.0000
  0
VERTEX
  8
0
 10
1546.0063
 20
1102.9669
 30
0.0000
  0
VERTEX
  8
0
 10
1546.6987
 20
1102.8583
 30
0.0000
  0
VERTEX
  8
0
 10
1547.4077
 20
1102.8452
 30
0.0000
  0
VERTEX
  8
0
 10
1548.1073
 20
1102.9280
 30
0.0000
  0
VERTEX
  8
0
 10
1548.7716
 20
1103.1036
 30
0.0000
  0
VERTEX
  8
0
 10
1549.3764
 20
1103.3657
 30
0.0000
  0
VERTEX
  8
0
 10
1549.7659
 20
1103.6051
 30
0.0000
  0
SEQEND
  0
POLYLINE
  6
continous
  8
BYBLOCK
 70
0
 66
1
  0
VERTEX
  8
0
 10
1544.5333
 20
1107.3051
 30
0.0000
  0
VERTEX
  8
0
 10
1544.1188
 20
1106.9558
 30
0.0000
  0
VERTEX
  8
0
 10
1543.7963
 20
1106.5608
 30
0.0000
  0
VERTEX
  8
0
 10
1543.5757
 20
1106.1323
 30
0.0000
  0
VERTEX
  8
0
 10
1543.4637
 20
1105.6832
 30
0.0000
  0
VERTEX
  8
0
 10
1543.4496
 20
1105.4551
 30
0.0000
  0
SEQEND
  0
POLYLINE
  6
continous
  8
BYBLOCK
 70
0
 66
1
  0
VERTEX
  8
0
 10
1550.8496
 20
1105.4551
 30
0.0000
  0
VERTEX
  8
0
 10
1550.7934
 20
1105.9094
 30
0.0000
  0
VERTEX
  8
0
 10
1550.6265
 20
1106.3500
 30
0.0000
  0
VERTEX
  8
0
 10
1550.3539
 20
1106.7633
 30
0.0000
  0
VERTEX
  8
0
 10
1549.9840
 20
1107.1369
 30
0.0000
  0
VERTEX
  8
0
 10
1549.5280
 20
1107.4593
 30
0.0000
  0
VERTEX
  8
0
 10
1548.9434
 20
1107.7434
 30
0.0000
  0
VERTEX
  8
0
 10
1548.2930
 20
1107.9434
 30
0.0000
  0
VERTEX
  8
0
 10
1547.6006
 20
1108.0519
 30
0.0000
  0
VERTEX
  8
0
 10
1546.8915
 20
1108.0651
 30
0.0000
  0
VERTEX
  8
0
 10
1546.1920
 20
1107.9823
 30
0.0000
  0
VERTEX
  8
0
 10
1545.5277
 20
1107.8066
 30
0.0000
  0
VERTEX
  8
0
 10
1544.9229
 20
1107.5446
 30
0.0000
  0
VERTEX
  8
0
 10
1544.5333
 20
1107.3051
 30
0.0000
  0
SEQEND
  0
POLYLINE
  6
continous
  8
BYBLOCK
 70
0
 66
1
  0
VERTEX
  8
0
 10
1549.7659
 20
1103.6051
 30
0.0000
  0
VERTEX
  8
0
 10
1550.1805
 20
1103.9545
 30
0.0000
  0
VERTEX
  8
0
 10
1550.5030
 20
1104.3494
 30
0.0000
  0
VERTEX
  8
0
 10
1550.7236
 20
1104.7780
 30
0.0000
  0
VERTEX
  8
0
 10
1550.8356
 20
1105.2271
 30
0.0000
  0
VERTEX
  8
0
 10
1550.8496
 20
1105.4551
 30
0.0000
  0
SEQEND
  0
POLYLINE
  6
continous
  8
BYBLOCK
 70
0
 66
1
  0
VERTEX
  8
0
 10
1501.0232
 20
1075.4551
 30
0.0000
  0
VERTEX
  8
0
 10
1501.0794
 20
1075.0008
 30
0.0000
  0
VERTEX
  8
0
 10
1501.2464
 20
1074.5603
 30
0.0000
  0
VERTEX
  8
0
 10
1501.5189
 20
1074.1470
 30
0.0000
  0
VERTEX
  8
0
 10
1501.8889
 20
1073.7734
 30
0.0000
  0
VERTEX
  8
0
 10
1502.3449
 20
1073.4509
 30
0.0000
  0
VERTEX
  8
0
 10
1502.9294
 20
1073.1669
 30
0.0000
  0
VERTEX
  8
0
 10
1503.5799
 20
1072.9669
 30
0.0000
  0
VERTEX
  8
0
 10
1504.2723
 20
1072.8583
 30
0.0000
  0
VERTEX
  8
0
 10
1504.9813
 20
1072.8452
 30
0.0000
  0
VERTEX
  8
0
 10
1505.6809
 20
1072.9280
 30
0.0000
  0
VERTEX
  8
0
 10
1506.3452
 20
1073.1036
 30
0.0000
  0
VERTEX
  8
0
 10
1506.9499
 20
1073.3657
 30
0.0000
  0
VERTEX
  8
0
 10
1507.3395
 20
1073.6051
 30
0.0000
  0
SEQEND
  0
POLYLINE
  6
continous
  8
BYBLOCK
 70
0
 66
1
  0
VERTEX
  8
0
 10
1502.1069
 20
1077.3051
 30
0.0000
  0
VERTEX
  8
0
 10
1501.6924
 20
1076.9558
 30
0.0000
  0
VERTEX
  8
0
 10
1501.3699
 20
1076.5608
 30
0.0000
  0
VERTEX
  8
0
 10
1501.1493
 20
1076.1323
 30
0.0000
  0
VERTEX
  8
0
 10
1501.0373
 20
1075.6832
 30
0.0000
  0
VERTEX
  8
0
 10
1501.0232
 20
1075.4551
 30
0.0000
  0
SEQEND
  0
POLYLINE
  6
continous
  8
BYBLOCK
 70
0
 66
1
  0
VERTEX
  8
0
 10
1508.4232
 20
1075.4551
 30
0.0000
  0
VERTEX
  8
0
 10
1508.3670
 20
1075.9094
 30
0.0000
  0
VERTEX
  8
0
 10
1508.2001
 20
1076.3500
 30
0.0000
  0
VERTEX
  8
0
 10
1507.9275
 20
1076.7633
 30
0.0000
  0
VERTEX
  8
0
 10
1507.5576
 20
1077.1369
 30
0.0000
  0
VERTEX
  8
0
 10
1507.1015
 20
1077.4593
 30
0.0000
  0
VERTEX
  8
0
 10
1506.5170
 20
1077.7434
 30
0.0000
  0
VERTEX
  8
0
 10
1505.8666
 20
1077.9434
 30
0.0000
  0
VERTEX
  8
0
 10
1505.1741
 20
1078.0519
 30
0.0000
  0
VERTEX
  8
0
 10
1504.4651
 20
1078.0651
 30
0.0000
  0
VERTEX
  8
0
 10
1503.7656
 20
1077.9823
 30
0.0000
  0
VERTEX
  8
0
 10
1503.1013
 20
1077.8066
 30
0.0000
  0
VERTEX
  8
0
 10
1502.4965
 20
1077.5446
 30
0.0000
  0
VERTEX
  8
0
 10
1502.1069
 20
1077.3051
 30
0.0000
  0
SEQEND
  0
POLYLINE
  6
continous
  8
BYBLOCK
 70
0
 66
1
  0
VERTEX
  8
0
 10
1507.3395
 20
1073.6051
 30
0.0000
  0
VERTEX
  8
0
 10
1507.7541
 20
1073.9545
 30
0.0000
  0
VERTEX
  8
0
 10
1508.0766
 20
1074.3494
 30
0.0000
  0
VERTEX
  8
0
 10
1508.2972
 20
1074.7780
 30
0.0000
  0
VERTEX
  8
0
 10
1508.4092
 20
1075.2271
 30
0.0000
  0
VERTEX
  8
0
 10
1508.4232
 20
1075.4551
 30
0.0000
  0
SEQEND
  0
POLYLINE
  6
continous
  8
BYBLOCK
 70
0
 66
1
  0
VERTEX
  8
0
 10
1458.5968
 20
1045.4551
 30
0.0000
  0
VERTEX
  8
0
 10
1458.6530
 20
1045.0008
 30
0.0000
  0
VERTEX
  8
0
 10
1458.8200
 20
1044.5603
 30
0.0000
  0
VERTEX
  8
0
 10
1459.0925
 20
1044.1470
 30
0.0000
  0
VERTEX
  8
0
 10
1459.4625
 20
1043.7734
 30
0.0000
  0
VERTEX
  8
0
 10
1459.9185
 20
1043.4509
 30
0.0000
  0
VERTEX
  8
0
 10
1460.5030
 20
1043.1669
 30
0.0000
  0
VERTEX
  8
0
 10
1461.1535
 20
1042.9669
 30
0.0000
  0
VERTEX
  8
0
 10
1461.8459
 20
1042.8583
 30
0.0000
  0
VERTEX
  8
0
 10
1462.5549
 20
1042.8452
 30
0.0000
  0
VERTEX
  8
0
 10
1463.2545
 20
1042.9280
 30
0.0000
  0
VERTEX
  8
0
 10
1463.9188
 20
1043.1036
 30
0.0000
  0
VERTEX
  8
0
 10
1464.5235
 20
1043.3657
 30
0.0000
  0
VERTEX
  8
0
 10
1464.9131
 20
1043.6051
 30
0.0000
  0
SEQEND
  0
POLYLINE
  6
continous
  8
BYBLOCK
 70
0
 66
1
  0
VERTEX
  8
0
 10
1459.6805
 20
1047.3051
 30
0.0000
  0
VERTEX
  8
0
 10
1459.2660
 20
1046.9558
 30
0.0000
  0
VERTEX
  8
0
 10
1458.9435
 20
1046.5608
 30
0.0000
  0
VERTEX
  8
0
 10
1458.7229
 20
1046.1323
 30
0.0000
  0
VERTEX
  8
0
 10
1458.6109
 20
1045.6832
 30
0.0000
  0
VERTEX
  8
0
 10
1458.5968
 20
1045.4551
 30
0.0000
  0
SEQEND
  0
POLYLINE
  6
continous
  8
BYBLOCK
 70
0
 66
1
  0
VERTEX
  8
0
 10
1465.9968
 20
1045.4551
 30
0.0000
  0
VERTEX
  8
0
 10
1465.9406
 20
1045.9094
 30
0.0000
  0
VERTEX
  8
0
 10
1465.7737
 20
1046.3500
 30
0.0000
  0
VERTEX
  8
0
 10
1465.5011
 20
1046.7633
 30
0.0000
  0
VERTEX
  8
0
 10
1465.1312
 20
1047.1369
 30
0.0000
  0
VERTEX
  8
0
 10
1464.6751
 20
1047.4593
 30
0.0000
  0
VERTEX
  8
0
 10
1464.0906
 20
1047.7434
 30
0.0000
  0
VERTEX
  8
0
 10
1463.4402
 20
1047.9434
 30
0.0000
  0
VERTEX
  8
0
 10
1462.7477
 20
1048.0519
 30
0.0000
  0
VERTEX
  8
0
 10
1462.0387
 20
1048.0651
 30
0.0000
  0
VERTEX
  8
0
 10
1461.3392
 20
1047.9823
 30
0.0000
  0
VERTEX
  8
0
 10
1460.6749
 20
1047.8066
 30
0.0000
  0
VERTEX
  8
0
 10
1460.0701
 20
1047.5446
 30
0.0000
  0
VERTEX
  8
0
 10
1459.6805
 20
1047.3051
 30
0.0000
  0
SEQEND
  0
POLYLINE
  6
continous
  8
BYBLOCK
 70
0
 66
1
  0
VERTEX
  8
0
 10
1464.9131
 20
1043.6051
 30
0.0000
  0
VERTEX
  8
0
 10
1465.3277
 20
1043.9545
 30
0.0000
  0
VERTEX
  8
0
 10
1465.6502
 20
1044.3494
 30
0.0000
  0
VERTEX
  8
0
 10
1465.8707
 20
1044.7780
 30
0.0000
  0
VERTEX
  8
0
 10
1465.9827
 20
1045.2271
 30
0.0000
  0
VERTEX
  8
0
 10
1465.9968
 20
1045.4551
 30
0.0000
  0
SEQEND
  0
POLYLINE
  6
continous
  8
BYBLOCK
 70
0
 66
1
  0
VERTEX
  8
0
 10
1416.1704
 20
1015.4551
 30
0.0000
  0
VERTEX
  8
0
 10
1416.2266
 20
1015.0008
 30
0.0000
  0
VERTEX
  8
0
 10
1416.3936
 20
1014.5603
 30
0.0000
  0
VERTEX
  8
0
 10
1416.6661
 20
1014.1470
 30
0.0000
  0
VERTEX
  8
0
 10
1417.0361
 20
1013.7734
 30
0.0000
  0
VERTEX
  8
0
 10
1417.4921
 20
1013.4509
 30
0.0000
  0
VERTEX
  8
0
 10
1418.0766
 20
1013.1669
 30
0.0000
  0
VERTEX
  8
0
 10
1418.7271
 20
1012.9669
 30
0.0000
  0
VERTEX
  8
0
 10
1419.4195
 20
1012.8583
 30
0.0000
  0
VERTEX
  8
0
 10
1420.1285
 20
1012.8452
 30
0.0000
  0
VERTEX
  8
0
 10
1420.8280
 20
1012.9280
 30
0.0000
  0
VERTEX
  8
0
 10
1421.4924
 20
1013.1036
 30
0.0000
  0
VERTEX
  8
0
 10
1422.0971
 20
1013.3657
 30
0.0000
  0
VERTEX
  8
0
 10
1422.4867
 20
1013.6051
 30
0.0000
  0
SEQEND
  0
POLYLINE
  6
continous
  8
BYBLOCK
 70
0
 66
1
  0
VERTEX
  8
0
 10
1417.2541
 20
1017.3051
 30
0.0000
  0
VERTEX
  8
0
 10
1416.8396
 20
1016.9558
 30
0.0000
  0
VERTEX
  8
0
 10
1416.5171
 20
1016.5608
 30
0.0000
  0
VERTEX
  8
0
 10
1416.2965
 20
1016.1323
 30
0.0000
  0
VERTEX
  8
0
 10
1416.1845
 20
1015.6832
 30
0.0000
  0
VERTEX
  8
0
 10
1416.1704
 20
1015.4551
 30
0.0000
  0
SEQEND
  0
POLYLINE
  6
continous
  8
BYBLOCK
 70
0
 66
1
  0
VERTEX
  8
0
 10
1423.5704
 20
1015.4551
 30
0.0000
  0
VERTEX
  8
0
 10
1423.5142
 20
1015.9094
 30
0.0000
  0
VERTEX
  8
0
 10
1423.3473
 20
1016.3500
 30
0.0000
  0
VERTEX
  8
0
 10
1423.0747
 20
1016.7633
 30
0.0000
  0
VERTEX
  8
0
 10
1422.7048
 20
1017.1369
 30
0.0000
  0
VERTEX
  8
0
 10
1422.2487
 20
1017.4593
 30
0.0000
  0
VERTEX
  8
0
 10
1421.6642
 20
1017.7434
 30
0.0000
  0
VERTEX
  8
0
 10
1421.0138
 20
1017.9434
 30
0.0000
  0
VERTEX
  8
0
 10
1420.3213
 20
1018.0519
 30
0.0000
  0
VERTEX
  8
0
 10
1419.6123
 20
1018.0651
 30
0.0000
  0
VERTEX
  8
0
 10
1418.9128
 20
1017.9823
 30
0.0000
  0
VERTEX
  8
0
 10
1418.2484
 20
1017.8066
 30
0.0000
  0
VERTEX
  8
0
 10
1417.6437
 20
1017.5446
 30
0.0000
  0
VERTEX
  8
0
 10
1417.2541
 20
1017.3051
 30
0.0000
  0
SEQEND
  0
POLYLINE
  6
continous
  8
BYBLOCK
 70
0
 66
1
  0
VERTEX
  8
0
 10
1422.4867
 20
1013.6051
 30
0.0000
  0
VERTEX
  8
0
 10
1422.9013
 20
1013.9545
 30
0.0000
  0
VERTEX
  8
0
 10
1423.2238
 20
1014.3494
 30
0.0000
  0
VERTEX
  8
0
 10
1423.4443
 20
1014.7780
 30
0.0000
  0
VERTEX
  8
0
 10
1423.5563
 20
1015.2271
 30
0.0000
  0
VERTEX
  8
0
 10
1423.5704
 20
1015.4551
 30
0.0000
  0
SEQEND
  0
POLYLINE
  6
continous
  8
BYBLOCK
 70
0
 66
1
  0
VERTEX
  8
0
 10
1373.7440
 20
985.4551
 30
0.0000
  0
VERTEX
  8
0
 10
1373.8002
 20
985.0008
 30
0.0000
  0
VERTEX
  8
0
 10
1373.9671
 20
984.5603
 30
0.0000
  0
VERTEX
  8
0
 10
1374.2397
 20
984.1470
 30
0.0000
  0
VERTEX
  8
0
 10
1374.6096
 20
983.7734
 30
0.0000
  0
VERTEX
  8
0
 10
1375.0657
 20
983.4509
 30
0.0000
  0
VERTEX
  8
0
 10
1375.6502
 20
983.1669
 30
0.0000
  0
VERTEX
  8
0
 10
1376.3006
 20
982.9669
 30
0.0000
  0
VERTEX
  8
0
 10
1376.9931
 20
982.8583
 30
0.0000
  0
VERTEX
  8
0
 10
1377.7021
 20
982.8452
 30
0.0000
  0
VERTEX
  8
0
 10
1378.4016
 20
982.9280
 30
0.0000
  0
VERTEX
  8
0
 10
1379.0660
 20
983.1036
 30
0.0000
  0
VERTEX
  8
0
 10
1379.6707
 20
983.3657
 30
0.0000
  0
VERTEX
  8
0
 10
1380.0603
 20
983.6051
 30
0.0000
  0
SEQEND
  0
POLYLINE
  6
continous
  8
BYBLOCK
 70
0
 66
1
  0
VERTEX
  8
0
 10
1374.8277
 20
987.3051
 30
0.0000
  0
VERTEX
  8
0
 10
1374.4131
 20
986.9558
 30
0.0000
  0
VERTEX
  8
0
 10
1374.0907
 20
986.5608
 30
0.0000
  0
VERTEX
  8
0
 10
1373.8701
 20
986.1323
 30
0.0000
  0
VERTEX
  8
0
 10
1373.7581
 20
985.6832
 30
0.0000
  0
VERTEX
  8
0
 10
1373.7440
 20
985.4551
 30
0.0000
  0
SEQEND
  0
POLYLINE
  6
continous
  8
BYBLOCK
 70
0
 66
1
  0
VERTEX
  8
0
 10
1381.1440
 20
985.4551
 30
0.0000
  0
VERTEX
  8
0
 10
1381.0878
 20
985.9094
 30
0.0000
  0
VERTEX
  8
0
 10
1380.9209
 20
986.3500
 30
0.0000
  0
VERTEX
  8
0
 10
1380.6483
 20
986.7633
 30
0.0000
  0
VERTEX
  8
0
 10
1380.2784
 20
987.1369
 30
0.0000
  0
VERTEX
  8
0
 10
1379.8223
 20
987.4593
 30
0.0000
  0
VERTEX
  8
0
 10
1379.2378
 20
987.7434
 30
0.0000
  0
VERTEX
  8
0
 10
1378.5874
 20
987.9434
 30
0.0000
  0
VERTEX
  8
0
 10
1377.8949
 20
988.0519
 30
0.0000
  0
VERTEX
  8
0
 10
1377.1859
 20
988.0651
 30
0.0000
  0
VERTEX
  8
0
 10
1376.4864
 20
987.9823
 30
0.0000
  0
VERTEX
  8
0
 10
1375.8220
 20
987.8066
 30
0.0000
  0
VERTEX
  8
0
 10
1375.2173
 20
987.5446
 30
0.0000
  0
VERTEX
  8
0
 10
1374.8277
 20
987.3051
 30
0.0000
  0
SEQEND
  0
POLYLINE
  6
continous
  8
BYBLOCK
 70
0
 66
1
  0
VERTEX
  8
0
 10
1380.0603
 20
983.6051
 30
0.0000
  0
VERTEX
  8
0
 10
1380.4749
 20
983.9545
 30
0.0000
  0
VERTEX
  8
0
 10
1380.7973
 20
984.3494
 30
0.0000
  0
VERTEX
  8
0
 10
1381.0179
 20
984.7780
 30
0.0000
  0
VERTEX
  8
0
 10
1381.1299
 20
985.2271
 30
0.0000
  0
VERTEX
  8
0
 10
1381.1440
 20
985.4551
 30
0.0000
  0
SEQEND
  0
POLYLINE
  6
continous
  8
BYBLOCK
 70
0
 66
1
  0
VERTEX
  8
0
 10
1331.3176
 20
955.4551
 30
0.0000
  0
VERTEX
  8
0
 10
1331.3738
 20
955.0008
 30
0.0000
  0
VERTEX
  8
0
 10
1331.5407
 20
954.5603
 30
0.0000
  0
VERTEX
  8
0
 10
1331.8133
 20
954.1470
 30
0.0000
  0
VERTEX
  8
0
 10
1332.1832
 20
953.7734
 30
0.0000
  0
VERTEX
  8
0
 10
1332.6393
 20
953.4509
 30
0.0000
  0
VERTEX
  8
0
 10
1333.2238
 20
953.1669
 30
0.0000
  0
VERTEX
  8
0
 10
1333.8742
 20
952.9669
 30
0.0000
  0
VERTEX
  8
0
 10
1334.5667
 20
952.8583
 30
0.0000
  0
VERTEX
  8
0
 10
1335.2757
 20
952.8452
 30
0.0000
  0
VERTEX
  8
0
 10
1335.9752
 20
952.9280
 30
0.0000
  0
VERTEX
  8
0
 10
1336.6396
 20
953.1036
 30
0.0000
  0
VERTEX
  8
0
 10
1337.2443
 20
953.3657
 30
0.0000
  0
VERTEX
  8
0
 10
1337.6339
 20
953.6051
 30
0.0000
  0
SEQEND
  0
POLYLINE
  6
continous
  8
BYBLOCK
 70
0
 66
1
  0
VERTEX
  8
0
 10
1332.4013
 20
957.3051
 30
0.0000
  0
VERTEX
  8
0
 10
1331.9867
 20
956.9558
 30
0.0000
  0
VERTEX
  8
0
 10
1331.6643
 20
956.5608
 30
0.0000
  0
VERTEX
  8
0
 10
1331.4437
 20
956.1323
 30
0.0000
  0
VERTEX
  8
0
 10
1331.3317
 20
955.6832
 30
0.0000
  0
VERTEX
  8
0
 10
1331.3176
 20
955.4551
 30
0.0000
  0
SEQEND
  0
POLYLINE
  6
continous
  8
BYBLOCK
 70
0
 66
1
  0
VERTEX
  8
0
 10
1338.7176
 20
955.4551
 30
0.0000
  0
VERTEX
  8
0
 10
1338.6614
 20
955.9094
 30
0.0000
  0
VERTEX
  8
0
 10
1338.4945
 20
956.3500
 30
0.0000
  0
VERTEX
  8
0
 10
1338.2219
 20
956.7633
 30
0.0000
  0
VERTEX
  8
0
 10
1337.8520
 20
957.1369
 30
0.0000
  0
VERTEX
  8
0
 10
1337.3959
 20
957.4593
 30
0.0000
  0
VERTEX
  8
0
 10
1336.8114
 20
957.7434
 30
0.0000
  0
VERTEX
  8
0
 10
1336.1610
 20
957.9434
 30
0.0000
  0
VERTEX
  8
0
 10
1335.4685
 20
958.0519
 30
0.0000
  0
VERTEX
  8
0
 10
1334.7595
 20
958.0651
 30
0.0000
  0
VERTEX
  8
0
 10
1334.0600
 20
957.9823
 30
0.0000
  0
VERTEX
  8
0
 10
1333.3956
 20
957.8066
 30
0.0000
  0
VERTEX
  8
0
 10
1332.7909
 20
957.5446
 30
0.0000
  0
VERTEX
  8
0
 10
1332.4013
 20
957.3051
 30
0.0000
  0
SEQEND
  0
POLYLINE
  6
continous
  8
BYBLOCK
 70
0
 66
1
  0
VERTEX
  8
0
 10
1337.6339
 20
953.6051
 30
0.0000
  0
VERTEX
  8
0
 10
1338.0485
 20
953.9545
 30
0.0000
  0
VERTEX
  8
0
 10
1338.3709
 20
954.3494
 30
0.0000
  0
VERTEX
  8
0
 10
1338.5915
 20
954.7780
 30
0.0000
  0
VERTEX
  8
0
 10
1338.7035
 20
955.2271
 30
0.0000
  0
VERTEX
  8
0
 10
1338.7176
 20
955.4551
 30
0.0000
  0
SEQEND
  0
POLYLINE
  6
continous
  8
BYBLOCK
 70
0
 66
1
  0
VERTEX
  8
0
 10
1288.8912
 20
925.4551
 30
0.0000
  0
VERTEX
  8
0
 10
1288.9474
 20
925.0008
 30
0.0000
  0
VERTEX
  8
0
 10
1289.1143
 20
924.5603
 30
0.0000
  0
VERTEX
  8
0
 10
1289.3869
 20
924.1470
 30
0.0000
  0
VERTEX
  8
0
 10
1289.7568
 20
923.7734
 30
0.0000
  0
VERTEX
  8
0
 10
1290.2129
 20
923.4509
 30
0.0000
  0
VERTEX
  8
0
 10
1290.7974
 20
923.1669
 30
0.0000
  0
VERTEX
  8
0
 10
1291.4478
 20
922.9669
 30
0.0000
  0
VERTEX
  8
0
 10
1292.1403
 20
922.8583
 30
0.0000
  0
VERTEX
  8
0
 10
1292.8493
 20
922.8452
 30
0.0000
  0
VERTEX
  8
0
 10
1293.5488
 20
922.9280
 30
0.0000
  0
VERTEX
  8
0
 10
1294.2132
 20
923.1036
 30
0.0000
  0
VERTEX
  8
0
 10
1294.8179
 20
923.3657
 30
0.0000
  0
VERTEX
  8
0
 10
1295.2075
 20
923.6051
 30
0.0000
  0
SEQEND
  0
POLYLINE
  6
continous
  8
BYBLOCK
 70
0
 66
1
  0
VERTEX
  8
0
 10
1289.9749
 20
927.3051
 30
0.0000
  0
VERTEX
  8
0
 10
1289.5603
 20
926.9558
 30
0.0000
  0
VERTEX
  8
0
 10
1289.2379
 20
926.5608
 30
0.0000
  0
VERTEX
  8
0
 10
1289.0173
 20
926.1323
 30
0.0000
  0
VERTEX
  8
0
 10
1288.9053
 20
925.6832
 30
0.0000
  0
VERTEX
  8
0
 10
1288.8912
 20
925.4551
 30
0.0000
  0
SEQEND
  0
POLYLINE
  6
continous
  8
BYBLOCK
 70
0
 66
1
  0
VERTEX
  8
0
 10
1296.2912
 20
925.4551
 30
0.0000
  0
VERTEX
  8
0
 10
1296.2350
 20
925.9094
 30
0.0000
  0
VERTEX
  8
0
 10
1296.0681
 20
926.3500
 30
0.0000
  0
VERTEX
  8
0
 10
1295.7955
 20
926.7633
 30
0.0000
  0
VERTEX
  8
0
 10
1295.4256
 20
927.1369
 30
0.0000
  0
VERTEX
  8
0
 10
1294.9695
 20
927.4593
 30
0.0000
  0
VERTEX
  8
0
 10
1294.3850
 20
927.7434
 30
0.0000
  0
VERTEX
  8
0
 10
1293.7346
 20
927.9434
 30
0.0000
  0
VERTEX
  8
0
 10
1293.0421
 20
928.0519
 30
0.0000
  0
VERTEX
  8
0
 10
1292.3331
 20
928.0651
 30
0.0000
  0
VERTEX
  8
0
 10
1291.6336
 20
927.9823
 30
0.0000
  0
VERTEX
  8
0
 10
1290.9692
 20
927.8066
 30
0.0000
  0
VERTEX
  8
0
 10
1290.3645
 20
927.5446
 30
0.0000
  0
VERTEX
  8
0
 10
1289.9749
 20
927.3051
 30
0.0000
  0
SEQEND
  0
POLYLINE
  6
continous
  8
BYBLOCK
 70
0
 66
1
  0
VERTEX
  8
0
 10
1295.2075
 20
923.6051
 30
0.0000
  0
VERTEX
  8
0
 10
1295.6221
 20
923.9545
 30
0.0000
  0
VERTEX
  8
0
 10
1295.9445
 20
924.3494
 30
0.0000
  0
VERTEX
  8
0
 10
1296.1651
 20
924.7780
 30
0.0000
  0
VERTEX
  8
0
 10
1296.2771
 20
925.2271
 30
0.0000
  0
VERTEX
  8
0
 10
1296.2912
 20
925.4551
 30
0.0000
  0
SEQEND
  0
POLYLINE
  6
continous
  8
BYBLOCK
 70
0
 66
1
  0
VERTEX
  8
0
 10
1246.4648
 20
895.4551
 30
0.0000
  0
VERTEX
  8
0
 10
1246.5210
 20
895.0008
 30
0.0000
  0
VERTEX
  8
0
 10
1246.6879
 20
894.5603
 30
0.0000
  0
VERTEX
  8
0
 10
1246.9605
 20
894.1470
 30
0.0000
  0
VERTEX
  8
0
 10
1247.3304
 20
893.7734
 30
0.0000
  0
VERTEX
  8
0
 10
1247.7865
 20
893.4509
 30
0.0000
  0
VERTEX
  8
0
 10
1248.3710
 20
893.1669
 30
0.0000
  0
VERTEX
  8
0
 10
1249.0214
 20
892.9669
 30
0.0000
  0
VERTEX
  8
0
 10
1249.7139
 20
892.8583
 30
0.0000
  0
VERTEX
  8
0
 10
1250.4229
 20
892.8452
 30
0.0000
  0
VERTEX
  8
0
 10
1251.1224
 20
892.9280
 30
0.0000
  0
VERTEX
  8
0
 10
1251.7868
 20
893.1036
 30
0.0000
  0
VERTEX
  8
0
 10
1252.3915
 20
893.3657
 30
0.0000
  0
VERTEX
  8
0
 10
1252.7811
 20
893.6051
 30
0.0000
  0
SEQEND
  0
POLYLINE
  6
continous
  8
BYBLOCK
 70
0
 66
1
  0
VERTEX
  8
0
 10
1247.5485
 20
897.3051
 30
0.0000
  0
VERTEX
  8
0
 10
1247.1339
 20
896.9558
 30
0.0000
  0
VERTEX
  8
0
 10
1246.8115
 20
896.5608
 30
0.0000
  0
VERTEX
  8
0
 10
1246.5909
 20
896.1323
 30
0.0000
  0
VERTEX
  8
0
 10
1246.4789
 20
895.6832
 30
0.0000
  0
VERTEX
  8
0
 10
1246.4648
 20
895.4551
 30
0.0000
  0
SEQEND
  0
POLYLINE
  6
continous
  8
BYBLOCK
 70
0
 66
1
  0
VERTEX
  8
0
 10
1253.8648
 20
895.4551
 30
0.0000
  0
VERTEX
  8
0
 10
1253.8086
 20
895.9094
 30
0.0000
  0
VERTEX
  8
0
 10
1253.6417
 20
896.3500
 30
0.0000
  0
VERTEX
  8
0
 10
1253.3691
 20
896.7633
 30
0.0000
  0
VERTEX
  8
0
 10
1252.9992
 20
897.1369
 30
0.0000
  0
VERTEX
  8
0
 10
1252.5431
 20
897.4593
 30
0.0000
  0
VERTEX
  8
0
 10
1251.9586
 20
897.7434
 30
0.0000
  0
VERTEX
  8
0
 10
1251.3082
 20
897.9434
 30
0.0000
  0
VERTEX
  8
0
 10
1250.6157
 20
898.0519
 30
0.0000
  0
VERTEX
  8
0
 10
1249.9067
 20
898.0651
 30
0.0000
  0
VERTEX
  8
0
 10
1249.2072
 20
897.9823
 30
0.0000
  0
VERTEX
  8
0
 10
1248.5428
 20
897.8066
 30
0.0000
  0
VERTEX
  8
0
 10
1247.9381
 20
897.5446
 30
0.0000
  0
VERTEX
  8
0
 10
1247.5485
 20
897.3051
 30
0.0000
  0
SEQEND
  0
POLYLINE
  6
continous
  8
BYBLOCK
 70
0
 66
1
  0
VERTEX
  8
0
 10
1252.7811
 20
893.6051
 30
0.0000
  0
VERTEX
  8
0
 10
1253.1957
 20
893.9545
 30
0.0000
  0
VERTEX
  8
0
 10
1253.5181
 20
894.3494
 30
0.0000
  0
VERTEX
  8
0
 10
1253.7387
 20
894.7780
 30
0.0000
  0
VERTEX
  8
0
 10
1253.8507
 20
895.2271
 30
0.0000
  0
VERTEX
  8
0
 10
1253.8648
 20
895.4551
 30
0.0000
  0
SEQEND
  0
POLYLINE
  6
continous
  8
BYBLOCK
 70
0
 66
1
  0
VERTEX
  8
0
 10
1204.0384
 20
865.4551
 30
0.0000
  0
VERTEX
  8
0
 10
1204.0946
 20
865.0008
 30
0.0000
  0
VERTEX
  8
0
 10
1204.2615
 20
864.5603
 30
0.0000
  0
VERTEX
  8
0
 10
1204.5341
 20
864.1470
 30
0.0000
  0
VERTEX
  8
0
 10
1204.9040
 20
863.7734
 30
0.0000
  0
VERTEX
  8
0
 10
1205.3601
 20
863.4509
 30
0.0000
  0
VERTEX
  8
0
 10
1205.9446
 20
863.1669
 30
0.0000
  0
VERTEX
  8
0
 10
1206.5950
 20
862.9669
 30
0.0000
  0
VERTEX
  8
0
 10
1207.2875
 20
862.8583
 30
0.0000
  0
VERTEX
  8
0
 10
1207.9965
 20
862.8452
 30
0.0000
  0
VERTEX
  8
0
 10
1208.6960
 20
862.9280
 30
0.0000
  0
VERTEX
  8
0
 10
1209.3604
 20
863.1036
 30
0.0000
  0
VERTEX
  8
0
 10
1209.9651
 20
863.3657
 30
0.0000
  0
VERTEX
  8
0
 10
1210.3547
 20
863.6051
 30
0.0000
  0
SEQEND
  0
POLYLINE
  6
continous
  8
BYBLOCK
 70
0
 66
1
  0
VERTEX
  8
0
 10
1205.1221
 20
867.3051
 30
0.0000
  0
VERTEX
  8
0
 10
1204.7075
 20
866.9558
 30
0.0000
  0
VERTEX
  8
0
 10
1204.3850
 20
866.5608
 30
0.0000
  0
VERTEX
  8
0
 10
1204.1645
 20
866.1323
 30
0.0000
  0
VERTEX
  8
0
 10
1204.0525
 20
865.6832
 30
0.0000
  0
VERTEX
  8
0
 10
1204.0384
 20
865.4551
 30
0.0000
  0
SEQEND
  0
POLYLINE
  6
continous
  8
BYBLOCK
 70
0
 66
1
  0
VERTEX
  8
0
 10
1211.4384
 20
865.4551
 30
0.0000
  0
VERTEX
  8
0
 10
1211.3822
 20
865.9094
 30
0.0000
  0
VERTEX
  8
0
 10
1211.2152
 20
866.3500
 30
0.0000
  0
VERTEX
  8
0
 10
1210.9427
 20
866.7633
 30
0.0000
  0
VERTEX
  8
0
 10
1210.5727
 20
867.1369
 30
0.0000
  0
VERTEX
  8
0
 10
1210.1167
 20
867.4593
 30
0.0000
  0
VERTEX
  8
0
 10
1209.5322
 20
867.7434
 30
0.0000
  0
VERTEX
  8
0
 10
1208.8817
 20
867.9434
 30
0.0000
  0
VERTEX
  8
0
 10
1208.1893
 20
868.0519
 30
0.0000
  0
VERTEX
  8
0
 10
1207.4803
 20
868.0651
 30
0.0000
  0
VERTEX
  8
0
 10
1206.7808
 20
867.9823
 30
0.0000
  0
VERTEX
  8
0
 10
1206.1164
 20
867.8066
 30
0.0000
  0
VERTEX
  8
0
 10
1205.5117
 20
867.5446
 30
0.0000
  0
VERTEX
  8
0
 10
1205.1221
 20
867.3051
 30
0.0000
  0
SEQEND
  0
POLYLINE
  6
continous
  8
BYBLOCK
 70
0
 66
1
  0
VERTEX
  8
0
 10
1210.3547
 20
863.6051
 30
0.0000
  0
VERTEX
  8
0
 10
1210.7692
 20
863.9545
 30
0.0000
  0
VERTEX
  8
0
 10
1211.0917
 20
864.3494
 30
0.0000
  0
VERTEX
  8
0
 10
1211.3123
 20
864.7780
 30
0.0000
  0
VERTEX
  8
0
 10
1211.4243
 20
865.2271
 30
0.0000
  0
VERTEX
  8
0
 10
1211.4384
 20
865.4551
 30
0.0000
  0
SEQEND
  0
POLYLINE
  6
continous
  8
BYBLOCK
 70
0
 66
1
  0
VERTEX
  8
0
 10
1161.6120
 20
835.4551
 30
0.0000
  0
VERTEX
  8
0
 10
1161.6682
 20
835.0008
 30
0.0000
  0
VERTEX
  8
0
 10
1161.8351
 20
834.5603
 30
0.0000
  0
VERTEX
  8
0
 10
1162.1077
 20
834.1470
 30
0.0000
  0
VERTEX
  8
0
 10
1162.4776
 20
833.7734
 30
0.0000
  0
VERTEX
  8
0
 10
1162.9337
 20
833.4509
 30
0.0000
  0
VERTEX
  8
0
 10
1163.5182
 20
833.1669
 30
0.0000
  0
VERTEX
  8
0
 10
1164.1686
 20
832.9669
 30
0.0000
  0
VERTEX
  8
0
 10
1164.8611
 20
832.8583
 30
0.0000
  0
VERTEX
  8
0
 10
1165.5701
 20
832.8452
 30
0.0000
  0
VERTEX
  8
0
 10
1166.2696
 20
832.9280
 30
0.0000
  0
VERTEX
  8
0
 10
1166.9339
 20
833.1036
 30
0.0000
  0
VERTEX
  8
0
 10
1167.5387
 20
833.3657
 30
0.0000
  0
VERTEX
  8
0
 10
1167.9283
 20
833.6051
 30
0.0000
  0
SEQEND
  0
POLYLINE
  6
continous
  8
BYBLOCK
 70
0
 66
1
  0
VERTEX
  8
0
 10
1162.6957
 20
837.3051
 30
0.0000
  0
VERTEX
  8
0
 10
1162.2811
 20
836.9558
 30
0.0000
  0
VERTEX
  8
0
 10
1161.9586
 20
836.5608
 30
0.0000
  0
VERTEX
  8
0
 10
1161.7380
 20
836.1323
 30
0.0000
  0
VERTEX
  8
0
 10
1161.6261
 20
835.6832
 30
0.0000
  0
VERTEX
  8
0
 10
1161.6120
 20
835.4551
 30
0.0000
  0
SEQEND
  0
POLYLINE
  6
continous
  8
BYBLOCK
 70
0
 66
1
  0
VERTEX
  8
0
 10
1169.0120
 20
835.4551
 30
0.0000
  0
VERTEX
  8
0
 10
1168.9558
 20
835.9094
 30
0.0000
  0
VERTEX
  8
0
 10
1168.7888
 20
836.3500
 30
0.0000
  0
VERTEX
  8
0
 10
1168.5163
 20
836.7633
 30
0.0000
  0
VERTEX
  8
0
 10
1168.1463
 20
837.1369
 30
0.0000
  0
VERTEX
  8
0
 10
1167.6903
 20
837.4593
 30
0.0000
  0
VERTEX
  8
0
 10
1167.1058
 20
837.7434
 30
0.0000
  0
VERTEX
  8
0
 10
1166.4553
 20
837.9434
 30
0.0000
  0
VERTEX
  8
0
 10
1165.7629
 20
838.0519
 30
0.0000
  0
VERTEX
  8
0
 10
1165.0539
 20
838.0651
 30
0.0000
  0
VERTEX
  8
0
 10
1164.3543
 20
837.9823
 30
0.0000
  0
VERTEX
  8
0
 10
1163.6900
 20
837.8066
 30
0.0000
  0
VERTEX
  8
0
 10
1163.0853
 20
837.5446
 30
0.0000
  0
VERTEX
  8
0
 10
1162.6957
 20
837.3051
 30
0.0000
  0
SEQEND
  0
POLYLINE
  6
continous
  8
BYBLOCK
 70
0
 66
1
  0
VERTEX
  8
0
 10
1167.9283
 20
833.6051
 30
0.0000
  0
VERTEX
  8
0
 10
1168.3428
 20
833.9545
 30
0.0000
  0
VERTEX
  8
0
 10
1168.6653
 20
834.3494
 30
0.0000
  0
VERTEX
  8
0
 10
1168.8859
 20
834.7780
 30
0.0000
  0
VERTEX
  8
0
 10
1168.9979
 20
835.2271
 30
0.0000
  0
VERTEX
  8
0
 10
1169.0120
 20
835.4551
 30
0.0000
  0
SEQEND
  0
POLYLINE
  6
continous
  8
BYBLOCK
 70
0
 66
1
  0
VERTEX
  8
0
 10
1119.1856
 20
805.4551
 30
0.0000
  0
VERTEX
  8
0
 10
1119.2418
 20
805.0008
 30
0.0000
  0
VERTEX
  8
0
 10
1119.4087
 20
804.5603
 30
0.0000
  0
VERTEX
  8
0
 10
1119.6813
 20
804.1470
 30
0.0000
  0
VERTEX
  8
0
 10
1120.0512
 20
803.7734
 30
0.0000
  0
VERTEX
  8
0
 10
1120.5073
 20
803.4509
 30
0.0000
  0
VERTEX
  8
0
 10
1121.0918
 20
803.1669
 30
0.0000
  0
VERTEX
  8
0
 10
1121.7422
 20
802.9669
 30
0.0000
  0
VERTEX
  8
0
 10
1122.4347
 20
802.8583
 30
0.0000
  0
VERTEX
  8
0
 10
1123.1437
 20
802.8452
 30
0.0000
  0
VERTEX
  8
0
 10
1123.8432
 20
802.9280
 30
0.0000
  0
VERTEX
  8
0
 10
1124.5075
 20
803.1036
 30
0.0000
  0
VERTEX
  8
0
 10
1125.1123
 20
803.3657
 30
0.0000
  0
VERTEX
  8
0
 10
1125.5019
 20
803.6051
 30
0.0000
  0
SEQEND
  0
POLYLINE
  6
continous
  8
BYBLOCK
 70
0
 66
1
  0
VERTEX
  8
0
 10
1120.2693
 20
807.3051
 30
0.0000
  0
VERTEX
  8
0
 10
1119.8547
 20
806.9558
 30
0.0000
  0
VERTEX
  8
0
 10
1119.5322
 20
806.5608
 30
0.0000
  0
VERTEX
  8
0
 10
1119.3116
 20
806.1323
 30
0.0000
  0
VERTEX
  8
0
 10
1119.1996
 20
805.6832
 30
0.0000
  0
VERTEX
  8
0
 10
1119.1856
 20
805.4551
 30
0.0000
  0
SEQEND
  0
POLYLINE
  6
continous
  8
BYBLOCK
 70
0
 66
1
  0
VERTEX
  8
0
 10
1126.5856
 20
805.4551
 30
0.0000
  0
VERTEX
  8
0
 10
1126.5294
 20
805.9094
 30
0.0000
  0
VERTEX
  8
0
 10
1126.3624
 20
806.3500
 30
0.0000
  0
VERTEX
  8
0
 10
1126.0899
 20
806.7633
 30
0.0000
  0
VERTEX
  8
0
 10
1125.7199
 20
807.1369
 30
0.0000
  0
VERTEX
  8
0
 10
1125.2639
 20
807.4593
 30
0.0000
  0
VERTEX
  8
0
 10
1124.6794
 20
807.7434
 30
0.0000
  0
VERTEX
  8
0
 10
1124.0289
 20
807.9434
 30
0.0000
  0
VERTEX
  8
0
 10
1123.3365
 20
808.0519
 30
0.0000
  0
VERTEX
  8
0
 10
1122.6275
 20
808.0651
 30
0.0000
  0
VERTEX
  8
0
 10
1121.9279
 20
807.9823
 30
0.0000
  0
VERTEX
  8
0
 10
1121.2636
 20
807.8066
 30
0.0000
  0
VERTEX
  8
0
 10
1120.6589
 20
807.5446
 30
0.0000
  0
VERTEX
  8
0
 10
1120.2693
 20
807.3051
 30
0.0000
  0
SEQEND
  0
POLYLINE
  6
continous
  8
BYBLOCK
 70
0
 66
1
  0
VERTEX
  8
0
 10
1125.5019
 20
803.6051
 30
0.0000
  0
VERTEX
  8
0
 10
1125.9164
 20
803.9545
 30
0.0000
  0
VERTEX
  8
0
 10
1126.2389
 20
804.3494
 30
0.0000
  0
VERTEX
  8
0
 10
1126.4595
 20
804.7780
 30
0.0000
  0
VERTEX
  8
0
 10
1126.5715
 20
805.2271
 30
0.0000
  0
VERTEX
  8
0
 10
1126.5856
 20
805.4551
 30
0.0000
  0
SEQEND
  0
POLYLINE
  6
continous
  8
BYBLOCK
 70
0
 66
1
  0
VERTEX
  8
0
 10
1076.7592
 20
775.4551
 30
0.0000
  0
VERTEX
  8
0
 10
1076.8154
 20
775.0008
 30
0.0000
  0
VERTEX
  8
0
 10
1076.9823
 20
774.5603
 30
0.0000
  0
VERTEX
  8
0
 10
1077.2549
 20
774.1470
 30
0.0000
  0
VERTEX
  8
0
 10
1077.6248
 20
773.7734
 30
0.0000
  0
VERTEX
  8
0
 10
1078.0808
 20
773.4509
 30
0.0000
  0
VERTEX
  8
0
 10
1078.6654
 20
773.1669
 30
0.0000
  0
VERTEX
  8
0
 10
1079.3158
 20
772.9669
 30
0.0000
  0
VERTEX
  8
0
 10
1080.0082
 20
772.8583
 30
0.0000
  0
VERTEX
  8
0
 10
1080.7173
 20
772.8452
 30
0.0000
  0
VERTEX
  8
0
 10
1081.4168
 20
772.9280
 30
0.0000
  0
VERTEX
  8
0
 10
1082.0811
 20
773.1036
 30
0.0000
  0
VERTEX
  8
0
 10
1082.6859
 20
773.3657
 30
0.0000
  0
VERTEX
  8
0
 10
1083.0755
 20
773.6051
 30
0.0000
  0
SEQEND
  0
POLYLINE
  6
continous
  8
BYBLOCK
 70
0
 66
1
  0
VERTEX
  8
0
 10
1077.8429
 20
777.3051
 30
0.0000
  0
VERTEX
  8
0
 10
1077.4283
 20
776.9558
 30
0.0000
  0
VERTEX
  8
0
 10
1077.1058
 20
776.5608
 30
0.0000
  0
VERTEX
  8
0
 10
1076.8852
 20
776.1323
 30
0.0000
  0
VERTEX
  8
0
 10
1076.7732
 20
775.6832
 30
0.0000
  0
VERTEX
  8
0
 10
1076.7592
 20
775.4551
 30
0.0000
  0
SEQEND
  0
POLYLINE
  6
continous
  8
BYBLOCK
 70
0
 66
1
  0
VERTEX
  8
0
 10
1084.1592
 20
775.4551
 30
0.0000
  0
VERTEX
  8
0
 10
1084.1030
 20
775.9094
 30
0.0000
  0
VERTEX
  8
0
 10
1083.9360
 20
776.3500
 30
0.0000
  0
VERTEX
  8
0
 10
1083.6635
 20
776.7633
 30
0.0000
  0
VERTEX
  8
0
 10
1083.2935
 20
777.1369
 30
0.0000
  0
VERTEX
  8
0
 10
1082.8375
 20
777.4593
 30
0.0000
  0
VERTEX
  8
0
 10
1082.2530
 20
777.7434
 30
0.0000
  0
VERTEX
  8
0
 10
1081.6025
 20
777.9434
 30
0.0000
  0
VERTEX
  8
0
 10
1080.9101
 20
778.0519
 30
0.0000
  0
VERTEX
  8
0
 10
1080.2011
 20
778.0651
 30
0.0000
  0
VERTEX
  8
0
 10
1079.5015
 20
777.9823
 30
0.0000
  0
VERTEX
  8
0
 10
1078.8372
 20
777.8066
 30
0.0000
  0
VERTEX
  8
0
 10
1078.2324
 20
777.5446
 30
0.0000
  0
VERTEX
  8
0
 10
1077.8429
 20
777.3051
 30
0.0000
  0
SEQEND
  0
POLYLINE
  6
continous
  8
BYBLOCK
 70
0
 66
1
  0
VERTEX
  8
0
 10
1083.0755
 20
773.6051
 30
0.0000
  0
VERTEX
  8
0
 10
1083.4900
 20
773.9545
 30
0.0000
  0
VERTEX
  8
0
 10
1083.8125
 20
774.3494
 30
0.0000
  0
VERTEX
  8
0
 10
1084.0331
 20
774.7780
 30
0.0000
  0
VERTEX
  8
0
 10
1084.1451
 20
775.2271
 30
0.0000
  0
VERTEX
  8
0
 10
1084.1592
 20
775.4551
 30
0.0000
  0
SEQEND
  0
POLYLINE
  6
continous
  8
BYBLOCK
 70
0
 66
1
  0
VERTEX
  8
0
 10
1034.3328
 20
745.4551
 30
0.0000
  0
VERTEX
  8
0
 10
1034.3890
 20
745.0008
 30
0.0000
  0
VERTEX
  8
0
 10
1034.5559
 20
744.5603
 30
0.0000
  0
VERTEX
  8
0
 10
1034.8285
 20
744.1470
 30
0.0000
  0
VERTEX
  8
0
 10
1035.1984
 20
743.7734
 30
0.0000
  0
VERTEX
  8
0
 10
1035.6544
 20
743.4509
 30
0.0000
  0
VERTEX
  8
0
 10
1036.2390
 20
743.1669
 30
0.0000
  0
VERTEX
  8
0
 10
1036.8894
 20
742.9669
 30
0.0000
  0
VERTEX
  8
0
 10
1037.5818
 20
742.8583
 30
0.0000
  0
VERTEX
  8
0
 10
1038.2909
 20
742.8452
 30
0.0000
  0
VERTEX
  8
0
 10
1038.9904
 20
742.9280
 30
0.0000
  0
VERTEX
  8
0
 10
1039.6547
 20
743.1036
 30
0.0000
  0
VERTEX
  8
0
 10
1040.2595
 20
743.3657
 30
0.0000
  0
VERTEX
  8
0
 10
1040.6490
 20
743.6051
 30
0.0000
  0
SEQEND
  0
POLYLINE
  6
continous
  8
BYBLOCK
 70
0
 66
1
  0
VERTEX
  8
0
 10
1035.4165
 20
747.3051
 30
0.0000
  0
VERTEX
  8
0
 10
1035.0019
 20
746.9558
 30
0.0000
  0
VERTEX
  8
0
 10
1034.6794
 20
746.5608
 30
0.0000
  0
VERTEX
  8
0
 10
1034.4588
 20
746.1323
 30
0.0000
  0
VERTEX
  8
0
 10
1034.3468
 20
745.6832
 30
0.0000
  0
VERTEX
  8
0
 10
1034.3328
 20
745.4551
 30
0.0000
  0
SEQEND
  0
POLYLINE
  6
continous
  8
BYBLOCK
 70
0
 66
1
  0
VERTEX
  8
0
 10
1041.7328
 20
745.4551
 30
0.0000
  0
VERTEX
  8
0
 10
1041.6765
 20
745.9094
 30
0.0000
  0
VERTEX
  8
0
 10
1041.5096
 20
746.3500
 30
0.0000
  0
VERTEX
  8
0
 10
1041.2370
 20
746.7633
 30
0.0000
  0
VERTEX
  8
0
 10
1040.8671
 20
747.1369
 30
0.0000
  0
VERTEX
  8
0
 10
1040.4111
 20
747.4593
 30
0.0000
  0
VERTEX
  8
0
 10
1039.8266
 20
747.7434
 30
0.0000
  0
VERTEX
  8
0
 10
1039.1761
 20
747.9434
 30
0.0000
  0
VERTEX
  8
0
 10
1038.4837
 20
748.0519
 30
0.0000
  0
VERTEX
  8
0
 10
1037.7747
 20
748.0651
 30
0.0000
  0
VERTEX
  8
0
 10
1037.0751
 20
747.9823
 30
0.0000
  0
VERTEX
  8
0
 10
1036.4108
 20
747.8066
 30
0.0000
  0
VERTEX
  8
0
 10
1035.8060
 20
747.5446
 30
0.0000
  0
VERTEX
  8
0
 10
1035.4165
 20
747.3051
 30
0.0000
  0
SEQEND
  0
POLYLINE
  6
continous
  8
BYBLOCK
 70
0
 66
1
  0
VERTEX
  8
0
 10
1040.6490
 20
743.6051
 30
0.0000
  0
VERTEX
  8
0
 10
1041.0636
 20
743.9545
 30
0.0000
  0
VERTEX
  8
0
 10
1041.3861
 20
744.3494
 30
0.0000
  0
VERTEX
  8
0
 10
1041.6067
 20
744.7780
 30
0.0000
  0
VERTEX
  8
0
 10
1041.7187
 20
745.2271
 30
0.0000
  0
VERTEX
  8
0
 10
1041.7328
 20
745.4551
 30
0.0000
  0
SEQEND
  0
POLYLINE
  6
continous
  8
BYBLOCK
 70
0
 66
1
  0
VERTEX
  8
0
 10
991.9063
 20
715.4551
 30
0.0000
  0
VERTEX
  8
0
 10
991.9626
 20
715.0008
 30
0.0000
  0
VERTEX
  8
0
 10
992.1295
 20
714.5603
 30
0.0000
  0
VERTEX
  8
0
 10
992.4021
 20
714.1470
 30
0.0000
  0
VERTEX
  8
0
 10
992.7720
 20
713.7734
 30
0.0000
  0
VERTEX
  8
0
 10
993.2280
 20
713.4509
 30
0.0000
  0
VERTEX
  8
0
 10
993.8126
 20
713.1669
 30
0.0000
  0
VERTEX
  8
0
 10
994.4630
 20
712.9669
 30
0.0000
  0
VERTEX
  8
0
 10
995.1554
 20
712.8583
 30
0.0000
  0
VERTEX
  8
0
 10
995.8644
 20
712.8452
 30
0.0000
  0
VERTEX
  8
0
 10
996.5640
 20
712.9280
 30
0.0000
  0
VERTEX
  8
0
 10
997.2283
 20
713.1036
 30
0.0000
  0
VERTEX
  8
0
 10
997.8331
 20
713.3657
 30
0.0000
  0
VERTEX
  8
0
 10
998.2226
 20
713.6051
 30
0.0000
  0
SEQEND
  0
POLYLINE
  6
continous
  8
BYBLOCK
 70
0
 66
1
  0
VERTEX
  8
0
 10
992.9901
 20
717.3051
 30
0.0000
  0
VERTEX
  8
0
 10
992.5755
 20
716.9558
 30
0.0000
  0
VERTEX
  8
0
 10
992.2530
 20
716.5608
 30
0.0000
  0
VERTEX
  8
0
 10
992.0324
 20
716.1323
 30
0.0000
  0
VERTEX
  8
0
 10
991.9204
 20
715.6832
 30
0.0000
  0
VERTEX
  8
0
 10
991.9063
 20
715.4551
 30
0.0000
  0
SEQEND
  0
POLYLINE
  6
continous
  8
BYBLOCK
 70
0
 66
1
  0
VERTEX
  8
0
 10
999.3063
 20
715.4551
 30
0.0000
  0
VERTEX
  8
0
 10
999.2501
 20
715.9094
 30
0.0000
  0
VERTEX
  8
0
 10
999.0832
 20
716.3500
 30
0.0000
  0
VERTEX
  8
0
 10
998.8106
 20
716.7633
 30
0.0000
  0
VERTEX
  8
0
 10
998.4407
 20
717.1369
 30
0.0000
  0
VERTEX
  8
0
 10
997.9847
 20
717.4593
 30
0.0000
  0
VERTEX
  8
0
 10
997.4001
 20
717.7434
 30
0.0000
  0
VERTEX
  8
0
 10
996.7497
 20
717.9434
 30
0.0000
  0
VERTEX
  8
0
 10
996.0573
 20
718.0519
 30
0.0000
  0
VERTEX
  8
0
 10
995.3482
 20
718.0651
 30
0.0000
  0
VERTEX
  8
0
 10
994.6487
 20
717.9823
 30
0.0000
  0
VERTEX
  8
0
 10
993.9844
 20
717.8066
 30
0.0000
  0
VERTEX
  8
0
 10
993.3796
 20
717.5446
 30
0.0000
  0
VERTEX
  8
0
 10
992.9901
 20
717.3051
 30
0.0000
  0
SEQEND
  0
POLYLINE
  6
continous
  8
BYBLOCK
 70
0
 66
1
  0
VERTEX
  8
0
 10
998.2226
 20
713.6051
 30
0.0000
  0
VERTEX
  8
0
 10
998.6372
 20
713.9545
 30
0.0000
  0
VERTEX
  8
0
 10
998.9597
 20
714.3494
 30
0.0000
  0
VERTEX
  8
0
 10
999.1803
 20
714.7780
 30
0.0000
  0
VERTEX
  8
0
 10
999.2923
 20
715.2271
 30
0.0000
  0
VERTEX
  8
0
 10
999.3063
 20
715.4551
 30
0.0000
  0
SEQEND
  0
POLYLINE
  6
continous
  8
BYBLOCK
 70
0
 66
1
  0
VERTEX
  8
0
 10
949.4799
 20
685.4551
 30
0.0000
  0
VERTEX
  8
0
 10
949.5362
 20
685.0008
 30
0.0000
  0
VERTEX
  8
0
 10
949.7031
 20
684.5603
 30
0.0000
  0
VERTEX
  8
0
 10
949.9756
 20
684.1470
 30
0.0000
  0
VERTEX
  8
0
 10
950.3456
 20
683.7734
 30
0.0000
  0
VERTEX
  8
0
 10
950.8016
 20
683.4509
 30
0.0000
  0
VERTEX
  8
0
 10
951.3861
 20
683.1669
 30
0.0000
  0
VERTEX
  8
0
 10
952.0366
 20
682.9669
 30
0.0000
  0
VERTEX
  8
0
 10
952.7290
 20
682.8583
 30
0.0000
  0
VERTEX
  8
0
 10
953.4380
 20
682.8452
 30
0.0000
  0
VERTEX
  8
0
 10
954.1376
 20
682.9280
 30
0.0000
  0
VERTEX
  8
0
 10
954.8019
 20
683.1036
 30
0.0000
  0
VERTEX
  8
0
 10
955.4067
 20
683.3657
 30
0.0000
  0
VERTEX
  8
0
 10
955.7962
 20
683.6051
 30
0.0000
  0
SEQEND
  0
POLYLINE
  6
continous
  8
BYBLOCK
 70
0
 66
1
  0
VERTEX
  8
0
 10
950.5636
 20
687.3051
 30
0.0000
  0
VERTEX
  8
0
 10
950.1491
 20
686.9558
 30
0.0000
  0
VERTEX
  8
0
 10
949.8266
 20
686.5608
 30
0.0000
  0
VERTEX
  8
0
 10
949.6060
 20
686.1323
 30
0.0000
  0
VERTEX
  8
0
 10
949.4940
 20
685.6832
 30
0.0000
  0
VERTEX
  8
0
 10
949.4799
 20
685.4551
 30
0.0000
  0
SEQEND
  0
POLYLINE
  6
continous
  8
BYBLOCK
 70
0
 66
1
  0
VERTEX
  8
0
 10
956.8799
 20
685.4551
 30
0.0000
  0
VERTEX
  8
0
 10
956.8237
 20
685.9094
 30
0.0000
  0
VERTEX
  8
0
 10
956.6568
 20
686.3500
 30
0.0000
  0
VERTEX
  8
0
 10
956.3842
 20
686.7633
 30
0.0000
  0
VERTEX
  8
0
 10
956.0143
 20
687.1369
 30
0.0000
  0
VERTEX
  8
0
 10
955.5583
 20
687.4593
 30
0.0000
  0
VERTEX
  8
0
 10
954.9737
 20
687.7434
 30
0.0000
  0
VERTEX
  8
0
 10
954.3233
 20
687.9434
 30
0.0000
  0
VERTEX
  8
0
 10
953.6309
 20
688.0519
 30
0.0000
  0
VERTEX
  8
0
 10
952.9218
 20
688.0651
 30
0.0000
  0
VERTEX
  8
0
 10
952.2223
 20
687.9823
 30
0.0000
  0
VERTEX
  8
0
 10
951.5580
 20
687.8066
 30
0.0000
  0
VERTEX
  8
0
 10
950.9532
 20
687.5446
 30
0.0000
  0
VERTEX
  8
0
 10
950.5636
 20
687.3051
 30
0.0000
  0
SEQEND
  0
POLYLINE
  6
continous
  8
BYBLOCK
 70
0
 66
1
  0
VERTEX
  8
0
 10
955.7962
 20
683.6051
 30
0.0000
  0
VERTEX
  8
0
 10
956.2108
 20
683.9545
 30
0.0000
  0
VERTEX
  8
0
 10
956.5333
 20
684.3494
 30
0.0000
  0
VERTEX
  8
0
 10
956.7539
 20
684.7780
 30
0.0000
  0
VERTEX
  8
0
 10
956.8659
 20
685.2271
 30
0.0000
  0
VERTEX
  8
0
 10
956.8799
 20
685.4551
 30
0.0000
  0
SEQEND
  0
POLYLINE
  6
continous
  8
BYBLOCK
 70
0
 66
1
  0
VERTEX
  8
0
 10
907.0535
 20
655.4551
 30
0.0000
  0
VERTEX
  8
0
 10
907.1097
 20
655.0008
 30
0.0000
  0
VERTEX
  8
0
 10
907.2767
 20
654.5603
 30
0.0000
  0
VERTEX
  8
0
 10
907.5492
 20
654.1470
 30
0.0000
  0
VERTEX
  8
0
 10
907.9192
 20
653.7734
 30
0.0000
  0
VERTEX
  8
0
 10
908.3752
 20
653.4509
 30
0.0000
  0
VERTEX
  8
0
 10
908.9597
 20
653.1669
 30
0.0000
  0
VERTEX
  8
0
 10
909.6102
 20
652.9669
 30
0.0000
  0
VERTEX
  8
0
 10
910.3026
 20
652.8583
 30
0.0000
  0
VERTEX
  8
0
 10
911.0116
 20
652.8452
 30
0.0000
  0
VERTEX
  8
0
 10
911.7112
 20
652.9280
 30
0.0000
  0
VERTEX
  8
0
 10
912.3755
 20
653.1036
 30
0.0000
  0
VERTEX
  8
0
 10
912.9802
 20
653.3657
 30
0.0000
  0
VERTEX
  8
0
 10
913.3698
 20
653.6051
 30
0.0000
  0
SEQEND
  0
POLYLINE
  6
continous
  8
BYBLOCK
 70
0
 66
1
  0
VERTEX
  8
0
 10
908.1372
 20
657.3051
 30
0.0000
  0
VERTEX
  8
0
 10
907.7227
 20
656.9558
 30
0.0000
  0
VERTEX
  8
0
 10
907.4002
 20
656.5608
 30
0.0000
  0
VERTEX
  8
0
 10
907.1796
 20
656.1323
 30
0.0000
  0
VERTEX
  8
0
 10
907.0676
 20
655.6832
 30
0.0000
  0
VERTEX
  8
0
 10
907.0535
 20
655.4551
 30
0.0000
  0
SEQEND
  0
POLYLINE
  6
continous
  8
BYBLOCK
 70
0
 66
1
  0
VERTEX
  8
0
 10
914.4535
 20
655.4551
 30
0.0000
  0
VERTEX
  8
0
 10
914.3973
 20
655.9094
 30
0.0000
  0
VERTEX
  8
0
 10
914.2304
 20
656.3500
 30
0.0000
  0
VERTEX
  8
0
 10
913.9578
 20
656.7633
 30
0.0000
  0
VERTEX
  8
0
 10
913.5879
 20
657.1369
 30
0.0000
  0
VERTEX
  8
0
 10
913.1318
 20
657.4593
 30
0.0000
  0
VERTEX
  8
0
 10
912.5473
 20
657.7434
 30
0.0000
  0
VERTEX
  8
0
 10
911.8969
 20
657.9434
 30
0.0000
  0
VERTEX
  8
0
 10
911.2045
 20
658.0519
 30
0.0000
  0
VERTEX
  8
0
 10
910.4954
 20
658.0651
 30
0.0000
  0
VERTEX
  8
0
 10
909.7959
 20
657.9823
 30
0.0000
  0
VERTEX
  8
0
 10
909.1316
 20
657.8066
 30
0.0000
  0
VERTEX
  8
0
 10
908.5268
 20
657.5446
 30
0.0000
  0
VERTEX
  8
0
 10
908.1372
 20
657.3051
 30
0.0000
  0
SEQEND
  0
POLYLINE
  6
continous
  8
BYBLOCK
 70
0
 66
1
  0
VERTEX
  8
0
 10
913.3698
 20
653.6051
 30
0.0000
  0
VERTEX
  8
0
 10
913.7844
 20
653.9545
 30
0.0000
  0
VERTEX
  8
0
 10
914.1069
 20
654.3494
 30
0.0000
  0
VERTEX
  8
0
 10
914.3275
 20
654.7780
 30
0.0000
  0
VERTEX
  8
0
 10
914.4395
 20
655.2271
 30
0.0000
  0
VERTEX
  8
0
 10
914.4535
 20
655.4551
 30
0.0000
  0
SEQEND
  0
POLYLINE
  6
continous
  8
BYBLOCK
 70
0
 66
1
  0
VERTEX
  8
0
 10
864.6271
 20
625.4551
 30
0.0000
  0
VERTEX
  8
0
 10
864.6833
 20
625.0008
 30
0.0000
  0
VERTEX
  8
0
 10
864.8503
 20
624.5603
 30
0.0000
  0
VERTEX
  8
0
 10
865.1228
 20
624.1470
 30
0.0000
  0
VERTEX
  8
0
 10
865.4928
 20
623.7734
 30
0.0000
  0
VERTEX
  8
0
 10
865.9488
 20
623.4509
 30
0.0000
  0
VERTEX
  8
0
 10
866.5333
 20
623.1669
 30
0.0000
  0
VERTEX
  8
0
 10
867.1838
 20
622.9669
 30
0.0000
  0
VERTEX
  8
0
 10
867.8762
 20
622.8583
 30
0.0000
  0
VERTEX
  8
0
 10
868.5852
 20
622.8452
 30
0.0000
  0
VERTEX
  8
0
 10
869.2848
 20
622.9280
 30
0.0000
  0
VERTEX
  8
0
 10
869.9491
 20
623.1036
 30
0.0000
  0
VERTEX
  8
0
 10
870.5538
 20
623.3657
 30
0.0000
  0
VERTEX
  8
0
 10
870.9434
 20
623.6051
 30
0.0000
  0
SEQEND
  0
POLYLINE
  6
continous
  8
BYBLOCK
 70
0
 66
1
  0
VERTEX
  8
0
 10
865.7108
 20
627.3051
 30
0.0000
  0
VERTEX
  8
0
 10
865.2963
 20
626.9558
 30
0.0000
  0
VERTEX
  8
0
 10
864.9738
 20
626.5608
 30
0.0000
  0
VERTEX
  8
0
 10
864.7532
 20
626.1323
 30
0.0000
  0
VERTEX
  8
0
 10
864.6412
 20
625.6832
 30
0.0000
  0
VERTEX
  8
0
 10
864.6271
 20
625.4551
 30
0.0000
  0
SEQEND
  0
POLYLINE
  6
continous
  8
BYBLOCK
 70
0
 66
1
  0
VERTEX
  8
0
 10
872.0271
 20
625.4551
 30
0.0000
  0
VERTEX
  8
0
 10
871.9709
 20
625.9094
 30
0.0000
  0
VERTEX
  8
0
 10
871.8040
 20
626.3500
 30
0.0000
  0
VERTEX
  8
0
 10
871.5314
 20
626.7633
 30
0.0000
  0
VERTEX
  8
0
 10
871.1615
 20
627.1369
 30
0.0000
  0
VERTEX
  8
0
 10
870.7054
 20
627.4593
 30
0.0000
  0
VERTEX
  8
0
 10
870.1209
 20
627.7434
 30
0.0000
  0
VERTEX
  8
0
 10
869.4705
 20
627.9434
 30
0.0000
  0
VERTEX
  8
0
 10
868.7780
 20
628.0519
 30
0.0000
  0
VERTEX
  8
0
 10
868.0690
 20
628.0651
 30
0.0000
  0
VERTEX
  8
0
 10
867.3695
 20
627.9823
 30
0.0000
  0
VERTEX
  8
0
 10
866.7052
 20
627.8066
 30
0.0000
  0
VERTEX
  8
0
 10
866.1004
 20
627.5446
 30
0.0000
  0
VERTEX
  8
0
 10
865.7108
 20
627.3051
 30
0.0000
  0
SEQEND
  0
POLYLINE
  6
continous
  8
BYBLOCK
 70
0
 66
1
  0
VERTEX
  8
0
 10
870.9434
 20
623.6051
 30
0.0000
  0
VERTEX
  8
0
 10
871.3580
 20
623.9545
 30
0.0000
  0
VERTEX
  8
0
 10
871.6805
 20
624.3494
 30
0.0000
  0
VERTEX
  8
0
 10
871.9011
 20
624.7780
 30
0.0000
  0
VERTEX
  8
0
 10
872.0130
 20
625.2271
 30
0.0000
  0
VERTEX
  8
0
 10
872.0271
 20
625.4551
 30
0.0000
  0
SEQEND
  0
POLYLINE
  6
continous
  8
BYBLOCK
 70
0
 66
1
  0
VERTEX
  8
0
 10
822.2007
 20
595.4551
 30
0.0000
  0
VERTEX
  8
0
 10
822.2569
 20
595.0008
 30
0.0000
  0
VERTEX
  8
0
 10
822.4239
 20
594.5603
 30
0.0000
  0
VERTEX
  8
0
 10
822.6964
 20
594.1470
 30
0.0000
  0
VERTEX
  8
0
 10
823.0664
 20
593.7734
 30
0.0000
  0
VERTEX
  8
0
 10
823.5224
 20
593.4509
 30
0.0000
  0
VERTEX
  8
0
 10
824.1069
 20
593.1669
 30
0.0000
  0
VERTEX
  8
0
 10
824.7574
 20
592.9669
 30
0.0000
  0
VERTEX
  8
0
 10
825.4498
 20
592.8583
 30
0.0000
  0
VERTEX
  8
0
 10
826.1588
 20
592.8452
 30
0.0000
  0
VERTEX
  8
0
 10
826.8584
 20
592.9280
 30
0.0000
  0
VERTEX
  8
0
 10
827.5227
 20
593.1036
 30
0.0000
  0
VERTEX
  8
0
 10
828.1274
 20
593.3657
 30
0.0000
  0
VERTEX
  8
0
 10
828.5170
 20
593.6051
 30
0.0000
  0
SEQEND
  0
POLYLINE
  6
continous
  8
BYBLOCK
 70
0
 66
1
  0
VERTEX
  8
0
 10
823.2844
 20
597.3051
 30
0.0000
  0
VERTEX
  8
0
 10
822.8699
 20
596.9558
 30
0.0000
  0
VERTEX
  8
0
 10
822.5474
 20
596.5608
 30
0.0000
  0
VERTEX
  8
0
 10
822.3268
 20
596.1323
 30
0.0000
  0
VERTEX
  8
0
 10
822.2148
 20
595.6832
 30
0.0000
  0
VERTEX
  8
0
 10
822.2007
 20
595.4551
 30
0.0000
  0
SEQEND
  0
POLYLINE
  6
continous
  8
BYBLOCK
 70
0
 66
1
  0
VERTEX
  8
0
 10
829.6007
 20
595.4551
 30
0.0000
  0
VERTEX
  8
0
 10
829.5445
 20
595.9094
 30
0.0000
  0
VERTEX
  8
0
 10
829.3776
 20
596.3500
 30
0.0000
  0
VERTEX
  8
0
 10
829.1050
 20
596.7633
 30
0.0000
  0
VERTEX
  8
0
 10
828.7351
 20
597.1369
 30
0.0000
  0
VERTEX
  8
0
 10
828.2790
 20
597.4593
 30
0.0000
  0
VERTEX
  8
0
 10
827.6945
 20
597.7434
 30
0.0000
  0
VERTEX
  8
0
 10
827.0441
 20
597.9434
 30
0.0000
  0
VERTEX
  8
0
 10
826.3516
 20
598.0519
 30
0.0000
  0
VERTEX
  8
0
 10
825.6426
 20
598.0651
 30
0.0000
  0
VERTEX
  8
0
 10
824.9431
 20
597.9823
 30
0.0000
  0
VERTEX
  8
0
 10
824.2787
 20
597.8066
 30
0.0000
  0
VERTEX
  8
0
 10
823.6740
 20
597.5446
 30
0.0000
  0
VERTEX
  8
0
 10
823.2844
 20
597.3051
 30
0.0000
  0
SEQEND
  0
POLYLINE
  6
continous
  8
BYBLOCK
 70
0
 66
1
  0
VERTEX
  8
0
 10
828.5170
 20
593.6051
 30
0.0000
  0
VERTEX
  8
0
 10
828.9316
 20
593.9545
 30
0.0000
  0
VERTEX
  8
0
 10
829.2541
 20
594.3494
 30
0.0000
  0
VERTEX
  8
0
 10
829.4746
 20
594.7780
 30
0.0000
  0
VERTEX
  8
0
 10
829.5866
 20
595.2271
 30
0.0000
  0
VERTEX
  8
0
 10
829.6007
 20
595.4551
 30
0.0000
  0
SEQEND
  0
POLYLINE
  6
continous
  8
BYBLOCK
 70
0
 66
1
  0
VERTEX
  8
0
 10
779.7743
 20
565.4551
 30
0.0000
  0
VERTEX
  8
0
 10
779.8305
 20
565.0008
 30
0.0000
  0
VERTEX
  8
0
 10
779.9975
 20
564.5603
 30
0.0000
  0
VERTEX
  8
0
 10
780.2700
 20
564.1470
 30
0.0000
  0
VERTEX
  8
0
 10
780.6399
 20
563.7734
 30
0.0000
  0
VERTEX
  8
0
 10
781.0960
 20
563.4509
 30
0.0000
  0
VERTEX
  8
0
 10
781.6805
 20
563.1669
 30
0.0000
  0
VERTEX
  8
0
 10
782.3310
 20
562.9669
 30
0.0000
  0
VERTEX
  8
0
 10
783.0234
 20
562.8583
 30
0.0000
  0
VERTEX
  8
0
 10
783.7324
 20
562.8452
 30
0.0000
  0
VERTEX
  8
0
 10
784.4319
 20
562.9280
 30
0.0000
  0
VERTEX
  8
0
 10
785.0963
 20
563.1036
 30
0.0000
  0
VERTEX
  8
0
 10
785.7010
 20
563.3657
 30
0.0000
  0
VERTEX
  8
0
 10
786.0906
 20
563.6051
 30
0.0000
  0
SEQEND
  0
POLYLINE
  6
continous
  8
BYBLOCK
 70
0
 66
1
  0
VERTEX
  8
0
 10
780.8580
 20
567.3051
 30
0.0000
  0
VERTEX
  8
0
 10
780.4435
 20
566.9558
 30
0.0000
  0
VERTEX
  8
0
 10
780.1210
 20
566.5608
 30
0.0000
  0
VERTEX
  8
0
 10
779.9004
 20
566.1323
 30
0.0000
  0
VERTEX
  8
0
 10
779.7884
 20
565.6832
 30
0.0000
  0
VERTEX
  8
0
 10
779.7743
 20
565.4551
 30
0.0000
  0
SEQEND
  0
POLYLINE
  6
continous
  8
BYBLOCK
 70
0
 66
1
  0
VERTEX
  8
0
 10
787.1743
 20
565.4551
 30
0.0000
  0
VERTEX
  8
0
 10
787.1181
 20
565.9094
 30
0.0000
  0
VERTEX
  8
0
 10
786.9512
 20
566.3500
 30
0.0000
  0
VERTEX
  8
0
 10
786.6786
 20
566.7633
 30
0.0000
  0
VERTEX
  8
0
 10
786.3087
 20
567.1369
 30
0.0000
  0
VERTEX
  8
0
 10
785.8526
 20
567.4593
 30
0.0000
  0
VERTEX
  8
0
 10
785.2681
 20
567.7434
 30
0.0000
  0
VERTEX
  8
0
 10
784.6177
 20
567.9434
 30
0.0000
  0
VERTEX
  8
0
 10
783.9252
 20
568.0519
 30
0.0000
  0
VERTEX
  8
0
 10
783.2162
 20
568.0651
 30
0.0000
  0
VERTEX
  8
0
 10
782.5167
 20
567.9823
 30
0.0000
  0
VERTEX
  8
0
 10
781.8523
 20
567.8066
 30
0.0000
  0
VERTEX
  8
0
 10
781.2476
 20
567.5446
 30
0.0000
  0
VERTEX
  8
0
 10
780.8580
 20
567.3051
 30
0.0000
  0
SEQEND
  0
POLYLINE
  6
continous
  8
BYBLOCK
 70
0
 66
1
  0
VERTEX
  8
0
 10
786.0906
 20
563.6051
 30
0.0000
  0
VERTEX
  8
0
 10
786.5052
 20
563.9545
 30
0.0000
  0
VERTEX
  8
0
 10
786.8277
 20
564.3494
 30
0.0000
  0
VERTEX
  8
0
 10
787.0482
 20
564.7780
 30
0.0000
  0
VERTEX
  8
0
 10
787.1602
 20
565.2271
 30
0.0000
  0
VERTEX
  8
0
 10
787.1743
 20
565.4551
 30
0.0000
  0
SEQEND
  0
POLYLINE
  6
continous
  8
BYBLOCK
 70
0
 66
1
  0
VERTEX
  8
0
 10
737.3479
 20
535.4551
 30
0.0000
  0
VERTEX
  8
0
 10
737.4041
 20
535.0008
 30
0.0000
  0
VERTEX
  8
0
 10
737.5710
 20
534.5603
 30
0.0000
  0
VERTEX
  8
0
 10
737.8436
 20
534.1470
 30
0.0000
  0
VERTEX
  8
0
 10
738.2135
 20
533.7734
 30
0.0000
  0
VERTEX
  8
0
 10
738.6696
 20
533.4509
 30
0.0000
  0
VERTEX
  8
0
 10
739.2541
 20
533.1669
 30
0.0000
  0
VERTEX
  8
0
 10
739.9045
 20
532.9669
 30
0.0000
  0
VERTEX
  8
0
 10
740.5970
 20
532.8583
 30
0.0000
  0
VERTEX
  8
0
 10
741.3060
 20
532.8452
 30
0.0000
  0
VERTEX
  8
0
 10
742.0055
 20
532.9280
 30
0.0000
  0
VERTEX
  8
0
 10
742.6699
 20
533.1036
 30
0.0000
  0
VERTEX
  8
0
 10
743.2746
 20
533.3657
 30
0.0000
  0
VERTEX
  8
0
 10
743.6642
 20
533.6051
 30
0.0000
  0
SEQEND
  0
POLYLINE
  6
continous
  8
BYBLOCK
 70
0
 66
1
  0
VERTEX
  8
0
 10
738.4316
 20
537.3051
 30
0.0000
  0
VERTEX
  8
0
 10
738.0170
 20
536.9558
 30
0.0000
  0
VERTEX
  8
0
 10
737.6946
 20
536.5608
 30
0.0000
  0
VERTEX
  8
0
 10
737.4740
 20
536.1323
 30
0.0000
  0
VERTEX
  8
0
 10
737.3620
 20
535.6832
 30
0.0000
  0
VERTEX
  8
0
 10
737.3479
 20
535.4551
 30
0.0000
  0
SEQEND
  0
POLYLINE
  6
continous
  8
BYBLOCK
 70
0
 66
1
  0
VERTEX
  8
0
 10
744.7479
 20
535.4551
 30
0.0000
  0
VERTEX
  8
0
 10
744.6917
 20
535.9094
 30
0.0000
  0
VERTEX
  8
0
 10
744.5248
 20
536.3500
 30
0.0000
  0
VERTEX
  8
0
 10
744.2522
 20
536.7633
 30
0.0000
  0
VERTEX
  8
0
 10
743.8823
 20
537.1369
 30
0.0000
  0
VERTEX
  8
0
 10
743.4262
 20
537.4593
 30
0.0000
  0
VERTEX
  8
0
 10
742.8417
 20
537.7434
 30
0.0000
  0
VERTEX
  8
0
 10
742.1913
 20
537.9434
 30
0.0000
  0
VERTEX
  8
0
 10
741.4988
 20
538.0519
 30
0.0000
  0
VERTEX
  8
0
 10
740.7898
 20
538.0651
 30
0.0000
  0
VERTEX
  8
0
 10
740.0903
 20
537.9823
 30
0.0000
  0
VERTEX
  8
0
 10
739.4259
 20
537.8066
 30
0.0000
  0
VERTEX
  8
0
 10
738.8212
 20
537.5446
 30
0.0000
  0
VERTEX
  8
0
 10
738.4316
 20
537.3051
 30
0.0000
  0
SEQEND
  0
POLYLINE
  6
continous
  8
BYBLOCK
 70
0
 66
1
  0
VERTEX
  8
0
 10
743.6642
 20
533.6051
 30
0.0000
  0
VERTEX
  8
0
 10
744.0788
 20
533.9545
 30
0.0000
  0
VERTEX
  8
0
 10
744.4012
 20
534.3494
 30
0.0000
  0
VERTEX
  8
0
 10
744.6218
 20
534.7780
 30
0.0000
  0
VERTEX
  8
0
 10
744.7338
 20
535.2271
 30
0.0000
  0
VERTEX
  8
0
 10
744.7479
 20
535.4551
 30
0.0000
  0
SEQEND
  0
POLYLINE
  6
continous
  8
BYBLOCK
 70
0
 66
1
  0
VERTEX
  8
0
 10
694.9215
 20
505.4551
 30
0.0000
  0
VERTEX
  8
0
 10
694.9777
 20
505.0008
 30
0.0000
  0
VERTEX
  8
0
 10
695.1446
 20
504.5603
 30
0.0000
  0
VERTEX
  8
0
 10
695.4172
 20
504.1470
 30
0.0000
  0
VERTEX
  8
0
 10
695.7871
 20
503.7734
 30
0.0000
  0
VERTEX
  8
0
 10
696.2432
 20
503.4509
 30
0.0000
  0
VERTEX
  8
0
 10
696.8277
 20
503.1669
 30
0.0000
  0
VERTEX
  8
0
 10
697.4781
 20
502.9669
 30
0.0000
  0
VERTEX
  8
0
 10
698.1706
 20
502.8583
 30
0.0000
  0
VERTEX
  8
0
 10
698.8796
 20
502.8452
 30
0.0000
  0
VERTEX
  8
0
 10
699.5791
 20
502.9280
 30
0.0000
  0
VERTEX
  8
0
 10
700.2435
 20
503.1036
 30
0.0000
  0
VERTEX
  8
0
 10
700.8482
 20
503.3657
 30
0.0000
  0
VERTEX
  8
0
 10
701.2378
 20
503.6051
 30
0.0000
  0
SEQEND
  0
POLYLINE
  6
continous
  8
BYBLOCK
 70
0
 66
1
  0
VERTEX
  8
0
 10
696.0052
 20
507.3051
 30
0.0000
  0
VERTEX
  8
0
 10
695.5906
 20
506.9558
 30
0.0000
  0
VERTEX
  8
0
 10
695.2682
 20
506.5608
 30
0.0000
  0
VERTEX
  8
0
 10
695.0476
 20
506.1323
 30
0.0000
  0
VERTEX
  8
0
 10
694.9356
 20
505.6832
 30
0.0000
  0
VERTEX
  8
0
 10
694.9215
 20
505.4551
 30
0.0000
  0
SEQEND
  0
POLYLINE
  6
continous
  8
BYBLOCK
 70
0
 66
1
  0
VERTEX
  8
0
 10
702.3215
 20
505.4551
 30
0.0000
  0
VERTEX
  8
0
 10
702.2653
 20
505.9094
 30
0.0000
  0
VERTEX
  8
0
 10
702.0984
 20
506.3500
 30
0.0000
  0
VERTEX
  8
0
 10
701.8258
 20
506.7633
 30
0.0000
  0
VERTEX
  8
0
 10
701.4559
 20
507.1369
 30
0.0000
  0
VERTEX
  8
0
 10
700.9998
 20
507.4593
 30
0.0000
  0
VERTEX
  8
0
 10
700.4153
 20
507.7434
 30
0.0000
  0
VERTEX
  8
0
 10
699.7649
 20
507.9434
 30
0.0000
  0
VERTEX
  8
0
 10
699.0724
 20
508.0519
 30
0.0000
  0
VERTEX
  8
0
 10
698.3634
 20
508.0651
 30
0.0000
  0
VERTEX
  8
0
 10
697.6639
 20
507.9823
 30
0.0000
  0
VERTEX
  8
0
 10
696.9995
 20
507.8066
 30
0.0000
  0
VERTEX
  8
0
 10
696.3948
 20
507.5446
 30
0.0000
  0
VERTEX
  8
0
 10
696.0052
 20
507.3051
 30
0.0000
  0
SEQEND
  0
POLYLINE
  6
continous
  8
BYBLOCK
 70
0
 66
1
  0
VERTEX
  8
0
 10
701.2378
 20
503.6051
 30
0.0000
  0
VERTEX
  8
0
 10
701.6524
 20
503.9545
 30
0.0000
  0
VERTEX
  8
0
 10
701.9748
 20
504.3494
 30
0.0000
  0
VERTEX
  8
0
 10
702.1954
 20
504.7780
 30
0.0000
  0
VERTEX
  8
0
 10
702.3074
 20
505.2271
 30
0.0000
  0
VERTEX
  8
0
 10
702.3215
 20
505.4551
 30
0.0000
  0
SEQEND
  0
POLYLINE
  6
continous
  8
BYBLOCK
 70
0
 66
1
  0
VERTEX
  8
0
 10
652.4951
 20
475.4551
 30
0.0000
  0
VERTEX
  8
0
 10
652.5513
 20
475.0008
 30
0.0000
  0
VERTEX
  8
0
 10
652.7182
 20
474.5603
 30
0.0000
  0
VERTEX
  8
0
 10
652.9908
 20
474.1470
 30
0.0000
  0
VERTEX
  8
0
 10
653.3607
 20
473.7734
 30
0.0000
  0
VERTEX
  8
0
 10
653.8168
 20
473.4509
 30
0.0000
  0
VERTEX
  8
0
 10
654.4013
 20
473.1669
 30
0.0000
  0
VERTEX
  8
0
 10
655.0517
 20
472.9669
 30
0.0000
  0
VERTEX
  8
0
 10
655.7442
 20
472.8583
 30
0.0000
  0
VERTEX
  8
0
 10
656.4532
 20
472.8452
 30
0.0000
  0
VERTEX
  8
0
 10
657.1527
 20
472.9280
 30
0.0000
  0
VERTEX
  8
0
 10
657.8171
 20
473.1036
 30
0.0000
  0
VERTEX
  8
0
 10
658.4218
 20
473.3657
 30
0.0000
  0
VERTEX
  8
0
 10
658.8114
 20
473.6051
 30
0.0000
  0
SEQEND
  0
POLYLINE
  6
continous
  8
BYBLOCK
 70
0
 66
1
  0
VERTEX
  8
0
 10
653.5788
 20
477.3051
 30
0.0000
  0
VERTEX
  8
0
 10
653.1642
 20
476.9558
 30
0.0000
  0
VERTEX
  8
0
 10
652.8418
 20
476.5608
 30
0.0000
  0
VERTEX
  8
0
 10
652.6212
 20
476.1323
 30
0.0000
  0
VERTEX
  8
0
 10
652.5092
 20
475.6832
 30
0.0000
  0
VERTEX
  8
0
 10
652.4951
 20
475.4551
 30
0.0000
  0
SEQEND
  0
POLYLINE
  6
continous
  8
BYBLOCK
 70
0
 66
1
  0
VERTEX
  8
0
 10
659.8951
 20
475.4551
 30
0.0000
  0
VERTEX
  8
0
 10
659.8389
 20
475.9094
 30
0.0000
  0
VERTEX
  8
0
 10
659.6720
 20
476.3500
 30
0.0000
  0
VERTEX
  8
0
 10
659.3994
 20
476.7633
 30
0.0000
  0
VERTEX
  8
0
 10
659.0295
 20
477.1369
 30
0.0000
  0
VERTEX
  8
0
 10
658.5734
 20
477.4593
 30
0.0000
  0
VERTEX
  8
0
 10
657.9889
 20
477.7434
 30
0.0000
  0
VERTEX
  8
0
 10
657.3385
 20
477.9434
 30
0.0000
  0
VERTEX
  8
0
 10
656.6460
 20
478.0519
 30
0.0000
  0
VERTEX
  8
0
 10
655.9370
 20
478.0651
 30
0.0000
  0
VERTEX
  8
0
 10
655.2375
 20
477.9823
 30
0.0000
  0
VERTEX
  8
0
 10
654.5731
 20
477.8066
 30
0.0000
  0
VERTEX
  8
0
 10
653.9684
 20
477.5446
 30
0.0000
  0
VERTEX
  8
0
 10
653.5788
 20
477.3051
 30
0.0000
  0
SEQEND
  0
POLYLINE
  6
continous
  8
BYBLOCK
 70
0
 66
1
  0
VERTEX
  8
0
 10
658.8114
 20
473.6051
 30
0.0000
  0
VERTEX
  8
0
 10
659.2260
 20
473.9545
 30
0.0000
  0
VERTEX
  8
0
 10
659.5484
 20
474.3494
 30
0.0000
  0
VERTEX
  8
0
 10
659.7690
 20
474.7780
 30
0.0000
  0
VERTEX
  8
0
 10
659.8810
 20
475.2271
 30
0.0000
  0
VERTEX
  8
0
 10
659.8951
 20
475.4551
 30
0.0000
  0
SEQEND
  0
POLYLINE
  6
continous
  8
BYBLOCK
 70
0
 66
1
  0
VERTEX
  8
0
 10
610.0687
 20
445.4551
 30
0.0000
  0
VERTEX
  8
0
 10
610.1249
 20
445.0008
 30
0.0000
  0
VERTEX
  8
0
 10
610.2918
 20
444.5603
 30
0.0000
  0
VERTEX
  8
0
 10
610.5644
 20
444.1470
 30
0.0000
  0
VERTEX
  8
0
 10
610.9343
 20
443.7734
 30
0.0000
  0
VERTEX
  8
0
 10
611.3904
 20
443.4509
 30
0.0000
  0
VERTEX
  8
0
 10
611.9749
 20
443.1669
 30
0.0000
  0
VERTEX
  8
0
 10
612.6253
 20
442.9669
 30
0.0000
  0
VERTEX
  8
0
 10
613.3178
 20
442.8583
 30
0.0000
  0
VERTEX
  8
0
 10
614.0268
 20
442.8452
 30
0.0000
  0
VERTEX
  8
0
 10
614.7263
 20
442.9280
 30
0.0000
  0
VERTEX
  8
0
 10
615.3907
 20
443.1036
 30
0.0000
  0
VERTEX
  8
0
 10
615.9954
 20
443.3657
 30
0.0000
  0
VERTEX
  8
0
 10
616.3850
 20
443.6051
 30
0.0000
  0
SEQEND
  0
POLYLINE
  6
continous
  8
BYBLOCK
 70
0
 66
1
  0
VERTEX
  8
0
 10
611.1524
 20
447.3051
 30
0.0000
  0
VERTEX
  8
0
 10
610.7378
 20
446.9558
 30
0.0000
  0
VERTEX
  8
0
 10
610.4153
 20
446.5608
 30
0.0000
  0
VERTEX
  8
0
 10
610.1948
 20
446.1323
 30
0.0000
  0
VERTEX
  8
0
 10
610.0828
 20
445.6832
 30
0.0000
  0
VERTEX
  8
0
 10
610.0687
 20
445.4551
 30
0.0000
  0
SEQEND
  0
POLYLINE
  6
continous
  8
BYBLOCK
 70
0
 66
1
  0
VERTEX
  8
0
 10
617.4687
 20
445.4551
 30
0.0000
  0
VERTEX
  8
0
 10
617.4125
 20
445.9094
 30
0.0000
  0
VERTEX
  8
0
 10
617.2455
 20
446.3500
 30
0.0000
  0
VERTEX
  8
0
 10
616.9730
 20
446.7633
 30
0.0000
  0
VERTEX
  8
0
 10
616.6031
 20
447.1369
 30
0.0000
  0
VERTEX
  8
0
 10
616.1470
 20
447.4593
 30
0.0000
  0
VERTEX
  8
0
 10
615.5625
 20
447.7434
 30
0.0000
  0
VERTEX
  8
0
 10
614.9120
 20
447.9434
 30
0.0000
  0
VERTEX
  8
0
 10
614.2196
 20
448.0519
 30
0.0000
  0
VERTEX
  8
0
 10
613.5106
 20
448.0651
 30
0.0000
  0
VERTEX
  8
0
 10
612.8111
 20
447.9823
 30
0.0000
  0
VERTEX
  8
0
 10
612.1467
 20
447.8066
 30
0.0000
  0
VERTEX
  8
0
 10
611.5420
 20
447.5446
 30
0.0000
  0
VERTEX
  8
0
 10
611.1524
 20
447.3051
 30
0.0000
  0
SEQEND
  0
POLYLINE
  6
continous
  8
BYBLOCK
 70
0
 66
1
  0
VERTEX
  8
0
 10
616.3850
 20
443.6051
 30
0.0000
  0
VERTEX
  8
0
 10
616.7995
 20
443.9545
 30
0.0000
  0
VERTEX
  8
0
 10
617.1220
 20
444.3494
 30
0.0000
  0
VERTEX
  8
0
 10
617.3426
 20
444.7780
 30
0.0000
  0
VERTEX
  8
0
 10
617.4546
 20
445.2271
 30
0.0000
  0
VERTEX
  8
0
 10
617.4687
 20
445.4551
 30
0.0000
  0
SEQEND
  0
POLYLINE
  6
continous
  8
BYBLOCK
 70
0
 66
1
  0
VERTEX
  8
0
 10
567.6423
 20
415.4551
 30
0.0000
  0
VERTEX
  8
0
 10
567.6985
 20
415.0008
 30
0.0000
  0
VERTEX
  8
0
 10
567.8654
 20
414.5603
 30
0.0000
  0
VERTEX
  8
0
 10
568.1380
 20
414.1470
 30
0.0000
  0
VERTEX
  8
0
 10
568.5079
 20
413.7734
 30
0.0000
  0
VERTEX
  8
0
 10
568.9640
 20
413.4509
 30
0.0000
  0
VERTEX
  8
0
 10
569.5485
 20
413.1669
 30
0.0000
  0
VERTEX
  8
0
 10
570.1989
 20
412.9669
 30
0.0000
  0
VERTEX
  8
0
 10
570.8914
 20
412.8583
 30
0.0000
  0
VERTEX
  8
0
 10
571.6004
 20
412.8452
 30
0.0000
  0
VERTEX
  8
0
 10
572.2999
 20
412.9280
 30
0.0000
  0
VERTEX
  8
0
 10
572.9643
 20
413.1036
 30
0.0000
  0
VERTEX
  8
0
 10
573.5690
 20
413.3657
 30
0.0000
  0
VERTEX
  8
0
 10
573.9586
 20
413.6051
 30
0.0000
  0
SEQEND
  0
POLYLINE
  6
continous
  8
BYBLOCK
 70
0
 66
1
  0
VERTEX
  8
0
 10
568.7260
 20
417.3051
 30
0.0000
  0
VERTEX
  8
0
 10
568.3114
 20
416.9558
 30
0.0000
  0
VERTEX
  8
0
 10
567.9889
 20
416.5608
 30
0.0000
  0
VERTEX
  8
0
 10
567.7684
 20
416.1323
 30
0.0000
  0
VERTEX
  8
0
 10
567.6564
 20
415.6832
 30
0.0000
  0
VERTEX
  8
0
 10
567.6423
 20
415.4551
 30
0.0000
  0
SEQEND
  0
POLYLINE
  6
continous
  8
BYBLOCK
 70
0
 66
1
  0
VERTEX
  8
0
 10
575.0423
 20
415.4551
 30
0.0000
  0
VERTEX
  8
0
 10
574.9861
 20
415.9094
 30
0.0000
  0
VERTEX
  8
0
 10
574.8191
 20
416.3500
 30
0.0000
  0
VERTEX
  8
0
 10
574.5466
 20
416.7633
 30
0.0000
  0
VERTEX
  8
0
 10
574.1766
 20
417.1369
 30
0.0000
  0
VERTEX
  8
0
 10
573.7206
 20
417.4593
 30
0.0000
  0
VERTEX
  8
0
 10
573.1361
 20
417.7434
 30
0.0000
  0
VERTEX
  8
0
 10
572.4856
 20
417.9434
 30
0.0000
  0
VERTEX
  8
0
 10
571.7932
 20
418.0519
 30
0.0000
  0
VERTEX
  8
0
 10
571.0842
 20
418.0651
 30
0.0000
  0
VERTEX
  8
0
 10
570.3846
 20
417.9823
 30
0.0000
  0
VERTEX
  8
0
 10
569.7203
 20
417.8066
 30
0.0000
  0
VERTEX
  8
0
 10
569.1156
 20
417.5446
 30
0.0000
  0
VERTEX
  8
0
 10
568.7260
 20
417.3051
 30
0.0000
  0
SEQEND
  0
POLYLINE
  6
continous
  8
BYBLOCK
 70
0
 66
1
  0
VERTEX
  8
0
 10
573.9586
 20
413.6051
 30
0.0000
  0
VERTEX
  8
0
 10
574.3731
 20
413.9545
 30
0.0000
  0
VERTEX
  8
0
 10
574.6956
 20
414.3494
 30
0.0000
  0
VERTEX
  8
0
 10
574.9162
 20
414.7780
 30
0.0000
  0
VERTEX
  8
0
 10
575.0282
 20
415.2271
 30
0.0000
  0
VERTEX
  8
0
 10
575.0423
 20
415.4551
 30
0.0000
  0
SEQEND
  0
POLYLINE
  6
continous
  8
BYBLOCK
 70
0
 66
1
  0
VERTEX
  8
0
 10
525.2159
 20
385.4551
 30
0.0000
  0
VERTEX
  8
0
 10
525.2721
 20
385.0008
 30
0.0000
  0
VERTEX
  8
0
 10
525.4390
 20
384.5603
 30
0.0000
  0
VERTEX
  8
0
 10
525.7116
 20
384.1470
 30
0.0000
  0
VERTEX
  8
0
 10
526.0815
 20
383.7734
 30
0.0000
  0
VERTEX
  8
0
 10
526.5376
 20
383.4509
 30
0.0000
  0
VERTEX
  8
0
 10
527.1221
 20
383.1669
 30
0.0000
  0
VERTEX
  8
0
 10
527.7725
 20
382.9669
 30
0.0000
  0
VERTEX
  8
0
 10
528.4650
 20
382.8583
 30
0.0000
  0
VERTEX
  8
0
 10
529.1740
 20
382.8452
 30
0.0000
  0
VERTEX
  8
0
 10
529.8735
 20
382.9280
 30
0.0000
  0
VERTEX
  8
0
 10
530.5378
 20
383.1036
 30
0.0000
  0
VERTEX
  8
0
 10
531.1426
 20
383.3657
 30
0.0000
  0
VERTEX
  8
0
 10
531.5322
 20
383.6051
 30
0.0000
  0
SEQEND
  0
POLYLINE
  6
continous
  8
BYBLOCK
 70
0
 66
1
  0
VERTEX
  8
0
 10
526.2996
 20
387.3051
 30
0.0000
  0
VERTEX
  8
0
 10
525.8850
 20
386.9558
 30
0.0000
  0
VERTEX
  8
0
 10
525.5625
 20
386.5608
 30
0.0000
  0
VERTEX
  8
0
 10
525.3419
 20
386.1323
 30
0.0000
  0
VERTEX
  8
0
 10
525.2300
 20
385.6832
 30
0.0000
  0
VERTEX
  8
0
 10
525.2159
 20
385.4551
 30
0.0000
  0
SEQEND
  0
POLYLINE
  6
continous
  8
BYBLOCK
 70
0
 66
1
  0
VERTEX
  8
0
 10
532.6159
 20
385.4551
 30
0.0000
  0
VERTEX
  8
0
 10
532.5597
 20
385.9094
 30
0.0000
  0
VERTEX
  8
0
 10
532.3927
 20
386.3500
 30
0.0000
  0
VERTEX
  8
0
 10
532.1202
 20
386.7633
 30
0.0000
  0
VERTEX
  8
0
 10
531.7502
 20
387.1369
 30
0.0000
  0
VERTEX
  8
0
 10
531.2942
 20
387.4593
 30
0.0000
  0
VERTEX
  8
0
 10
530.7097
 20
387.7434
 30
0.0000
  0
VERTEX
  8
0
 10
530.0592
 20
387.9434
 30
0.0000
  0
VERTEX
  8
0
 10
529.3668
 20
388.0519
 30
0.0000
  0
VERTEX
  8
0
 10
528.6578
 20
388.0651
 30
0.0000
  0
VERTEX
  8
0
 10
527.9582
 20
387.9823
 30
0.0000
  0
VERTEX
  8
0
 10
527.2939
 20
387.8066
 30
0.0000
  0
VERTEX
  8
0
 10
526.6892
 20
387.5446
 30
0.0000
  0
VERTEX
  8
0
 10
526.2996
 20
387.3051
 30
0.0000
  0
SEQEND
  0
POLYLINE
  6
continous
  8
BYBLOCK
 70
0
 66
1
  0
VERTEX
  8
0
 10
531.5322
 20
383.6051
 30
0.0000
  0
VERTEX
  8
0
 10
531.9467
 20
383.9545
 30
0.0000
  0
VERTEX
  8
0
 10
532.2692
 20
384.3494
 30
0.0000
  0
VERTEX
  8
0
 10
532.4898
 20
384.7780
 30
0.0000
  0
VERTEX
  8
0
 10
532.6018
 20
385.2271
 30
0.0000
  0
VERTEX
  8
0
 10
532.6159
 20
385.4551
 30
0.0000
  0
SEQEND
  0
POLYLINE
  6
continous
  8
BYBLOCK
 70
0
 66
1
  0
VERTEX
  8
0
 10
482.7895
 20
355.4551
 30
0.0000
  0
VERTEX
  8
0
 10
482.8457
 20
355.0008
 30
0.0000
  0
VERTEX
  8
0
 10
483.0126
 20
354.5603
 30
0.0000
  0
VERTEX
  8
0
 10
483.2852
 20
354.1470
 30
0.0000
  0
VERTEX
  8
0
 10
483.6551
 20
353.7734
 30
0.0000
  0
VERTEX
  8
0
 10
484.1112
 20
353.4509
 30
0.0000
  0
VERTEX
  8
0
 10
484.6957
 20
353.1669
 30
0.0000
  0
VERTEX
  8
0
 10
485.3461
 20
352.9669
 30
0.0000
  0
VERTEX
  8
0
 10
486.0385
 20
352.8583
 30
0.0000
  0
VERTEX
  8
0
 10
486.7476
 20
352.8452
 30
0.0000
  0
VERTEX
  8
0
 10
487.4471
 20
352.9280
 30
0.0000
  0
VERTEX
  8
0
 10
488.1114
 20
353.1036
 30
0.0000
  0
VERTEX
  8
0
 10
488.7162
 20
353.3657
 30
0.0000
  0
VERTEX
  8
0
 10
489.1058
 20
353.6051
 30
0.0000
  0
SEQEND
  0
POLYLINE
  6
continous
  8
BYBLOCK
 70
0
 66
1
  0
VERTEX
  8
0
 10
483.8732
 20
357.3051
 30
0.0000
  0
VERTEX
  8
0
 10
483.4586
 20
356.9558
 30
0.0000
  0
VERTEX
  8
0
 10
483.1361
 20
356.5608
 30
0.0000
  0
VERTEX
  8
0
 10
482.9155
 20
356.1323
 30
0.0000
  0
VERTEX
  8
0
 10
482.8035
 20
355.6832
 30
0.0000
  0
VERTEX
  8
0
 10
482.7895
 20
355.4551
 30
0.0000
  0
SEQEND
  0
POLYLINE
  6
continous
  8
BYBLOCK
 70
0
 66
1
  0
VERTEX
  8
0
 10
490.1895
 20
355.4551
 30
0.0000
  0
VERTEX
  8
0
 10
490.1333
 20
355.9094
 30
0.0000
  0
VERTEX
  8
0
 10
489.9663
 20
356.3500
 30
0.0000
  0
VERTEX
  8
0
 10
489.6938
 20
356.7633
 30
0.0000
  0
VERTEX
  8
0
 10
489.3238
 20
357.1369
 30
0.0000
  0
VERTEX
  8
0
 10
488.8678
 20
357.4593
 30
0.0000
  0
VERTEX
  8
0
 10
488.2833
 20
357.7434
 30
0.0000
  0
VERTEX
  8
0
 10
487.6328
 20
357.9434
 30
0.0000
  0
VERTEX
  8
0
 10
486.9404
 20
358.0519
 30
0.0000
  0
VERTEX
  8
0
 10
486.2314
 20
358.0651
 30
0.0000
  0
VERTEX
  8
0
 10
485.5318
 20
357.9823
 30
0.0000
  0
VERTEX
  8
0
 10
484.8675
 20
357.8066
 30
0.0000
  0
VERTEX
  8
0
 10
484.2627
 20
357.5446
 30
0.0000
  0
VERTEX
  8
0
 10
483.8732
 20
357.3051
 30
0.0000
  0
SEQEND
  0
POLYLINE
  6
continous
  8
BYBLOCK
 70
0
 66
1
  0
VERTEX
  8
0
 10
489.1058
 20
353.6051
 30
0.0000
  0
VERTEX
  8
0
 10
489.5203
 20
353.9545
 30
0.0000
  0
VERTEX
  8
0
 10
489.8428
 20
354.3494
 30
0.0000
  0
VERTEX
  8
0
 10
490.0634
 20
354.7780
 30
0.0000
  0
VERTEX
  8
0
 10
490.1754
 20
355.2271
 30
0.0000
  0
VERTEX
  8
0
 10
490.1895
 20
355.4551
 30
0.0000
  0
SEQEND
  0
POLYLINE
  6
continous
  8
BYBLOCK
 70
0
 66
1
  0
VERTEX
  8
0
 10
440.3631
 20
325.4551
 30
0.0000
  0
VERTEX
  8
0
 10
440.4193
 20
325.0008
 30
0.0000
  0
VERTEX
  8
0
 10
440.5862
 20
324.5603
 30
0.0000
  0
VERTEX
  8
0
 10
440.8588
 20
324.1470
 30
0.0000
  0
VERTEX
  8
0
 10
441.2287
 20
323.7734
 30
0.0000
  0
VERTEX
  8
0
 10
441.6847
 20
323.4509
 30
0.0000
  0
VERTEX
  8
0
 10
442.2693
 20
323.1669
 30
0.0000
  0
VERTEX
  8
0
 10
442.9197
 20
322.9669
 30
0.0000
  0
VERTEX
  8
0
 10
443.6121
 20
322.8583
 30
0.0000
  0
VERTEX
  8
0
 10
444.3212
 20
322.8452
 30
0.0000
  0
VERTEX
  8
0
 10
445.0207
 20
322.9280
 30
0.0000
  0
VERTEX
  8
0
 10
445.6850
 20
323.1036
 30
0.0000
  0
VERTEX
  8
0
 10
446.2898
 20
323.3657
 30
0.0000
  0
VERTEX
  8
0
 10
446.6794
 20
323.6051
 30
0.0000
  0
SEQEND
  0
POLYLINE
  6
continous
  8
BYBLOCK
 70
0
 66
1
  0
VERTEX
  8
0
 10
441.4468
 20
327.3051
 30
0.0000
  0
VERTEX
  8
0
 10
441.0322
 20
326.9558
 30
0.0000
  0
VERTEX
  8
0
 10
440.7097
 20
326.5608
 30
0.0000
  0
VERTEX
  8
0
 10
440.4891
 20
326.1323
 30
0.0000
  0
VERTEX
  8
0
 10
440.3771
 20
325.6832
 30
0.0000
  0
VERTEX
  8
0
 10
440.3631
 20
325.4551
 30
0.0000
  0
SEQEND
  0
POLYLINE
  6
continous
  8
BYBLOCK
 70
0
 66
1
  0
VERTEX
  8
0
 10
447.7631
 20
325.4551
 30
0.0000
  0
VERTEX
  8
0
 10
447.7068
 20
325.9094
 30
0.0000
  0
VERTEX
  8
0
 10
447.5399
 20
326.3500
 30
0.0000
  0
VERTEX
  8
0
 10
447.2674
 20
326.7633
 30
0.0000
  0
VERTEX
  8
0
 10
446.8974
 20
327.1369
 30
0.0000
  0
VERTEX
  8
0
 10
446.4414
 20
327.4593
 30
0.0000
  0
VERTEX
  8
0
 10
445.8569
 20
327.7434
 30
0.0000
  0
VERTEX
  8
0
 10
445.2064
 20
327.9434
 30
0.0000
  0
VERTEX
  8
0
 10
444.5140
 20
328.0519
 30
0.0000
  0
VERTEX
  8
0
 10
443.8050
 20
328.0651
 30
0.0000
  0
VERTEX
  8
0
 10
443.1054
 20
327.9823
 30
0.0000
  0
VERTEX
  8
0
 10
442.4411
 20
327.8066
 30
0.0000
  0
VERTEX
  8
0
 10
441.8363
 20
327.5446
 30
0.0000
  0
VERTEX
  8
0
 10
441.4468
 20
327.3051
 30
0.0000
  0
SEQEND
  0
POLYLINE
  6
continous
  8
BYBLOCK
 70
0
 66
1
  0
VERTEX
  8
0
 10
446.6794
 20
323.6051
 30
0.0000
  0
VERTEX
  8
0
 10
447.0939
 20
323.9545
 30
0.0000
  0
VERTEX
  8
0
 10
447.4164
 20
324.3494
 30
0.0000
  0
VERTEX
  8
0
 10
447.6370
 20
324.7780
 30
0.0000
  0
VERTEX
  8
0
 10
447.7490
 20
325.2271
 30
0.0000
  0
VERTEX
  8
0
 10
447.7631
 20
325.4551
 30
0.0000
  0
SEQEND
  0
POLYLINE
  6
continous
  8
BYBLOCK
 70
0
 66
1
  0
VERTEX
  8
0
 10
397.9367
 20
295.4551
 30
0.0000
  0
VERTEX
  8
0
 10
397.9929
 20
295.0008
 30
0.0000
  0
VERTEX
  8
0
 10
398.1598
 20
294.5603
 30
0.0000
  0
VERTEX
  8
0
 10
398.4324
 20
294.1470
 30
0.0000
  0
VERTEX
  8
0
 10
398.8023
 20
293.7734
 30
0.0000
  0
VERTEX
  8
0
 10
399.2583
 20
293.4509
 30
0.0000
  0
VERTEX
  8
0
 10
399.8429
 20
293.1669
 30
0.0000
  0
VERTEX
  8
0
 10
400.4933
 20
292.9669
 30
0.0000
  0
VERTEX
  8
0
 10
401.1857
 20
292.8583
 30
0.0000
  0
VERTEX
  8
0
 10
401.8948
 20
292.8452
 30
0.0000
  0
VERTEX
  8
0
 10
402.5943
 20
292.9280
 30
0.0000
  0
VERTEX
  8
0
 10
403.2586
 20
293.1036
 30
0.0000
  0
VERTEX
  8
0
 10
403.8634
 20
293.3657
 30
0.0000
  0
VERTEX
  8
0
 10
404.2529
 20
293.6051
 30
0.0000
  0
SEQEND
  0
POLYLINE
  6
continous
  8
BYBLOCK
 70
0
 66
1
  0
VERTEX
  8
0
 10
399.0204
 20
297.3051
 30
0.0000
  0
VERTEX
  8
0
 10
398.6058
 20
296.9558
 30
0.0000
  0
VERTEX
  8
0
 10
398.2833
 20
296.5608
 30
0.0000
  0
VERTEX
  8
0
 10
398.0627
 20
296.1323
 30
0.0000
  0
VERTEX
  8
0
 10
397.9507
 20
295.6832
 30
0.0000
  0
VERTEX
  8
0
 10
397.9367
 20
295.4551
 30
0.0000
  0
SEQEND
  0
POLYLINE
  6
continous
  8
BYBLOCK
 70
0
 66
1
  0
VERTEX
  8
0
 10
405.3367
 20
295.4551
 30
0.0000
  0
VERTEX
  8
0
 10
405.2804
 20
295.9094
 30
0.0000
  0
VERTEX
  8
0
 10
405.1135
 20
296.3500
 30
0.0000
  0
VERTEX
  8
0
 10
404.8409
 20
296.7633
 30
0.0000
  0
VERTEX
  8
0
 10
404.4710
 20
297.1369
 30
0.0000
  0
VERTEX
  8
0
 10
404.0150
 20
297.4593
 30
0.0000
  0
VERTEX
  8
0
 10
403.4304
 20
297.7434
 30
0.0000
  0
VERTEX
  8
0
 10
402.7800
 20
297.9434
 30
0.0000
  0
VERTEX
  8
0
 10
402.0876
 20
298.0519
 30
0.0000
  0
VERTEX
  8
0
 10
401.3786
 20
298.0651
 30
0.0000
  0
VERTEX
  8
0
 10
400.6790
 20
297.9823
 30
0.0000
  0
VERTEX
  8
0
 10
400.0147
 20
297.8066
 30
0.0000
  0
VERTEX
  8
0
 10
399.4099
 20
297.5446
 30
0.0000
  0
VERTEX
  8
0
 10
399.0204
 20
297.3051
 30
0.0000
  0
SEQEND
  0
POLYLINE
  6
continous
  8
BYBLOCK
 70
0
 66
1
  0
VERTEX
  8
0
 10
404.2529
 20
293.6051
 30
0.0000
  0
VERTEX
  8
0
 10
404.6675
 20
293.9545
 30
0.0000
  0
VERTEX
  8
0
 10
404.9900
 20
294.3494
 30
0.0000
  0
VERTEX
  8
0
 10
405.2106
 20
294.7780
 30
0.0000
  0
VERTEX
  8
0
 10
405.3226
 20
295.2271
 30
0.0000
  0
VERTEX
  8
0
 10
405.3367
 20
295.4551
 30
0.0000
  0
SEQEND
  0
POLYLINE
  6
continous
  8
BYBLOCK
 70
0
 66
1
  0
VERTEX
  8
0
 10
355.5102
 20
265.4551
 30
0.0000
  0
VERTEX
  8
0
 10
355.5665
 20
265.0008
 30
0.0000
  0
VERTEX
  8
0
 10
355.7334
 20
264.5603
 30
0.0000
  0
VERTEX
  8
0
 10
356.0060
 20
264.1470
 30
0.0000
  0
VERTEX
  8
0
 10
356.3759
 20
263.7734
 30
0.0000
  0
VERTEX
  8
0
 10
356.8319
 20
263.4509
 30
0.0000
  0
VERTEX
  8
0
 10
357.4164
 20
263.1669
 30
0.0000
  0
VERTEX
  8
0
 10
358.0669
 20
262.9669
 30
0.0000
  0
VERTEX
  8
0
 10
358.7593
 20
262.8583
 30
0.0000
  0
VERTEX
  8
0
 10
359.4683
 20
262.8452
 30
0.0000
  0
VERTEX
  8
0
 10
360.1679
 20
262.9280
 30
0.0000
  0
VERTEX
  8
0
 10
360.8322
 20
263.1036
 30
0.0000
  0
VERTEX
  8
0
 10
361.4370
 20
263.3657
 30
0.0000
  0
VERTEX
  8
0
 10
361.8265
 20
263.6051
 30
0.0000
  0
SEQEND
  0
POLYLINE
  6
continous
  8
BYBLOCK
 70
0
 66
1
  0
VERTEX
  8
0
 10
356.5939
 20
267.3051
 30
0.0000
  0
VERTEX
  8
0
 10
356.1794
 20
266.9558
 30
0.0000
  0
VERTEX
  8
0
 10
355.8569
 20
266.5608
 30
0.0000
  0
VERTEX
  8
0
 10
355.6363
 20
266.1323
 30
0.0000
  0
VERTEX
  8
0
 10
355.5243
 20
265.6832
 30
0.0000
  0
VERTEX
  8
0
 10
355.5102
 20
265.4551
 30
0.0000
  0
SEQEND
  0
POLYLINE
  6
continous
  8
BYBLOCK
 70
0
 66
1
  0
VERTEX
  8
0
 10
362.9102
 20
265.4551
 30
0.0000
  0
VERTEX
  8
0
 10
362.8540
 20
265.9094
 30
0.0000
  0
VERTEX
  8
0
 10
362.6871
 20
266.3500
 30
0.0000
  0
VERTEX
  8
0
 10
362.4145
 20
266.7633
 30
0.0000
  0
VERTEX
  8
0
 10
362.0446
 20
267.1369
 30
0.0000
  0
VERTEX
  8
0
 10
361.5886
 20
267.4593
 30
0.0000
  0
VERTEX
  8
0
 10
361.0040
 20
267.7434
 30
0.0000
  0
VERTEX
  8
0
 10
360.3536
 20
267.9434
 30
0.0000
  0
VERTEX
  8
0
 10
359.6612
 20
268.0519
 30
0.0000
  0
VERTEX
  8
0
 10
358.9521
 20
268.0651
 30
0.0000
  0
VERTEX
  8
0
 10
358.2526
 20
267.9823
 30
0.0000
  0
VERTEX
  8
0
 10
357.5883
 20
267.8066
 30
0.0000
  0
VERTEX
  8
0
 10
356.9835
 20
267.5446
 30
0.0000
  0
VERTEX
  8
0
 10
356.5939
 20
267.3051
 30
0.0000
  0
SEQEND
  0
POLYLINE
  6
continous
  8
BYBLOCK
 70
0
 66
1
  0
VERTEX
  8
0
 10
361.8265
 20
263.6051
 30
0.0000
  0
VERTEX
  8
0
 10
362.2411
 20
263.9545
 30
0.0000
  0
VERTEX
  8
0
 10
362.5636
 20
264.3494
 30
0.0000
  0
VERTEX
  8
0
 10
362.7842
 20
264.7780
 30
0.0000
  0
VERTEX
  8
0
 10
362.8962
 20
265.2271
 30
0.0000
  0
VERTEX
  8
0
 10
362.9102
 20
265.4551
 30
0.0000
  0
SEQEND
  0
POLYLINE
  6
continous
  8
BYBLOCK
 70
0
 66
1
  0
VERTEX
  8
0
 10
313.0838
 20
235.4551
 30
0.0000
  0
VERTEX
  8
0
 10
313.1400
 20
235.0008
 30
0.0000
  0
VERTEX
  8
0
 10
313.3070
 20
234.5603
 30
0.0000
  0
VERTEX
  8
0
 10
313.5795
 20
234.1470
 30
0.0000
  0
VERTEX
  8
0
 10
313.9495
 20
233.7734
 30
0.0000
  0
VERTEX
  8
0
 10
314.4055
 20
233.4509
 30
0.0000
  0
VERTEX
  8
0
 10
314.9900
 20
233.1669
 30
0.0000
  0
VERTEX
  8
0
 10
315.6405
 20
232.9669
 30
0.0000
  0
VERTEX
  8
0
 10
316.3329
 20
232.8583
 30
0.0000
  0
VERTEX
  8
0
 10
317.0419
 20
232.8452
 30
0.0000
  0
VERTEX
  8
0
 10
317.7415
 20
232.9280
 30
0.0000
  0
VERTEX
  8
0
 10
318.4058
 20
233.1036
 30
0.0000
  0
VERTEX
  8
0
 10
319.0106
 20
233.3657
 30
0.0000
  0
VERTEX
  8
0
 10
319.4001
 20
233.6051
 30
0.0000
  0
SEQEND
  0
POLYLINE
  6
continous
  8
BYBLOCK
 70
0
 66
1
  0
VERTEX
  8
0
 10
314.1675
 20
237.3051
 30
0.0000
  0
VERTEX
  8
0
 10
313.7530
 20
236.9558
 30
0.0000
  0
VERTEX
  8
0
 10
313.4305
 20
236.5608
 30
0.0000
  0
VERTEX
  8
0
 10
313.2099
 20
236.1323
 30
0.0000
  0
VERTEX
  8
0
 10
313.0979
 20
235.6832
 30
0.0000
  0
VERTEX
  8
0
 10
313.0838
 20
235.4551
 30
0.0000
  0
SEQEND
  0
POLYLINE
  6
continous
  8
BYBLOCK
 70
0
 66
1
  0
VERTEX
  8
0
 10
320.4838
 20
235.4551
 30
0.0000
  0
VERTEX
  8
0
 10
320.4276
 20
235.9094
 30
0.0000
  0
VERTEX
  8
0
 10
320.2607
 20
236.3500
 30
0.0000
  0
VERTEX
  8
0
 10
319.9881
 20
236.7633
 30
0.0000
  0
VERTEX
  8
0
 10
319.6182
 20
237.1369
 30
0.0000
  0
VERTEX
  8
0
 10
319.1622
 20
237.4593
 30
0.0000
  0
VERTEX
  8
0
 10
318.5776
 20
237.7434
 30
0.0000
  0
VERTEX
  8
0
 10
317.9272
 20
237.9434
 30
0.0000
  0
VERTEX
  8
0
 10
317.2348
 20
238.0519
 30
0.0000
  0
VERTEX
  8
0
 10
316.5257
 20
238.0651
 30
0.0000
  0
VERTEX
  8
0
 10
315.8262
 20
237.9823
 30
0.0000
  0
VERTEX
  8
0
 10
315.1619
 20
237.8066
 30
0.0000
  0
VERTEX
  8
0
 10
314.5571
 20
237.5446
 30
0.0000
  0
VERTEX
  8
0
 10
314.1675
 20
237.3051
 30
0.0000
  0
SEQEND
  0
POLYLINE
  6
continous
  8
BYBLOCK
 70
0
 66
1
  0
VERTEX
  8
0
 10
319.4001
 20
233.6051
 30
0.0000
  0
VERTEX
  8
0
 10
319.8147
 20
233.9545
 30
0.0000
  0
VERTEX
  8
0
 10
320.1372
 20
234.3494
 30
0.0000
  0
VERTEX
  8
0
 10
320.3578
 20
234.7780
 30
0.0000
  0
VERTEX
  8
0
 10
320.4698
 20
235.2271
 30
0.0000
  0
VERTEX
  8
0
 10
320.4838
 20
235.4551
 30
0.0000
  0
SEQEND
  0
POLYLINE
  6
continous
  8
BYBLOCK
 70
0
 66
1
  0
VERTEX
  8
0
 10
270.6574
 20
205.4551
 30
0.0000
  0
VERTEX
  8
0
 10
270.7136
 20
205.0008
 30
0.0000
  0
VERTEX
  8
0
 10
270.8806
 20
204.5603
 30
0.0000
  0
VERTEX
  8
0
 10
271.1531
 20
204.1470
 30
0.0000
  0
VERTEX
  8
0
 10
271.5231
 20
203.7734
 30
0.0000
  0
VERTEX
  8
0
 10
271.9791
 20
203.4509
 30
0.0000
  0
VERTEX
  8
0
 10
272.5636
 20
203.1669
 30
0.0000
  0
VERTEX
  8
0
 10
273.2141
 20
202.9669
 30
0.0000
  0
VERTEX
  8
0
 10
273.9065
 20
202.8583
 30
0.0000
  0
VERTEX
  8
0
 10
274.6155
 20
202.8452
 30
0.0000
  0
VERTEX
  8
0
 10
275.3151
 20
202.9280
 30
0.0000
  0
VERTEX
  8
0
 10
275.9794
 20
203.1036
 30
0.0000
  0
VERTEX
  8
0
 10
276.5841
 20
203.3657
 30
0.0000
  0
VERTEX
  8
0
 10
276.9737
 20
203.6051
 30
0.0000
  0
SEQEND
  0
POLYLINE
  6
continous
  8
BYBLOCK
 70
0
 66
1
  0
VERTEX
  8
0
 10
271.7411
 20
207.3051
 30
0.0000
  0
VERTEX
  8
0
 10
271.3266
 20
206.9558
 30
0.0000
  0
VERTEX
  8
0
 10
271.0041
 20
206.5608
 30
0.0000
  0
VERTEX
  8
0
 10
270.7835
 20
206.1323
 30
0.0000
  0
VERTEX
  8
0
 10
270.6715
 20
205.6832
 30
0.0000
  0
VERTEX
  8
0
 10
270.6574
 20
205.4551
 30
0.0000
  0
SEQEND
  0
POLYLINE
  6
continous
  8
BYBLOCK
 70
0
 66
1
  0
VERTEX
  8
0
 10
278.0574
 20
205.4551
 30
0.0000
  0
VERTEX
  8
0
 10
278.0012
 20
205.9094
 30
0.0000
  0
VERTEX
  8
0
 10
277.8343
 20
206.3500
 30
0.0000
  0
VERTEX
  8
0
 10
277.5617
 20
206.7633
 30
0.0000
  0
VERTEX
  8
0
 10
277.1918
 20
207.1369
 30
0.0000
  0
VERTEX
  8
0
 10
276.7357
 20
207.4593
 30
0.0000
  0
VERTEX
  8
0
 10
276.1512
 20
207.7434
 30
0.0000
  0
VERTEX
  8
0
 10
275.5008
 20
207.9434
 30
0.0000
  0
VERTEX
  8
0
 10
274.8083
 20
208.0519
 30
0.0000
  0
VERTEX
  8
0
 10
274.0993
 20
208.0651
 30
0.0000
  0
VERTEX
  8
0
 10
273.3998
 20
207.9823
 30
0.0000
  0
VERTEX
  8
0
 10
272.7355
 20
207.8066
 30
0.0000
  0
VERTEX
  8
0
 10
272.1307
 20
207.5446
 30
0.0000
  0
VERTEX
  8
0
 10
271.7411
 20
207.3051
 30
0.0000
  0
SEQEND
  0
POLYLINE
  6
continous
  8
BYBLOCK
 70
0
 66
1
  0
VERTEX
  8
0
 10
276.9737
 20
203.6051
 30
0.0000
  0
VERTEX
  8
0
 10
277.3883
 20
203.9545
 30
0.0000
  0
VERTEX
  8
0
 10
277.7108
 20
204.3494
 30
0.0000
  0
VERTEX
  8
0
 10
277.9314
 20
204.7780
 30
0.0000
  0
VERTEX
  8
0
 10
278.0434
 20
205.2271
 30
0.0000
  0
VERTEX
  8
0
 10
278.0574
 20
205.4551
 30
0.0000
  0
SEQEND
  0
POLYLINE
  6
continous
  8
BYBLOCK
 70
0
 66
1
  0
VERTEX
  8
0
 10
228.2310
 20
175.4551
 30
0.0000
  0
VERTEX
  8
0
 10
228.2872
 20
175.0008
 30
0.0000
  0
VERTEX
  8
0
 10
228.4542
 20
174.5603
 30
0.0000
  0
VERTEX
  8
0
 10
228.7267
 20
174.1470
 30
0.0000
  0
VERTEX
  8
0
 10
229.0967
 20
173.7734
 30
0.0000
  0
VERTEX
  8
0
 10
229.5527
 20
173.4509
 30
0.0000
  0
VERTEX
  8
0
 10
230.1372
 20
173.1669
 30
0.0000
  0
VERTEX
  8
0
 10
230.7877
 20
172.9669
 30
0.0000
  0
VERTEX
  8
0
 10
231.4801
 20
172.8583
 30
0.0000
  0
VERTEX
  8
0
 10
232.1891
 20
172.8452
 30
0.0000
  0
VERTEX
  8
0
 10
232.8887
 20
172.9280
 30
0.0000
  0
VERTEX
  8
0
 10
233.5530
 20
173.1036
 30
0.0000
  0
VERTEX
  8
0
 10
234.1577
 20
173.3657
 30
0.0000
  0
VERTEX
  8
0
 10
234.5473
 20
173.6051
 30
0.0000
  0
SEQEND
  0
POLYLINE
  6
continous
  8
BYBLOCK
 70
0
 66
1
  0
VERTEX
  8
0
 10
229.3147
 20
177.3051
 30
0.0000
  0
VERTEX
  8
0
 10
228.9002
 20
176.9558
 30
0.0000
  0
VERTEX
  8
0
 10
228.5777
 20
176.5608
 30
0.0000
  0
VERTEX
  8
0
 10
228.3571
 20
176.1323
 30
0.0000
  0
VERTEX
  8
0
 10
228.2451
 20
175.6832
 30
0.0000
  0
VERTEX
  8
0
 10
228.2310
 20
175.4551
 30
0.0000
  0
SEQEND
  0
POLYLINE
  6
continous
  8
BYBLOCK
 70
0
 66
1
  0
VERTEX
  8
0
 10
235.6310
 20
175.4551
 30
0.0000
  0
VERTEX
  8
0
 10
235.5748
 20
175.9094
 30
0.0000
  0
VERTEX
  8
0
 10
235.4079
 20
176.3500
 30
0.0000
  0
VERTEX
  8
0
 10
235.1353
 20
176.7633
 30
0.0000
  0
VERTEX
  8
0
 10
234.7654
 20
177.1369
 30
0.0000
  0
VERTEX
  8
0
 10
234.3093
 20
177.4593
 30
0.0000
  0
VERTEX
  8
0
 10
233.7248
 20
177.7434
 30
0.0000
  0
VERTEX
  8
0
 10
233.0744
 20
177.9434
 30
0.0000
  0
VERTEX
  8
0
 10
232.3819
 20
178.0519
 30
0.0000
  0
VERTEX
  8
0
 10
231.6729
 20
178.0651
 30
0.0000
  0
VERTEX
  8
0
 10
230.9734
 20
177.9823
 30
0.0000
  0
VERTEX
  8
0
 10
230.3091
 20
177.8066
 30
0.0000
  0
VERTEX
  8
0
 10
229.7043
 20
177.5446
 30
0.0000
  0
VERTEX
  8
0
 10
229.3147
 20
177.3051
 30
0.0000
  0
SEQEND
  0
POLYLINE
  6
continous
  8
BYBLOCK
 70
0
 66
1
  0
VERTEX
  8
0
 10
234.5473
 20
173.6051
 30
0.0000
  0
VERTEX
  8
0
 10
234.9619
 20
173.9545
 30
0.0000
  0
VERTEX
  8
0
 10
235.2844
 20
174.3494
 30
0.0000
  0
VERTEX
  8
0
 10
235.5049
 20
174.7780
 30
0.0000
  0
VERTEX
  8
0
 10
235.6169
 20
175.2271
 30
0.0000
  0
VERTEX
  8
0
 10
235.6310
 20
175.4551
 30
0.0000
  0
SEQEND
  0
POLYLINE
  6
continous
  8
BYBLOCK
 70
0
 66
1
  0
VERTEX
  8
0
 10
185.8046
 20
145.4551
 30
0.0000
  0
VERTEX
  8
0
 10
185.8608
 20
145.0008
 30
0.0000
  0
VERTEX
  8
0
 10
186.0278
 20
144.5603
 30
0.0000
  0
VERTEX
  8
0
 10
186.3003
 20
144.1470
 30
0.0000
  0
VERTEX
  8
0
 10
186.6703
 20
143.7734
 30
0.0000
  0
VERTEX
  8
0
 10
187.1263
 20
143.4509
 30
0.0000
  0
VERTEX
  8
0
 10
187.7108
 20
143.1669
 30
0.0000
  0
VERTEX
  8
0
 10
188.3613
 20
142.9669
 30
0.0000
  0
VERTEX
  8
0
 10
189.0537
 20
142.8583
 30
0.0000
  0
VERTEX
  8
0
 10
189.7627
 20
142.8452
 30
0.0000
  0
VERTEX
  8
0
 10
190.4622
 20
142.9280
 30
0.0000
  0
VERTEX
  8
0
 10
191.1266
 20
143.1036
 30
0.0000
  0
VERTEX
  8
0
 10
191.7313
 20
143.3657
 30
0.0000
  0
VERTEX
  8
0
 10
192.1209
 20
143.6051
 30
0.0000
  0
SEQEND
  0
POLYLINE
  6
continous
  8
BYBLOCK
 70
0
 66
1
  0
VERTEX
  8
0
 10
186.8883
 20
147.3051
 30
0.0000
  0
VERTEX
  8
0
 10
186.4738
 20
146.9558
 30
0.0000
  0
VERTEX
  8
0
 10
186.1513
 20
146.5608
 30
0.0000
  0
VERTEX
  8
0
 10
185.9307
 20
146.1323
 30
0.0000
  0
VERTEX
  8
0
 10
185.8187
 20
145.6832
 30
0.0000
  0
VERTEX
  8
0
 10
185.8046
 20
145.4551
 30
0.0000
  0
SEQEND
  0
POLYLINE
  6
continous
  8
BYBLOCK
 70
0
 66
1
  0
VERTEX
  8
0
 10
193.2046
 20
145.4551
 30
0.0000
  0
VERTEX
  8
0
 10
193.1484
 20
145.9094
 30
0.0000
  0
VERTEX
  8
0
 10
192.9815
 20
146.3500
 30
0.0000
  0
VERTEX
  8
0
 10
192.7089
 20
146.7633
 30
0.0000
  0
VERTEX
  8
0
 10
192.3390
 20
147.1369
 30
0.0000
  0
VERTEX
  8
0
 10
191.8829
 20
147.4593
 30
0.0000
  0
VERTEX
  8
0
 10
191.2984
 20
147.7434
 30
0.0000
  0
VERTEX
  8
0
 10
190.6480
 20
147.9434
 30
0.0000
  0
VERTEX
  8
0
 10
189.9555
 20
148.0519
 30
0.0000
  0
VERTEX
  8
0
 10
189.2465
 20
148.0651
 30
0.0000
  0
VERTEX
  8
0
 10
188.5470
 20
147.9823
 30
0.0000
  0
VERTEX
  8
0
 10
187.8826
 20
147.8066
 30
0.0000
  0
VERTEX
  8
0
 10
187.2779
 20
147.5446
 30
0.0000
  0
VERTEX
  8
0
 10
186.8883
 20
147.3051
 30
0.0000
  0
SEQEND
  0
POLYLINE
  6
continous
  8
BYBLOCK
 70
0
 66
1
  0
VERTEX
  8
0
 10
192.1209
 20
143.6051
 30
0.0000
  0
VERTEX
  8
0
 10
192.5355
 20
143.9545
 30
0.0000
  0
VERTEX
  8
0
 10
192.8580
 20
144.3494
 30
0.0000
  0
VERTEX
  8
0
 10
193.0785
 20
144.7780
 30
0.0000
  0
VERTEX
  8
0
 10
193.1905
 20
145.2271
 30
0.0000
  0
VERTEX
  8
0
 10
193.2046
 20
145.4551
 30
0.0000
  0
SEQEND
  0
POLYLINE
  6
continous
  8
BYBLOCK
 70
0
 66
1
  0
VERTEX
  8
0
 10
143.3782
 20
115.4551
 30
0.0000
  0
VERTEX
  8
0
 10
143.4344
 20
115.0008
 30
0.0000
  0
VERTEX
  8
0
 10
143.6013
 20
114.5603
 30
0.0000
  0
VERTEX
  8
0
 10
143.8739
 20
114.1470
 30
0.0000
  0
VERTEX
  8
0
 10
144.2438
 20
113.7734
 30
0.0000
  0
VERTEX
  8
0
 10
144.6999
 20
113.4509
 30
0.0000
  0
VERTEX
  8
0
 10
145.2844
 20
113.1669
 30
0.0000
  0
VERTEX
  8
0
 10
145.9348
 20
112.9669
 30
0.0000
  0
VERTEX
  8
0
 10
146.6273
 20
112.8583
 30
0.0000
  0
VERTEX
  8
0
 10
147.3363
 20
112.8452
 30
0.0000
  0
VERTEX
  8
0
 10
148.0358
 20
112.9280
 30
0.0000
  0
VERTEX
  8
0
 10
148.7002
 20
113.1036
 30
0.0000
  0
VERTEX
  8
0
 10
149.3049
 20
113.3657
 30
0.0000
  0
VERTEX
  8
0
 10
149.6945
 20
113.6051
 30
0.0000
  0
SEQEND
  0
POLYLINE
  6
continous
  8
BYBLOCK
 70
0
 66
1
  0
VERTEX
  8
0
 10
144.4619
 20
117.3051
 30
0.0000
  0
VERTEX
  8
0
 10
144.0473
 20
116.9558
 30
0.0000
  0
VERTEX
  8
0
 10
143.7249
 20
116.5608
 30
0.0000
  0
VERTEX
  8
0
 10
143.5043
 20
116.1323
 30
0.0000
  0
VERTEX
  8
0
 10
143.3923
 20
115.6832
 30
0.0000
  0
VERTEX
  8
0
 10
143.3782
 20
115.4551
 30
0.0000
  0
SEQEND
  0
POLYLINE
  6
continous
  8
BYBLOCK
 70
0
 66
1
  0
VERTEX
  8
0
 10
150.7782
 20
115.4551
 30
0.0000
  0
VERTEX
  8
0
 10
150.7220
 20
115.9094
 30
0.0000
  0
VERTEX
  8
0
 10
150.5551
 20
116.3500
 30
0.0000
  0
VERTEX
  8
0
 10
150.2825
 20
116.7633
 30
0.0000
  0
VERTEX
  8
0
 10
149.9126
 20
117.1369
 30
0.0000
  0
VERTEX
  8
0
 10
149.4565
 20
117.4593
 30
0.0000
  0
VERTEX
  8
0
 10
148.8720
 20
117.7434
 30
0.0000
  0
VERTEX
  8
0
 10
148.2216
 20
117.9434
 30
0.0000
  0
VERTEX
  8
0
 10
147.5291
 20
118.0519
 30
0.0000
  0
VERTEX
  8
0
 10
146.8201
 20
118.0651
 30
0.0000
  0
VERTEX
  8
0
 10
146.1206
 20
117.9823
 30
0.0000
  0
VERTEX
  8
0
 10
145.4562
 20
117.8066
 30
0.0000
  0
VERTEX
  8
0
 10
144.8515
 20
117.5446
 30
0.0000
  0
VERTEX
  8
0
 10
144.4619
 20
117.3051
 30
0.0000
  0
SEQEND
  0
POLYLINE
  6
continous
  8
BYBLOCK
 70
0
 66
1
  0
VERTEX
  8
0
 10
149.6945
 20
113.6051
 30
0.0000
  0
VERTEX
  8
0
 10
150.1091
 20
113.9545
 30
0.0000
  0
VERTEX
  8
0
 10
150.4315
 20
114.3494
 30
0.0000
  0
VERTEX
  8
0
 10
150.6521
 20
114.7780
 30
0.0000
  0
VERTEX
  8
0
 10
150.7641
 20
115.2271
 30
0.0000
  0
VERTEX
  8
0
 10
150.7782
 20
115.4551
 30
0.0000
  0
SEQEND
  0
POLYLINE
  6
continous
  8
BYBLOCK
 70
0
 66
1
  0
VERTEX
  8
0
 10
100.9518
 20
85.4551
 30
0.0000
  0
VERTEX
  8
0
 10
101.0080
 20
85.0008
 30
0.0000
  0
VERTEX
  8
0
 10
101.1749
 20
84.5603
 30
0.0000
  0
VERTEX
  8
0
 10
101.4475
 20
84.1470
 30
0.0000
  0
VERTEX
  8
0
 10
101.8174
 20
83.7734
 30
0.0000
  0
VERTEX
  8
0
 10
102.2735
 20
83.4509
 30
0.0000
  0
VERTEX
  8
0
 10
102.8580
 20
83.1669
 30
0.0000
  0
VERTEX
  8
0
 10
103.5084
 20
82.9669
 30
0.0000
  0
VERTEX
  8
0
 10
104.2009
 20
82.8583
 30
0.0000
  0
VERTEX
  8
0
 10
104.9099
 20
82.8452
 30
0.0000
  0
VERTEX
  8
0
 10
105.6094
 20
82.9280
 30
0.0000
  0
VERTEX
  8
0
 10
106.2738
 20
83.1036
 30
0.0000
  0
VERTEX
  8
0
 10
106.8785
 20
83.3657
 30
0.0000
  0
VERTEX
  8
0
 10
107.2681
 20
83.6051
 30
0.0000
  0
SEQEND
  0
POLYLINE
  6
continous
  8
BYBLOCK
 70
0
 66
1
  0
VERTEX
  8
0
 10
102.0355
 20
87.3051
 30
0.0000
  0
VERTEX
  8
0
 10
101.6209
 20
86.9558
 30
0.0000
  0
VERTEX
  8
0
 10
101.2985
 20
86.5608
 30
0.0000
  0
VERTEX
  8
0
 10
101.0779
 20
86.1323
 30
0.0000
  0
VERTEX
  8
0
 10
100.9659
 20
85.6832
 30
0.0000
  0
VERTEX
  8
0
 10
100.9518
 20
85.4551
 30
0.0000
  0
SEQEND
  0
POLYLINE
  6
continous
  8
BYBLOCK
 70
0
 66
1
  0
VERTEX
  8
0
 10
108.3518
 20
85.4551
 30
0.0000
  0
VERTEX
  8
0
 10
108.2956
 20
85.9094
 30
0.0000
  0
VERTEX
  8
0
 10
108.1287
 20
86.3500
 30
0.0000
  0
VERTEX
  8
0
 10
107.8561
 20
86.7633
 30
0.0000
  0
VERTEX
  8
0
 10
107.4862
 20
87.1369
 30
0.0000
  0
VERTEX
  8
0
 10
107.0301
 20
87.4593
 30
0.0000
  0
VERTEX
  8
0
 10
106.4456
 20
87.7434
 30
0.0000
  0
VERTEX
  8
0
 10
105.7952
 20
87.9434
 30
0.0000
  0
VERTEX
  8
0
 10
105.1027
 20
88.0519
 30
0.0000
  0
VERTEX
  8
0
 10
104.3937
 20
88.0651
 30
0.0000
  0
VERTEX
  8
0
 10
103.6942
 20
87.9823
 30
0.0000
  0
VERTEX
  8
0
 10
103.0298
 20
87.8066
 30
0.0000
  0
VERTEX
  8
0
 10
102.4251
 20
87.5446
 30
0.0000
  0
VERTEX
  8
0
 10
102.0355
 20
87.3051
 30
0.0000
  0
SEQEND
  0
POLYLINE
  6
continous
  8
BYBLOCK
 70
0
 66
1
  0
VERTEX
  8
0
 10
107.2681
 20
83.6051
 30
0.0000
  0
VERTEX
  8
0
 10
107.6827
 20
83.9545
 30
0.0000
  0
VERTEX
  8
0
 10
108.0051
 20
84.3494
 30
0.0000
  0
VERTEX
  8
0
 10
108.2257
 20
84.7780
 30
0.0000
  0
VERTEX
  8
0
 10
108.3377
 20
85.2271
 30
0.0000
  0
VERTEX
  8
0
 10
108.3518
 20
85.4551
 30
0.0000
  0
SEQEND
  0
POLYLINE
  6
continous
  8
BYBLOCK
 70
0
 66
1
  0
VERTEX
  8
0
 10
58.5254
 20
55.4551
 30
0.0000
  0
VERTEX
  8
0
 10
58.5816
 20
55.0008
 30
0.0000
  0
VERTEX
  8
0
 10
58.7485
 20
54.5603
 30
0.0000
  0
VERTEX
  8
0
 10
59.0211
 20
54.1470
 30
0.0000
  0
VERTEX
  8
0
 10
59.3910
 20
53.7734
 30
0.0000
  0
VERTEX
  8
0
 10
59.8471
 20
53.4509
 30
0.0000
  0
VERTEX
  8
0
 10
60.4316
 20
53.1669
 30
0.0000
  0
VERTEX
  8
0
 10
61.0820
 20
52.9669
 30
0.0000
  0
VERTEX
  8
0
 10
61.7745
 20
52.8583
 30
0.0000
  0
VERTEX
  8
0
 10
62.4835
 20
52.8452
 30
0.0000
  0
VERTEX
  8
0
 10
63.1830
 20
52.9280
 30
0.0000
  0
VERTEX
  8
0
 10
63.8474
 20
53.1036
 30
0.0000
  0
VERTEX
  8
0
 10
64.4521
 20
53.3657
 30
0.0000
  0
VERTEX
  8
0
 10
64.8417
 20
53.6051
 30
0.0000
  0
SEQEND
  0
POLYLINE
  6
continous
  8
BYBLOCK
 70
0
 66
1
  0
VERTEX
  8
0
 10
59.6091
 20
57.3051
 30
0.0000
  0
VERTEX
  8
0
 10
59.1945
 20
56.9558
 30
0.0000
  0
VERTEX
  8
0
 10
58.8721
 20
56.5608
 30
0.0000
  0
VERTEX
  8
0
 10
58.6515
 20
56.1323
 30
0.0000
  0
VERTEX
  8
0
 10
58.5395
 20
55.6832
 30
0.0000
  0
VERTEX
  8
0
 10
58.5254
 20
55.4551
 30
0.0000
  0
SEQEND
  0
POLYLINE
  6
continous
  8
BYBLOCK
 70
0
 66
1
  0
VERTEX
  8
0
 10
65.9254
 20
55.4551
 30
0.0000
  0
VERTEX
  8
0
 10
65.8692
 20
55.9094
 30
0.0000
  0
VERTEX
  8
0
 10
65.7023
 20
56.3500
 30
0.0000
  0
VERTEX
  8
0
 10
65.4297
 20
56.7633
 30
0.0000
  0
VERTEX
  8
0
 10
65.0598
 20
57.1369
 30
0.0000
  0
VERTEX
  8
0
 10
64.6037
 20
57.4593
 30
0.0000
  0
VERTEX
  8
0
 10
64.0192
 20
57.7434
 30
0.0000
  0
VERTEX
  8
0
 10
63.3688
 20
57.9434
 30
0.0000
  0
VERTEX
  8
0
 10
62.6763
 20
58.0519
 30
0.0000
  0
VERTEX
  8
0
 10
61.9673
 20
58.0651
 30
0.0000
  0
VERTEX
  8
0
 10
61.2678
 20
57.9823
 30
0.0000
  0
VERTEX
  8
0
 10
60.6034
 20
57.8066
 30
0.0000
  0
VERTEX
  8
0
 10
59.9987
 20
57.5446
 30
0.0000
  0
VERTEX
  8
0
 10
59.6091
 20
57.3051
 30
0.0000
  0
SEQEND
  0
POLYLINE
  6
continous
  8
BYBLOCK
 70
0
 66
1
  0
VERTEX
  8
0
 10
64.8417
 20
53.6051
 30
0.0000
  0
VERTEX
  8
0
 10
65.2563
 20
53.9545
 30
0.0000
  0
VERTEX
  8
0
 10
65.5787
 20
54.3494
 30
0.0000
  0
VERTEX
  8
0
 10
65.7993
 20
54.7780
 30
0.0000
  0
VERTEX
  8
0
 10
65.9113
 20
55.2271
 30
0.0000
  0
VERTEX
  8
0
 10
65.9254
 20
55.4551
 30
0.0000
  0
SEQEND
  0
LINE
  6
continous
  8
BYBLOCK
 10
6.2261
 20
9.5526
 30
0.0000
 11
-2.6906
 21
15.8576
 31
0.0000
  0
LINE
  6
continous
  8
BYBLOCK
 10
6.2261
 20
9.5526
 30
0.0000
 11
2715.1522
 21
1925.0526
 31
0.0000
  0
LINE
  6
continous
  8
BYBLOCK
 10
-2.6906
 20
15.8576
 30
0.0000
 11
-3.0406
 21
15.7551
 31
0.0000
  0
LINE
  6
continous
  8
BYBLOCK
 10
-3.0406
 20
15.7551
 30
0.0000
 11
2705.8855
 21
1931.2551
 31
0.0000
  0
LINE
  6
continous
  8
BYBLOCK
 10
-2.6906
 20
15.8576
 30
0.0000
 11
2706.2355
 21
1931.3576
 31
0.0000
  0
LINE
  6
continous
  8
BYBLOCK
 10
2706.2355
 20
1931.3576
 30
0.0000
 11
2705.8855
 21
1931.2551
 31
0.0000
  0
LINE
  6
continous
  8
BYBLOCK
 10
2707.9650
 20
1932.1556
 30
0.0000
 11
2705.8855
 21
1931.2551
 31
0.0000
  0
LINE
  6
continous
  8
BYBLOCK
 10
2715.9971
 20
1913.8485
 30
0.0000
 11
2715.9971
 21
1915.6134
 31
0.0000
  0
LINE
  6
continous
  8
BYBLOCK
 10
2717.4532
 20
1915.4480
 30
0.0000
 11
2715.9971
 21
1913.8485
 31
0.0000
  0
LINE
  6
continous
  8
BYBLOCK
 10
2715.9971
 20
1915.6134
 30
0.0000
 11
2715.5022
 21
1916.2491
 31
0.0000
  0
LINE
  6
continous
  8
BYBLOCK
 10
2717.4532
 20
1916.9038
 30
0.0000
 11
2715.9971
 21
1915.6134
 31
0.0000
  0
LINE
  6
continous
  8
BYBLOCK
 10
2715.5022
 20
1916.2491
 30
0.0000
 11
2715.5022
 21
1917.3200
 31
0.0000
  0
LINE
  6
continous
  8
BYBLOCK
 10
2716.9582
 20
1917.5396
 30
0.0000
 11
2715.5022
 21
1916.2491
 31
0.0000
  0
POLYLINE
  6
continous
  8
BYBLOCK
 70
0
 66
1
  0
VERTEX
  8
0
 10
2714.5437
 20
1918.8708
 30
0.0000
  0
VERTEX
  8
0
 10
2714.6637
 20
1918.4867
 30
0.0000
  0
VERTEX
  8
0
 10
2714.8611
 20
1918.0922
 30
0.0000
  0
VERTEX
  8
0
 10
2715.1207
 20
1917.7174
 30
0.0000
  0
VERTEX
  8
0
 10
2715.4227
 20
1917.3910
 30
0.0000
  0
VERTEX
  8
0
 10
2715.5022
 20
1917.3200
 30
0.0000
  0
SEQEND
  0
POLYLINE
  6
continous
  8
BYBLOCK
 70
0
 66
1
  0
VERTEX
  8
0
 10
2716.9582
 20
1918.5477
 30
0.0000
  0
VERTEX
  8
0
 10
2715.5022
 20
1917.3200
 30
0.0000
  0
SEQEND
  0
LINE
  6
continous
  8
BYBLOCK
 10
2714.5437
 20
1918.8708
 30
0.0000
 11
2714.0526
 21
1919.5015
 31
0.0000
  0
POLYLINE
  6
continous
  8
BYBLOCK
 70
0
 66
1
  0
VERTEX
  8
0
 10
2716.0486
 20
1920.0984
 30
0.0000
  0
VERTEX
  8
0
 10
2714.5437
 20
1918.8708
 30
0.0000
  0
SEQEND
  0
LINE
  6
continous
  8
BYBLOCK
 10
2714.0526
 20
1919.5015
 30
0.0000
 11
2714.0526
 21
1922.2850
 31
0.0000
  0
LINE
  6
continous
  8
BYBLOCK
 10
2715.5087
 20
1920.7920
 30
0.0000
 11
2714.0526
 21
1919.5015
 31
0.0000
  0
LINE
  6
continous
  8
BYBLOCK
 10
2715.5022
 20
1923.3100
 30
0.0000
 11
2715.5022
 21
1924.4551
 31
0.0000
  0
POLYLINE
  6
continous
  8
BYBLOCK
 70
0
 66
1
  0
VERTEX
  8
0
 10
2716.9582
 20
1925.0231
 30
0.0000
  0
VERTEX
  8
0
 10
2715.5022
 20
1923.3100
 30
0.0000
  0
SEQEND
  0
LINE
  6
continous
  8
BYBLOCK
 10
2716.9582
 20
1925.7964
 30
0.0000
 11
2715.5022
 21
1924.4551
 31
0.0000
  0
LINE
  6
continous
  8
BYBLOCK
 10
2715.5022
 20
1924.4551
 30
0.0000
 11
2715.1522
 21
1925.0526
 31
0.0000
  0
LINE
  6
continous
  8
BYBLOCK
 10
2715.1522
 20
1925.0526
 30
0.0000
 11
2706.2355
 21
1931.3576
 31
0.0000
  0
LINE
  6
continous
  8
BYBLOCK
 10
2708.1324
 20
1932.2046
 30
0.0000
 11
2706.2355
 21
1931.3576
 31
0.0000
  0
LINE
  6
continous
  8
BYBLOCK
 10
2716.7908
 20
1926.0822
 30
0.0000
 11
2715.1522
 21
1925.0526
 31
0.0000
  0
LINE
  6
continous
  8
BYBLOCK
 10
2708.1324
 20
1932.2046
 30
0.0000
 11
2707.9650
 21
1932.1556
 31
0.0000
  0
LINE
  6
continous
  8
BYBLOCK
 10
2717.4532
 20
1915.4480
 30
0.0000
 11
2717.4532
 21
1916.9038
 31
0.0000
  0
LINE
  6
continous
  8
BYBLOCK
 10
2717.4532
 20
1916.9038
 30
0.0000
 11
2716.9582
 21
1917.5396
 31
0.0000
  0
LINE
  6
continous
  8
BYBLOCK
 10
2716.9582
 20
1917.5396
 30
0.0000
 11
2716.9582
 21
1918.5477
 31
0.0000
  0
POLYLINE
  6
continous
  8
BYBLOCK
 70
0
 66
1
  0
VERTEX
  8
0
 10
2716.9582
 20
1918.5477
 30
0.0000
  0
VERTEX
  8
0
 10
2716.6164
 20
1918.9607
 30
0.0000
  0
VERTEX
  8
0
 10
2716.3299
 20
1919.4165
 30
0.0000
  0
VERTEX
  8
0
 10
2716.1179
 20
1919.8846
 30
0.0000
  0
VERTEX
  8
0
 10
2716.0486
 20
1920.0984
 30
0.0000
  0
SEQEND
  0
LINE
  6
continous
  8
BYBLOCK
 10
2716.0486
 20
1920.0984
 30
0.0000
 11
2715.5087
 21
1920.7920
 31
0.0000
  0
LINE
  6
continous
  8
BYBLOCK
 10
2715.5087
 20
1920.7920
 30
0.0000
 11
2715.5087
 21
1923.3177
 31
0.0000
  0
LINE
  6
continous
  8
BYBLOCK
 10
2716.9582
 20
1925.0231
 30
0.0000
 11
2716.9582
 21
1925.7964
 31
0.0000
  0
LINE
  6
continous
  8
BYBLOCK
 10
2716.9582
 20
1925.7964
 30
0.0000
 11
2716.7908
 21
1926.0822
 31
0.0000
  0
LINE
  6
continous
  8
BYBLOCK
 10
2716.7908
 20
1926.0822
 30
0.0000
 11
2708.1324
 21
1932.2046
 31
0.0000
  0
POLYLINE
  6
continous
  8
BYBLOCK
 70
0
 66
1
  0
VERTEX
  8
0
 10
17.1827
 20
27.2344
 30
0.0000
  0
VERTEX
  8
0
 10
16.7746
 20
26.8916
 30
0.0000
  0
VERTEX
  8
0
 10
16.4553
 20
26.5046
 30
0.0000
  0
VERTEX
  8
0
 10
16.2340
 20
26.0847
 30
0.0000
  0
VERTEX
  8
0
 10
16.1173
 20
25.6443
 30
0.0000
  0
VERTEX
  8
0
 10
16.0993
 20
25.4204
 30
0.0000
  0
SEQEND
  0
POLYLINE
  6
continous
  8
BYBLOCK
 70
0
 66
1
  0
VERTEX
  8
0
 10
23.4987
 20
25.4189
 30
0.0000
  0
VERTEX
  8
0
 10
23.4347
 20
25.8701
 30
0.0000
  0
VERTEX
  8
0
 10
23.2614
 20
26.3068
 30
0.0000
  0
VERTEX
  8
0
 10
22.9842
 20
26.7157
 30
0.0000
  0
VERTEX
  8
0
 10
22.6112
 20
27.0846
 30
0.0000
  0
VERTEX
  8
0
 10
22.1038
 20
27.4311
 30
0.0000
  0
VERTEX
  8
0
 10
21.5127
 20
27.7032
 30
0.0000
  0
VERTEX
  8
0
 10
20.8593
 20
27.8910
 30
0.0000
  0
VERTEX
  8
0
 10
20.1674
 20
27.9877
 30
0.0000
  0
VERTEX
  8
0
 10
19.4621
 20
27.9898
 30
0.0000
  0
VERTEX
  8
0
 10
18.7691
 20
27.8973
 30
0.0000
  0
VERTEX
  8
0
 10
18.1134
 20
27.7135
 30
0.0000
  0
VERTEX
  8
0
 10
17.5191
 20
27.4450
 30
0.0000
  0
VERTEX
  8
0
 10
17.1827
 20
27.2344
 30
0.0000
  0
SEQEND
  0
ENDBLK
  8
0
  0
ENDSEC
  0
SECTION
  2
ENTITIES
  0
INSERT
  8
REX_6
  2
_VIEW_CUT_Jan_16_22-21-48
 10
0.0000
 20
0.0000
 30
0.0000
  0
ENDSEC
  0
EOF
