  0
SECTION
  2
HEADER
  9
$ACADVER
  1
AC1009
  9
$INSBASE
 10
0.0
 20
0.0
 30
0.0
  9
$EXTMIN
 10
-296.546250
 20
-210.759550
 30
1.000000E+020
  9
$EXTMAX
 10
3124.973375
 20
2232.882507
 30
-1.000000E+020
  9
$LIMMIN
 10
0.0
 20
0.0
  9
$LIMMAX
 10
420.0
 20
297.0
  9
$ORTHOMODE
 70
     0
  9
$REGENMODE
 70
     1
  9
$FILLMODE
 70
     1
  9
$QTEXTMODE
 70
     0
  9
$MIRRTEXT
 70
     1
  9
$DRAGMODE
 70
     2
  9
$LTSCALE
 40
1.000000
  9
$OSMODE
 70
   103
  9
$ATTMODE
 70
     1
  9
$TEXTSIZE
 40
2.5
  9
$TRACEWID
 40
1.0
  9
$TEXTSTYLE
  7
STANDARD
  9
$CLAYER
  8
RAHM4
  9
$CELTYPE
  6
BYLAYER
  9
$CECOLOR
 62
   256
  9
$DIMSCALE
 40
1.0
  9
$DIMASZ
 40
2.5
  9
$DIMEXO
 40
0.625
  9
$DIMDLI
 40
3.75
  9
$DIMRND
 40
0.0
  9
$DIMDLE
 40
0.0
  9
$DIMEXE
 40
1.25
  9
$DIMTP
 40
0.0
  9
$DIMTM
 40
0.0
  9
$DIMTXT
 40
2.5
  9
$DIMCEN
 40
2.5
  9
$DIMTSZ
 40
0.0
  9
$DIMTOL
 70
     0
  9
$DIMLIM
 70
     0
  9
$DIMTIH
 70
     0
  9
$DIMTOH
 70
     0
  9
$DIMSE1
 70
     0
  9
$DIMSE2
 70
     0
  9
$DIMTAD
 70
     1
  9
$DIMZIN
 70
     8
  9
$DIMBLK
  1

  9
$DIMASO
 70
     1
  9
$DIMSHO
 70
     1
  9
$DIMPOST
  1

  9
$DIMAPOST
  1

  9
$DIMALT
 70
     0
  9
$DIMALTD
 70
     3
  9
$DIMALTF
 40
0.03937
  9
$DIMLFAC
 40
1.0
  9
$DIMTOFL
 70
     1
  9
$DIMTVP
 40
0.0
  9
$DIMTIX
 70
     0
  9
$DIMSOXD
 70
     0
  9
$DIMSAH
 70
     0
  9
$DIMBLK1
  1

  9
$DIMBLK2
  1

  9
$DIMSTYLE
  2
ISO-25
  9
$DIMCLRD
 70
     0
  9
$DIMCLRE
 70
     0
  9
$DIMCLRT
 70
     0
  9
$DIMTFAC
 40
1.0
  9
$DIMGAP
 40
0.625
  9
$LUNITS
 70
     2
  9
$LUPREC
 70
     4
  9
$SKETCHINC
 40
1.0
  9
$FILLETRAD
 40
10.0
  9
$AUNITS
 70
     0
  9
$AUPREC
 70
     0
  9
$MENU
  1
.
  9
$ELEVATION
 40
0.0
  9
$PELEVATION
 40
0.0
  9
$THICKNESS
 40
0.0
  9
$LIMCHECK
 70
     0
  9
$BLIPMODE
 70
     0
  9
$CHAMFERA
 40
10.0
  9
$CHAMFERB
 40
10.0
  9
$SKPOLY
 70
     0
  9
$TDCREATE
 40
2452830.438142
  9
$TDUPDATE
 40
2453952.51541
  9
$TDINDWG
 40
0.030794
  9
$TDUSRTIMER
 40
0.030789
  9
$USRTIMER
 70
     1
  9
$ANGBASE
 50
0.0
  9
$ANGDIR
 70
     0
  9
$PDMODE
 70
     0
  9
$PDSIZE
 40
0.0
  9
$PLINEWID
 40
0.0
  9
$COORDS
 70
     1
  9
$SPLFRAME
 70
     0
  9
$SPLINETYPE
 70
     6
  9
$SPLINESEGS
 70
     8
  9
$ATTDIA
 70
     0
  9
$ATTREQ
 70
     1
  9
$SURFTAB1
 70
     6
  9
$SURFTAB2
 70
     6
  9
$SURFTYPE
 70
     6
  9
$SURFU
 70
     6
  9
$SURFV
 70
     6
  9
$UCSNAME
  2

  9
$UCSORG
 10
0.0
 20
0.0
 30
0.0
  9
$UCSXDIR
 10
1.0
 20
0.0
 30
0.0
  9
$UCSYDIR
 10
0.0
 20
1.0
 30
0.0
  9
$PUCSNAME
  2

  9
$PUCSORG
 10
0.0
 20
0.0
 30
0.0
  9
$PUCSXDIR
 10
1.0
 20
0.0
 30
0.0
  9
$PUCSYDIR
 10
0.0
 20
1.0
 30
0.0
  9
$USERI1
 70
     0
  9
$USERI2
 70
     0
  9
$USERI3
 70
     0
  9
$USERI4
 70
     0
  9
$USERI5
 70
     0
  9
$USERR1
 40
0.0
  9
$USERR2
 40
0.0
  9
$USERR3
 40
0.0
  9
$USERR4
 40
0.0
  9
$USERR5
 40
0.0
  9
$WORLDVIEW
 70
     1
  9
$SHADEDGE
 70
     3
  9
$SHADEDIF
 70
    70
  9
$TILEMODE
 70
     1
  9
$MAXACTVP
 70
    64
  9
$PLIMCHECK
 70
     0
  9
$PEXTMIN
 10
1.000000E+020
 20
1.000000E+020
 30
1.000000E+020
  9
$PEXTMAX
 10
-1.000000E+020
 20
-1.000000E+020
 30
-1.000000E+020
  9
$PLIMMIN
 10
0.0
 20
0.0
  9
$PLIMMAX
 10
420.0
 20
297.0
  9
$UNITMODE
 70
     0
  9
$VISRETAIN
 70
     1
  9
$PLINEGEN
 70
     0
  9
$PSLTSCALE
 70
     1
  0
ENDSEC
  0
SECTION
  2
TABLES
  0
TABLE
  2
VPORT
 70
     2
  0
VPORT
  2
*ACTIVE
 70
     0
 10
0.0
 20
0.0
 11
1.0
 21
1.0
 12
424.672198
 22
148.5
 13
0.0
 23
0.0
 14
10.0
 24
10.0
 15
10.0
 25
10.0
 16
0.0
 26
0.0
 36
1.0
 17
0.0
 27
0.0
 37
0.0
 40
297.194831
 41
2.858921
 42
50.0
 43
0.0
 44
0.0
 50
0.0
 51
0.0
 71
     0
 72
   100
 73
     1
 74
     3
 75
     0
 76
     0
 77
     0
 78
     0
  0
ENDTAB
  0
TABLE
  2
LTYPE
 70
     5
  0
LTYPE
  2
CONTINUOUS
  70
0
  3
Solid line
 72
65
 73
0
 40
0.0
  0
LTYPE
  2
ACAD_ISO10W100
  70
0
  3
ISO Strichpunktlinie __ . __ . __ . __ . __ . _
 72
65
 73
4
 40
18.0
 49
12.0
 49
-3.0
 49
0.0
 49
-3.0
  0
LTYPE
  2
ACAD_ISO02W100
  70
0
  3
ISO Strichlinie __ __ __ __ __ __ __ __ __ __ _
 72
65
 73
2
 40
15.0
 49
12.0
 49
-3.0
  0
LTYPE
  2
STRICHLINIE
  70
0
  3
Strichlinie __ __ __ __ __ __ __ __ __ __ __ __
 72
65
 73
2
 40
0.75
 49
0.5
 49
-0.25
  0
LTYPE
  2
STRICHPUNKT
  70
0
  3
Strichpunkt __ . __ . __ . __ . __ . __ . __ . 
 72
65
 73
4
 40
1.0
 49
0.5
 49
-0.25
 49
0.0
 49
-0.25
  0
ENDTAB
  0
TABLE
  2
LAYER
 70
    14
  0
LAYER
  2
0
 70
0
 62
7
  6
CONTINUOUS
  0
LAYER
  2
REX_1
 70
0
 62
7
  6
CONTINUOUS
  0
LAYER
  2
REX_7
 70
0
 62
5
  6
STRICHPUNKT
  0
LAYER
  2
SILHOUETTE
 70
0
 62
7
  6
CONTINUOUS
  0
LAYER
  2
REX_8
 70
0
 62
1
  6
CONTINUOUS
  0
LAYER
  2
REX_3
 70
0
 62
6
  6
STRICHLINIE
  0
LAYER
  2
REX_4
 70
0
 62
5
  6
CONTINUOUS
  0
LAYER
  2
REX_5
 70
0
 62
3
  6
CONTINUOUS
  0
LAYER
  2
REX_6
 70
0
 62
40
  6
CONTINUOUS
  0
LAYER
  2
RAHM2
 70
0
 62
7
  6
CONTINUOUS
  0
LAYER
  2
RAHM3
 70
0
 62
7
  6
CONTINUOUS
  0
LAYER
  2
RAHM4
 70
0
 62
7
  6
CONTINUOUS
  0
LAYER
  2
RAHM5
 70
0
 62
7
  6
CONTINUOUS
  0
LAYER
  2
RAHMEN
 70
0
 62
7
  6
CONTINUOUS
  0
ENDTAB
  0
TABLE
  2
STYLE
 70
     3
  0
STYLE
  2
STANDARD
 70
     0
 40
0.0
 41
1.0
 50
0.0
 71
     0
 42
2.5
  3
isocp.shx
  4

  0
STYLE
  2
LOGO
 70
     0
 40
0.0
 41
1.0
 50
0.0
 71
     0
 42
0.2
  3
isocp.shx
  4

  0
STYLE
  2

 70
     1
 40
0.0
 41
1.0
 50
0.0
 71
     0
 42
2.5
  3
ltypeshp.shx
  4

  0
ENDTAB
  0
TABLE
  2
VIEW
 70
     0
  0
ENDTAB
  0
TABLE
  2
UCS
 70
     0
  0
ENDTAB
  0
TABLE
  2
APPID
 70
2
  0
APPID
  2
ACAD
 70
     0
  0
APPID
  2
DCO15
 70
     0
  0
ENDTAB
  0
TABLE
  2
DIMSTYLE
 70
     1
  0
DIMSTYLE
  2
ISO-25
 70
     0
  3

  4

  5

  6

  7

 40
1.0
 41
2.5
 42
0.625
 43
3.75
 44
1.25
 45
0.0
 46
0.0
 47
0.0
 48
0.0
140
2.5
141
2.5
142
0.0
143
0.03937
144
1.0
145
0.0
146
1.0
147
0.625
 71
     0
 72
     0
 73
     0
 74
     0
 75
     0
 76
     0
 77
     1
 78
     8
170
     0
171
     3
172
     1
173
     0
174
     0
175
     0
176
     0
177
     0
178
     0
  0
ENDTAB
  0
ENDSEC
  0
SECTION
  2
BLOCKS
  0
BLOCK
  8
REX_7
  2
8REX_MID_Jan_16_22-24-07
 70
0
 10
0.0000
 20
0.0000
 30
0.0000
  3
8REX_MID_Jan_16_22-24-07
  0
ENDBLK
  8
0
  0
BLOCK
  8
REX_1
  2
_VIEW_CUT_Jan_16_22-24-07
 70
0
 10
0.0000
 20
0.0000
 30
0.0000
  3
_VIEW_CUT_Jan_16_22-24-07
  0
INSERT
  8
REX_6
  2
8REX_MID_Jan_16_22-24-07
 10
0.0000
 20
0.0000
 30
0.0000
  0
POLYLINE
  6
continous
  8
BYBLOCK
 70
0
 66
1
  0
VERTEX
  8
0
 10
-7.7073
 20
15.7653
 30
0.0000
  0
VERTEX
  8
0
 10
-8.4822
 20
14.8200
 30
0.0000
  0
SEQEND
  0
POLYLINE
  6
continous
  8
BYBLOCK
 70
0
 66
1
  0
VERTEX
  8
0
 10
-8.1317
 20
16.7167
 30
0.0000
  0
VERTEX
  8
0
 10
-10.3590
 20
13.8313
 30
0.0000
  0
SEQEND
  0
LINE
  6
continous
  8
BYBLOCK
 10
-10.3590
 20
13.6682
 30
0.0000
 11
-11.4196
 21
12.3480
 31
0.0000
  0
LINE
  6
continous
  8
BYBLOCK
 10
-7.7817
 20
32.0239
 30
0.0000
 11
-10.3583
 21
29.2481
 31
0.0000
  0
LINE
  6
continous
  8
BYBLOCK
 10
14.8492
 20
-5.6515
 30
0.0000
 11
2837.6195
 21
1990.3485
 31
0.0000
  0
LINE
  6
continous
  8
BYBLOCK
 10
14.8492
 20
-1.8798
 30
0.0000
 11
2837.6195
 21
1994.1202
 31
0.0000
  0
LINE
  6
continous
  8
BYBLOCK
 10
13.7886
 20
-0.5174
 30
0.0000
 11
2836.5589
 21
1995.4826
 31
0.0000
  0
LINE
  6
continous
  8
BYBLOCK
 10
13.7886
 20
1.2167
 30
0.0000
 11
2836.5589
 21
1997.2167
 31
0.0000
  0
LINE
  6
continous
  8
BYBLOCK
 10
11.8840
 20
4.7821
 30
0.0000
 11
2834.6542
 21
2000.7821
 31
0.0000
  0
LINE
  6
continous
  8
BYBLOCK
 10
11.1369
 20
5.7417
 30
0.0000
 11
2833.9072
 21
2001.7417
 31
0.0000
  0
LINE
  6
continous
  8
BYBLOCK
 10
13.7886
 20
13.4463
 30
0.0000
 11
2836.5589
 21
2009.4463
 31
0.0000
  0
LINE
  6
continous
  8
BYBLOCK
 10
13.7886
 20
16.4214
 30
0.0000
 11
2836.5589
 21
2012.4214
 31
0.0000
  0
LINE
  6
continous
  8
BYBLOCK
 10
13.4386
 20
17.0188
 30
0.0000
 11
10.3617
 21
14.5968
 31
0.0000
  0
LINE
  6
continous
  8
BYBLOCK
 10
13.7886
 20
16.4214
 30
0.0000
 11
13.4386
 21
17.0188
 31
0.0000
  0
LINE
  6
continous
  8
BYBLOCK
 10
13.7886
 20
16.4214
 30
0.0000
 11
10.3617
 21
14.5968
 31
0.0000
  0
LINE
  6
continous
  8
BYBLOCK
 10
13.7886
 20
13.4463
 30
0.0000
 11
13.7886
 21
16.4214
 31
0.0000
  0
POLYLINE
  6
continous
  8
BYBLOCK
 70
0
 66
1
  0
VERTEX
  8
0
 10
13.7886
 20
13.4463
 30
0.0000
  0
VERTEX
  8
0
 10
10.3590
 20
12.3317
 30
0.0000
  0
SEQEND
  0
POLYLINE
  6
continous
  8
BYBLOCK
 70
0
 66
1
  0
VERTEX
  8
0
 10
11.9071
 20
12.8454
 30
0.0000
  0
VERTEX
  8
0
 10
11.8840
 20
12.5744
 30
0.0000
  0
SEQEND
  0
POLYLINE
  6
continous
  8
BYBLOCK
 70
0
 66
1
  0
VERTEX
  8
0
 10
11.8840
 20
12.5744
 30
0.0000
  0
VERTEX
  8
0
 10
8.4822
 20
11.3430
 30
0.0000
  0
SEQEND
  0
LINE
  6
continous
  8
BYBLOCK
 10
11.1369
 20
5.7417
 30
0.0000
 11
11.1369
 21
12.3057
 31
0.0000
  0
LINE
  6
continous
  8
BYBLOCK
 10
11.1369
 20
5.7417
 30
0.0000
 11
7.7073
 21
3.8197
 31
0.0000
  0
LINE
  6
continous
  8
BYBLOCK
 10
11.8840
 20
4.7821
 30
0.0000
 11
11.1369
 21
5.7417
 31
0.0000
  0
POLYLINE
  6
continous
  8
BYBLOCK
 70
0
 66
1
  0
VERTEX
  8
0
 10
11.8840
 20
4.7821
 30
0.0000
  0
VERTEX
  8
0
 10
8.4822
 20
2.8244
 30
0.0000
  0
SEQEND
  0
POLYLINE
  6
continous
  8
BYBLOCK
 70
0
 66
1
  0
VERTEX
  8
0
 10
11.8840
 20
4.7821
 30
0.0000
  0
VERTEX
  8
0
 10
11.9413
 20
4.2702
 30
0.0000
  0
VERTEX
  8
0
 10
12.0946
 20
3.7124
 30
0.0000
  0
VERTEX
  8
0
 10
12.3612
 20
3.0841
 30
0.0000
  0
VERTEX
  8
0
 10
12.7192
 20
2.4618
 30
0.0000
  0
VERTEX
  8
0
 10
13.1505
 20
1.8768
 30
0.0000
  0
VERTEX
  8
0
 10
13.6333
 20
1.3585
 30
0.0000
  0
VERTEX
  8
0
 10
13.7886
 20
1.2167
 30
0.0000
  0
SEQEND
  0
POLYLINE
  6
continous
  8
BYBLOCK
 70
0
 66
1
  0
VERTEX
  8
0
 10
13.7886
 20
1.2167
 30
0.0000
  0
VERTEX
  8
0
 10
10.3590
 20
-0.8185
 30
0.0000
  0
SEQEND
  0
LINE
  6
continous
  8
BYBLOCK
 10
13.7886
 20
-0.5174
 30
0.0000
 11
13.7886
 21
1.2167
 31
0.0000
  0
LINE
  6
continous
  8
BYBLOCK
 10
13.7886
 20
-0.5174
 30
0.0000
 11
10.3590
 21
-2.4394
 31
0.0000
  0
LINE
  6
continous
  8
BYBLOCK
 10
14.8492
 20
-1.8798
 30
0.0000
 11
13.7886
 21
-0.5174
 31
0.0000
  0
LINE
  6
continous
  8
BYBLOCK
 10
14.8492
 20
-1.8798
 30
0.0000
 11
11.4196
 21
-3.8018
 31
0.0000
  0
LINE
  6
continous
  8
BYBLOCK
 10
14.8492
 20
-5.6515
 30
0.0000
 11
14.8492
 21
-1.8798
 31
0.0000
  0
LINE
  6
continous
  8
BYBLOCK
 10
14.8492
 20
-5.6515
 30
0.0000
 11
11.4196
 21
-6.9773
 31
0.0000
  0
LINE
  6
continous
  8
BYBLOCK
 10
-11.4196
 20
9.1724
 30
0.0000
 11
-10.9233
 21
8.3251
 31
0.0000
  0
LINE
  6
continous
  8
BYBLOCK
 10
-11.4196
 20
12.3480
 30
0.0000
 11
-11.4196
 21
9.1724
 31
0.0000
  0
LINE
  6
continous
  8
BYBLOCK
 10
-10.3590
 20
12.2104
 30
0.0000
 11
-11.4196
 21
12.3480
 31
0.0000
  0
LINE
  6
continous
  8
BYBLOCK
 10
-10.3590
 20
13.8313
 30
0.0000
 11
-10.3590
 21
12.2104
 31
0.0000
  0
POLYLINE
  6
continous
  8
BYBLOCK
 70
0
 66
1
  0
VERTEX
  8
0
 10
-8.7977
 20
14.0784
 30
0.0000
  0
VERTEX
  8
0
 10
-9.0418
 20
13.8707
 30
0.0000
  0
VERTEX
  8
0
 10
-9.3788
 20
13.7368
 30
0.0000
  0
VERTEX
  8
0
 10
-9.7750
 20
13.7087
 30
0.0000
  0
VERTEX
  8
0
 10
-10.2186
 20
13.7872
 30
0.0000
  0
VERTEX
  8
0
 10
-10.3590
 20
13.8313
 30
0.0000
  0
SEQEND
  0
POLYLINE
  6
continous
  8
BYBLOCK
 70
0
 66
1
  0
VERTEX
  8
0
 10
-8.4822
 20
14.8200
 30
0.0000
  0
VERTEX
  8
0
 10
-8.5898
 20
14.4229
 30
0.0000
  0
VERTEX
  8
0
 10
-8.7751
 20
14.1054
 30
0.0000
  0
VERTEX
  8
0
 10
-8.7977
 20
14.0784
 30
0.0000
  0
SEQEND
  0
LINE
  6
continous
  8
BYBLOCK
 10
-7.7073
 20
14.7194
 30
0.0000
 11
-8.4822
 21
14.8200
 31
0.0000
  0
LINE
  6
continous
  8
BYBLOCK
 10
-7.7073
 20
22.3433
 30
0.0000
 11
-7.7073
 21
14.7194
 31
0.0000
  0
LINE
  6
continous
  8
BYBLOCK
 10
-8.4822
 20
23.3386
 30
0.0000
 11
-7.7073
 21
22.3433
 31
0.0000
  0
POLYLINE
  6
continous
  8
BYBLOCK
 70
0
 66
1
  0
VERTEX
  8
0
 10
-10.3590
 20
26.9814
 30
0.0000
  0
VERTEX
  8
0
 10
-9.8232
 20
26.3428
 30
0.0000
  0
VERTEX
  8
0
 10
-9.3520
 20
25.6456
 30
0.0000
  0
VERTEX
  8
0
 10
-8.9653
 20
24.9194
 30
0.0000
  0
VERTEX
  8
0
 10
-8.6795
 20
24.1950
 30
0.0000
  0
VERTEX
  8
0
 10
-8.5166
 20
23.5587
 30
0.0000
  0
VERTEX
  8
0
 10
-8.4822
 20
23.3386
 30
0.0000
  0
SEQEND
  0
LINE
  6
continous
  8
BYBLOCK
 10
10.3617
 20
14.5968
 30
0.0000
 11
-10.3583
 21
29.2481
 31
0.0000
  0
LINE
  6
continous
  8
BYBLOCK
 10
10.3590
 20
12.3317
 30
0.0000
 11
10.3617
 21
14.5968
 31
0.0000
  0
POLYLINE
  6
continous
  8
BYBLOCK
 70
0
 66
1
  0
VERTEX
  8
0
 10
9.2075
 20
12.3744
 30
0.0000
  0
VERTEX
  8
0
 10
9.5742
 20
12.4539
 30
0.0000
  0
VERTEX
  8
0
 10
9.9937
 20
12.4279
 30
0.0000
  0
VERTEX
  8
0
 10
10.3590
 20
12.3317
 30
0.0000
  0
SEQEND
  0
POLYLINE
  6
continous
  8
BYBLOCK
 70
0
 66
1
  0
VERTEX
  8
0
 10
8.4822
 20
11.3430
 30
0.0000
  0
VERTEX
  8
0
 10
8.5926
 20
11.7467
 30
0.0000
  0
VERTEX
  8
0
 10
8.7834
 20
12.0677
 30
0.0000
  0
VERTEX
  8
0
 10
9.0490
 20
12.2966
 30
0.0000
  0
VERTEX
  8
0
 10
9.2075
 20
12.3744
 30
0.0000
  0
SEQEND
  0
LINE
  6
continous
  8
BYBLOCK
 10
7.7073
 20
11.4435
 30
0.0000
 11
8.4822
 21
11.3430
 31
0.0000
  0
LINE
  6
continous
  8
BYBLOCK
 10
7.7073
 20
3.8197
 30
0.0000
 11
7.7073
 21
11.4435
 31
0.0000
  0
LINE
  6
continous
  8
BYBLOCK
 10
8.4822
 20
2.8244
 30
0.0000
 11
7.7073
 21
3.8197
 31
0.0000
  0
POLYLINE
  6
continous
  8
BYBLOCK
 70
0
 66
1
  0
VERTEX
  8
0
 10
10.3590
 20
-0.8185
 30
0.0000
  0
VERTEX
  8
0
 10
9.8232
 20
-0.1799
 30
0.0000
  0
VERTEX
  8
0
 10
9.3520
 20
0.5173
 30
0.0000
  0
VERTEX
  8
0
 10
8.9653
 20
1.2435
 30
0.0000
  0
VERTEX
  8
0
 10
8.6795
 20
1.9680
 30
0.0000
  0
VERTEX
  8
0
 10
8.5166
 20
2.6042
 30
0.0000
  0
VERTEX
  8
0
 10
8.4822
 20
2.8244
 30
0.0000
  0
SEQEND
  0
LINE
  6
continous
  8
BYBLOCK
 10
10.3590
 20
-2.4394
 30
0.0000
 11
10.3590
 21
-0.8185
 31
0.0000
  0
LINE
  6
continous
  8
BYBLOCK
 10
11.4196
 20
-3.8018
 30
0.0000
 11
10.3590
 21
-2.4394
 31
0.0000
  0
LINE
  6
continous
  8
BYBLOCK
 10
11.4196
 20
-6.9773
 30
0.0000
 11
11.4196
 21
-3.8018
 31
0.0000
  0
LINE
  6
continous
  8
BYBLOCK
 10
10.9233
 20
-7.1227
 30
0.0000
 11
11.4196
 21
-6.9773
 31
0.0000
  0
LINE
  6
continous
  8
BYBLOCK
 10
-10.9233
 20
8.3251
 30
0.0000
 11
10.9233
 21
-7.1227
 31
0.0000
  0
LINE
  6
continous
  8
BYBLOCK
 10
-8.1317
 20
31.9214
 30
0.0000
 11
-10.3583
 21
29.2481
 31
0.0000
  0
LINE
  6
continous
  8
BYBLOCK
 10
-10.3583
 20
29.2481
 30
0.0000
 11
-10.3590
 21
26.9814
 31
0.0000
  0
POLYLINE
  6
continous
  8
BYBLOCK
 70
0
 66
1
  0
VERTEX
  8
0
 10
-8.1317
 20
16.7167
 30
0.0000
  0
VERTEX
  8
0
 10
-7.7073
 20
16.5319
 30
0.0000
  0
SEQEND
  0
POLYLINE
  6
continous
  8
BYBLOCK
 70
0
 66
1
  0
VERTEX
  8
0
 10
2794.8396
 20
2006.2006
 30
0.0000
  0
VERTEX
  8
0
 10
2794.1586
 20
2005.6475
 30
0.0000
  0
VERTEX
  8
0
 10
2793.5922
 20
2005.0331
 30
0.0000
  0
VERTEX
  8
0
 10
2793.1510
 20
2004.3694
 30
0.0000
  0
VERTEX
  8
0
 10
2792.8435
 20
2003.6691
 30
0.0000
  0
VERTEX
  8
0
 10
2792.6756
 20
2002.9454
 30
0.0000
  0
VERTEX
  8
0
 10
2792.6430
 20
2002.4874
 30
0.0000
  0
SEQEND
  0
LINE
  6
continous
  8
BYBLOCK
 10
2794.8396
 20
2006.2006
 30
0.0000
 11
2794.8396
 21
2006.2714
 31
0.0000
  0
POLYLINE
  6
continous
  8
BYBLOCK
 70
0
 66
1
  0
VERTEX
  8
0
 10
2807.6427
 20
2002.4843
 30
0.0000
  0
VERTEX
  8
0
 10
2807.5635
 20
2003.2201
 30
0.0000
  0
VERTEX
  8
0
 10
2807.3406
 20
2003.9410
 30
0.0000
  0
VERTEX
  8
0
 10
2806.9784
 20
2004.6330
 30
0.0000
  0
VERTEX
  8
0
 10
2806.4839
 20
2005.2827
 30
0.0000
  0
VERTEX
  8
0
 10
2805.8666
 20
2005.8777
 30
0.0000
  0
VERTEX
  8
0
 10
2805.1385
 20
2006.4063
 30
0.0000
  0
VERTEX
  8
0
 10
2804.3136
 20
2006.8583
 30
0.0000
  0
VERTEX
  8
0
 10
2803.4081
 20
2007.2250
 30
0.0000
  0
VERTEX
  8
0
 10
2802.3147
 20
2007.5267
 30
0.0000
  0
VERTEX
  8
0
 10
2801.1681
 20
2007.7042
 30
0.0000
  0
VERTEX
  8
0
 10
2799.9964
 20
2007.7529
 30
0.0000
  0
VERTEX
  8
0
 10
2798.8283
 20
2007.6718
 30
0.0000
  0
VERTEX
  8
0
 10
2797.6924
 20
2007.4629
 30
0.0000
  0
VERTEX
  8
0
 10
2796.7323
 20
2007.1739
 30
0.0000
  0
VERTEX
  8
0
 10
2795.8381
 20
2006.7934
 30
0.0000
  0
VERTEX
  8
0
 10
2795.0273
 20
2006.3289
 30
0.0000
  0
VERTEX
  8
0
 10
2794.8396
 20
2006.2006
 30
0.0000
  0
SEQEND
  0
POLYLINE
  6
continous
  8
BYBLOCK
 70
0
 66
1
  0
VERTEX
  8
0
 10
2738.2710
 20
1966.2006
 30
0.0000
  0
VERTEX
  8
0
 10
2737.5901
 20
1965.6475
 30
0.0000
  0
VERTEX
  8
0
 10
2737.0236
 20
1965.0331
 30
0.0000
  0
VERTEX
  8
0
 10
2736.5824
 20
1964.3694
 30
0.0000
  0
VERTEX
  8
0
 10
2736.2749
 20
1963.6691
 30
0.0000
  0
VERTEX
  8
0
 10
2736.1070
 20
1962.9454
 30
0.0000
  0
VERTEX
  8
0
 10
2736.0745
 20
1962.4874
 30
0.0000
  0
SEQEND
  0
LINE
  6
continous
  8
BYBLOCK
 10
2738.2710
 20
1966.2006
 30
0.0000
 11
2738.2710
 21
1966.2714
 31
0.0000
  0
POLYLINE
  6
continous
  8
BYBLOCK
 70
0
 66
1
  0
VERTEX
  8
0
 10
2751.0742
 20
1962.4843
 30
0.0000
  0
VERTEX
  8
0
 10
2750.9949
 20
1963.2201
 30
0.0000
  0
VERTEX
  8
0
 10
2750.7721
 20
1963.9410
 30
0.0000
  0
VERTEX
  8
0
 10
2750.4099
 20
1964.6330
 30
0.0000
  0
VERTEX
  8
0
 10
2749.9153
 20
1965.2827
 30
0.0000
  0
VERTEX
  8
0
 10
2749.2980
 20
1965.8777
 30
0.0000
  0
VERTEX
  8
0
 10
2748.5699
 20
1966.4063
 30
0.0000
  0
VERTEX
  8
0
 10
2747.7451
 20
1966.8583
 30
0.0000
  0
VERTEX
  8
0
 10
2746.8395
 20
1967.2250
 30
0.0000
  0
VERTEX
  8
0
 10
2745.7462
 20
1967.5267
 30
0.0000
  0
VERTEX
  8
0
 10
2744.5996
 20
1967.7042
 30
0.0000
  0
VERTEX
  8
0
 10
2743.4279
 20
1967.7529
 30
0.0000
  0
VERTEX
  8
0
 10
2742.2598
 20
1967.6718
 30
0.0000
  0
VERTEX
  8
0
 10
2741.1239
 20
1967.4629
 30
0.0000
  0
VERTEX
  8
0
 10
2740.1637
 20
1967.1739
 30
0.0000
  0
VERTEX
  8
0
 10
2739.2696
 20
1966.7934
 30
0.0000
  0
VERTEX
  8
0
 10
2738.4588
 20
1966.3289
 30
0.0000
  0
VERTEX
  8
0
 10
2738.2710
 20
1966.2006
 30
0.0000
  0
SEQEND
  0
POLYLINE
  6
continous
  8
BYBLOCK
 70
0
 66
1
  0
VERTEX
  8
0
 10
2681.7025
 20
1926.2006
 30
0.0000
  0
VERTEX
  8
0
 10
2681.0216
 20
1925.6475
 30
0.0000
  0
VERTEX
  8
0
 10
2680.4551
 20
1925.0331
 30
0.0000
  0
VERTEX
  8
0
 10
2680.0139
 20
1924.3694
 30
0.0000
  0
VERTEX
  8
0
 10
2679.7064
 20
1923.6691
 30
0.0000
  0
VERTEX
  8
0
 10
2679.5385
 20
1922.9454
 30
0.0000
  0
VERTEX
  8
0
 10
2679.5059
 20
1922.4874
 30
0.0000
  0
SEQEND
  0
LINE
  6
continous
  8
BYBLOCK
 10
2681.7025
 20
1926.2006
 30
0.0000
 11
2681.7025
 21
1926.2714
 31
0.0000
  0
POLYLINE
  6
continous
  8
BYBLOCK
 70
0
 66
1
  0
VERTEX
  8
0
 10
2694.5056
 20
1922.4843
 30
0.0000
  0
VERTEX
  8
0
 10
2694.4264
 20
1923.2201
 30
0.0000
  0
VERTEX
  8
0
 10
2694.2035
 20
1923.9410
 30
0.0000
  0
VERTEX
  8
0
 10
2693.8413
 20
1924.6330
 30
0.0000
  0
VERTEX
  8
0
 10
2693.3468
 20
1925.2827
 30
0.0000
  0
VERTEX
  8
0
 10
2692.7295
 20
1925.8777
 30
0.0000
  0
VERTEX
  8
0
 10
2692.0014
 20
1926.4063
 30
0.0000
  0
VERTEX
  8
0
 10
2691.1766
 20
1926.8583
 30
0.0000
  0
VERTEX
  8
0
 10
2690.2710
 20
1927.2250
 30
0.0000
  0
VERTEX
  8
0
 10
2689.1776
 20
1927.5267
 30
0.0000
  0
VERTEX
  8
0
 10
2688.0310
 20
1927.7042
 30
0.0000
  0
VERTEX
  8
0
 10
2686.8593
 20
1927.7529
 30
0.0000
  0
VERTEX
  8
0
 10
2685.6912
 20
1927.6718
 30
0.0000
  0
VERTEX
  8
0
 10
2684.5553
 20
1927.4629
 30
0.0000
  0
VERTEX
  8
0
 10
2683.5952
 20
1927.1739
 30
0.0000
  0
VERTEX
  8
0
 10
2682.7011
 20
1926.7934
 30
0.0000
  0
VERTEX
  8
0
 10
2681.8903
 20
1926.3289
 30
0.0000
  0
VERTEX
  8
0
 10
2681.7025
 20
1926.2006
 30
0.0000
  0
SEQEND
  0
POLYLINE
  6
continous
  8
BYBLOCK
 70
0
 66
1
  0
VERTEX
  8
0
 10
2625.1339
 20
1886.2006
 30
0.0000
  0
VERTEX
  8
0
 10
2624.4530
 20
1885.6475
 30
0.0000
  0
VERTEX
  8
0
 10
2623.8866
 20
1885.0331
 30
0.0000
  0
VERTEX
  8
0
 10
2623.4453
 20
1884.3694
 30
0.0000
  0
VERTEX
  8
0
 10
2623.1378
 20
1883.6691
 30
0.0000
  0
VERTEX
  8
0
 10
2622.9699
 20
1882.9454
 30
0.0000
  0
VERTEX
  8
0
 10
2622.9374
 20
1882.4874
 30
0.0000
  0
SEQEND
  0
LINE
  6
continous
  8
BYBLOCK
 10
2625.1339
 20
1886.2006
 30
0.0000
 11
2625.1339
 21
1886.2714
 31
0.0000
  0
POLYLINE
  6
continous
  8
BYBLOCK
 70
0
 66
1
  0
VERTEX
  8
0
 10
2637.9371
 20
1882.4843
 30
0.0000
  0
VERTEX
  8
0
 10
2637.8579
 20
1883.2201
 30
0.0000
  0
VERTEX
  8
0
 10
2637.6350
 20
1883.9410
 30
0.0000
  0
VERTEX
  8
0
 10
2637.2728
 20
1884.6330
 30
0.0000
  0
VERTEX
  8
0
 10
2636.7782
 20
1885.2827
 30
0.0000
  0
VERTEX
  8
0
 10
2636.1609
 20
1885.8777
 30
0.0000
  0
VERTEX
  8
0
 10
2635.4328
 20
1886.4063
 30
0.0000
  0
VERTEX
  8
0
 10
2634.6080
 20
1886.8583
 30
0.0000
  0
VERTEX
  8
0
 10
2633.7025
 20
1887.2250
 30
0.0000
  0
VERTEX
  8
0
 10
2632.6091
 20
1887.5267
 30
0.0000
  0
VERTEX
  8
0
 10
2631.4625
 20
1887.7042
 30
0.0000
  0
VERTEX
  8
0
 10
2630.2908
 20
1887.7529
 30
0.0000
  0
VERTEX
  8
0
 10
2629.1227
 20
1887.6718
 30
0.0000
  0
VERTEX
  8
0
 10
2627.9868
 20
1887.4629
 30
0.0000
  0
VERTEX
  8
0
 10
2627.0266
 20
1887.1739
 30
0.0000
  0
VERTEX
  8
0
 10
2626.1325
 20
1886.7934
 30
0.0000
  0
VERTEX
  8
0
 10
2625.3217
 20
1886.3289
 30
0.0000
  0
VERTEX
  8
0
 10
2625.1339
 20
1886.2006
 30
0.0000
  0
SEQEND
  0
POLYLINE
  6
continous
  8
BYBLOCK
 70
0
 66
1
  0
VERTEX
  8
0
 10
2568.5654
 20
1846.2006
 30
0.0000
  0
VERTEX
  8
0
 10
2567.8845
 20
1845.6475
 30
0.0000
  0
VERTEX
  8
0
 10
2567.3180
 20
1845.0331
 30
0.0000
  0
VERTEX
  8
0
 10
2566.8768
 20
1844.3694
 30
0.0000
  0
VERTEX
  8
0
 10
2566.5693
 20
1843.6691
 30
0.0000
  0
VERTEX
  8
0
 10
2566.4014
 20
1842.9454
 30
0.0000
  0
VERTEX
  8
0
 10
2566.3689
 20
1842.4874
 30
0.0000
  0
SEQEND
  0
LINE
  6
continous
  8
BYBLOCK
 10
2568.5654
 20
1846.2006
 30
0.0000
 11
2568.5654
 21
1846.2714
 31
0.0000
  0
POLYLINE
  6
continous
  8
BYBLOCK
 70
0
 66
1
  0
VERTEX
  8
0
 10
2581.3685
 20
1842.4843
 30
0.0000
  0
VERTEX
  8
0
 10
2581.2893
 20
1843.2201
 30
0.0000
  0
VERTEX
  8
0
 10
2581.0665
 20
1843.9410
 30
0.0000
  0
VERTEX
  8
0
 10
2580.7042
 20
1844.6330
 30
0.0000
  0
VERTEX
  8
0
 10
2580.2097
 20
1845.2827
 30
0.0000
  0
VERTEX
  8
0
 10
2579.5924
 20
1845.8777
 30
0.0000
  0
VERTEX
  8
0
 10
2578.8643
 20
1846.4063
 30
0.0000
  0
VERTEX
  8
0
 10
2578.0395
 20
1846.8583
 30
0.0000
  0
VERTEX
  8
0
 10
2577.1339
 20
1847.2250
 30
0.0000
  0
VERTEX
  8
0
 10
2576.0405
 20
1847.5267
 30
0.0000
  0
VERTEX
  8
0
 10
2574.8939
 20
1847.7042
 30
0.0000
  0
VERTEX
  8
0
 10
2573.7223
 20
1847.7529
 30
0.0000
  0
VERTEX
  8
0
 10
2572.5542
 20
1847.6718
 30
0.0000
  0
VERTEX
  8
0
 10
2571.4182
 20
1847.4629
 30
0.0000
  0
VERTEX
  8
0
 10
2570.4581
 20
1847.1739
 30
0.0000
  0
VERTEX
  8
0
 10
2569.5640
 20
1846.7934
 30
0.0000
  0
VERTEX
  8
0
 10
2568.7532
 20
1846.3289
 30
0.0000
  0
VERTEX
  8
0
 10
2568.5654
 20
1846.2006
 30
0.0000
  0
SEQEND
  0
POLYLINE
  6
continous
  8
BYBLOCK
 70
0
 66
1
  0
VERTEX
  8
0
 10
2511.9968
 20
1806.2006
 30
0.0000
  0
VERTEX
  8
0
 10
2511.3159
 20
1805.6475
 30
0.0000
  0
VERTEX
  8
0
 10
2510.7495
 20
1805.0331
 30
0.0000
  0
VERTEX
  8
0
 10
2510.3083
 20
1804.3694
 30
0.0000
  0
VERTEX
  8
0
 10
2510.0008
 20
1803.6691
 30
0.0000
  0
VERTEX
  8
0
 10
2509.8328
 20
1802.9454
 30
0.0000
  0
VERTEX
  8
0
 10
2509.8003
 20
1802.4874
 30
0.0000
  0
SEQEND
  0
LINE
  6
continous
  8
BYBLOCK
 10
2511.9968
 20
1806.2006
 30
0.0000
 11
2511.9968
 21
1806.2714
 31
0.0000
  0
POLYLINE
  6
continous
  8
BYBLOCK
 70
0
 66
1
  0
VERTEX
  8
0
 10
2524.8000
 20
1802.4843
 30
0.0000
  0
VERTEX
  8
0
 10
2524.7208
 20
1803.2201
 30
0.0000
  0
VERTEX
  8
0
 10
2524.4979
 20
1803.9410
 30
0.0000
  0
VERTEX
  8
0
 10
2524.1357
 20
1804.6330
 30
0.0000
  0
VERTEX
  8
0
 10
2523.6412
 20
1805.2827
 30
0.0000
  0
VERTEX
  8
0
 10
2523.0239
 20
1805.8777
 30
0.0000
  0
VERTEX
  8
0
 10
2522.2957
 20
1806.4063
 30
0.0000
  0
VERTEX
  8
0
 10
2521.4709
 20
1806.8583
 30
0.0000
  0
VERTEX
  8
0
 10
2520.5654
 20
1807.2250
 30
0.0000
  0
VERTEX
  8
0
 10
2519.4720
 20
1807.5267
 30
0.0000
  0
VERTEX
  8
0
 10
2518.3254
 20
1807.7042
 30
0.0000
  0
VERTEX
  8
0
 10
2517.1537
 20
1807.7529
 30
0.0000
  0
VERTEX
  8
0
 10
2515.9856
 20
1807.6718
 30
0.0000
  0
VERTEX
  8
0
 10
2514.8497
 20
1807.4629
 30
0.0000
  0
VERTEX
  8
0
 10
2513.8896
 20
1807.1739
 30
0.0000
  0
VERTEX
  8
0
 10
2512.9954
 20
1806.7934
 30
0.0000
  0
VERTEX
  8
0
 10
2512.1846
 20
1806.3289
 30
0.0000
  0
VERTEX
  8
0
 10
2511.9968
 20
1806.2006
 30
0.0000
  0
SEQEND
  0
POLYLINE
  6
continous
  8
BYBLOCK
 70
0
 66
1
  0
VERTEX
  8
0
 10
2455.4283
 20
1766.2006
 30
0.0000
  0
VERTEX
  8
0
 10
2454.7474
 20
1765.6475
 30
0.0000
  0
VERTEX
  8
0
 10
2454.1809
 20
1765.0331
 30
0.0000
  0
VERTEX
  8
0
 10
2453.7397
 20
1764.3694
 30
0.0000
  0
VERTEX
  8
0
 10
2453.4322
 20
1763.6691
 30
0.0000
  0
VERTEX
  8
0
 10
2453.2643
 20
1762.9454
 30
0.0000
  0
VERTEX
  8
0
 10
2453.2318
 20
1762.4874
 30
0.0000
  0
SEQEND
  0
LINE
  6
continous
  8
BYBLOCK
 10
2455.4283
 20
1766.2006
 30
0.0000
 11
2455.4283
 21
1766.2714
 31
0.0000
  0
POLYLINE
  6
continous
  8
BYBLOCK
 70
0
 66
1
  0
VERTEX
  8
0
 10
2468.2314
 20
1762.4843
 30
0.0000
  0
VERTEX
  8
0
 10
2468.1522
 20
1763.2201
 30
0.0000
  0
VERTEX
  8
0
 10
2467.9294
 20
1763.9410
 30
0.0000
  0
VERTEX
  8
0
 10
2467.5672
 20
1764.6330
 30
0.0000
  0
VERTEX
  8
0
 10
2467.0726
 20
1765.2827
 30
0.0000
  0
VERTEX
  8
0
 10
2466.4553
 20
1765.8777
 30
0.0000
  0
VERTEX
  8
0
 10
2465.7272
 20
1766.4063
 30
0.0000
  0
VERTEX
  8
0
 10
2464.9024
 20
1766.8583
 30
0.0000
  0
VERTEX
  8
0
 10
2463.9968
 20
1767.2250
 30
0.0000
  0
VERTEX
  8
0
 10
2462.9034
 20
1767.5267
 30
0.0000
  0
VERTEX
  8
0
 10
2461.7569
 20
1767.7042
 30
0.0000
  0
VERTEX
  8
0
 10
2460.5852
 20
1767.7529
 30
0.0000
  0
VERTEX
  8
0
 10
2459.4171
 20
1767.6718
 30
0.0000
  0
VERTEX
  8
0
 10
2458.2812
 20
1767.4629
 30
0.0000
  0
VERTEX
  8
0
 10
2457.3210
 20
1767.1739
 30
0.0000
  0
VERTEX
  8
0
 10
2456.4269
 20
1766.7934
 30
0.0000
  0
VERTEX
  8
0
 10
2455.6161
 20
1766.3289
 30
0.0000
  0
VERTEX
  8
0
 10
2455.4283
 20
1766.2006
 30
0.0000
  0
SEQEND
  0
POLYLINE
  6
continous
  8
BYBLOCK
 70
0
 66
1
  0
VERTEX
  8
0
 10
2398.8598
 20
1726.2006
 30
0.0000
  0
VERTEX
  8
0
 10
2398.1789
 20
1725.6475
 30
0.0000
  0
VERTEX
  8
0
 10
2397.6124
 20
1725.0331
 30
0.0000
  0
VERTEX
  8
0
 10
2397.1712
 20
1724.3694
 30
0.0000
  0
VERTEX
  8
0
 10
2396.8637
 20
1723.6691
 30
0.0000
  0
VERTEX
  8
0
 10
2396.6958
 20
1722.9454
 30
0.0000
  0
VERTEX
  8
0
 10
2396.6632
 20
1722.4874
 30
0.0000
  0
SEQEND
  0
LINE
  6
continous
  8
BYBLOCK
 10
2398.8598
 20
1726.2006
 30
0.0000
 11
2398.8598
 21
1726.2714
 31
0.0000
  0
POLYLINE
  6
continous
  8
BYBLOCK
 70
0
 66
1
  0
VERTEX
  8
0
 10
2411.6629
 20
1722.4843
 30
0.0000
  0
VERTEX
  8
0
 10
2411.5837
 20
1723.2201
 30
0.0000
  0
VERTEX
  8
0
 10
2411.3608
 20
1723.9410
 30
0.0000
  0
VERTEX
  8
0
 10
2410.9986
 20
1724.6330
 30
0.0000
  0
VERTEX
  8
0
 10
2410.5041
 20
1725.2827
 30
0.0000
  0
VERTEX
  8
0
 10
2409.8868
 20
1725.8777
 30
0.0000
  0
VERTEX
  8
0
 10
2409.1587
 20
1726.4063
 30
0.0000
  0
VERTEX
  8
0
 10
2408.3338
 20
1726.8583
 30
0.0000
  0
VERTEX
  8
0
 10
2407.4283
 20
1727.2250
 30
0.0000
  0
VERTEX
  8
0
 10
2406.3349
 20
1727.5267
 30
0.0000
  0
VERTEX
  8
0
 10
2405.1883
 20
1727.7042
 30
0.0000
  0
VERTEX
  8
0
 10
2404.0166
 20
1727.7529
 30
0.0000
  0
VERTEX
  8
0
 10
2402.8485
 20
1727.6718
 30
0.0000
  0
VERTEX
  8
0
 10
2401.7126
 20
1727.4629
 30
0.0000
  0
VERTEX
  8
0
 10
2400.7525
 20
1727.1739
 30
0.0000
  0
VERTEX
  8
0
 10
2399.8583
 20
1726.7934
 30
0.0000
  0
VERTEX
  8
0
 10
2399.0476
 20
1726.3289
 30
0.0000
  0
VERTEX
  8
0
 10
2398.8598
 20
1726.2006
 30
0.0000
  0
SEQEND
  0
POLYLINE
  6
continous
  8
BYBLOCK
 70
0
 66
1
  0
VERTEX
  8
0
 10
2342.2912
 20
1686.2006
 30
0.0000
  0
VERTEX
  8
0
 10
2341.6103
 20
1685.6475
 30
0.0000
  0
VERTEX
  8
0
 10
2341.0438
 20
1685.0331
 30
0.0000
  0
VERTEX
  8
0
 10
2340.6026
 20
1684.3694
 30
0.0000
  0
VERTEX
  8
0
 10
2340.2951
 20
1683.6691
 30
0.0000
  0
VERTEX
  8
0
 10
2340.1272
 20
1682.9454
 30
0.0000
  0
VERTEX
  8
0
 10
2340.0947
 20
1682.4874
 30
0.0000
  0
SEQEND
  0
LINE
  6
continous
  8
BYBLOCK
 10
2342.2912
 20
1686.2006
 30
0.0000
 11
2342.2912
 21
1686.2714
 31
0.0000
  0
POLYLINE
  6
continous
  8
BYBLOCK
 70
0
 66
1
  0
VERTEX
  8
0
 10
2355.0944
 20
1682.4843
 30
0.0000
  0
VERTEX
  8
0
 10
2355.0152
 20
1683.2201
 30
0.0000
  0
VERTEX
  8
0
 10
2354.7923
 20
1683.9410
 30
0.0000
  0
VERTEX
  8
0
 10
2354.4301
 20
1684.6330
 30
0.0000
  0
VERTEX
  8
0
 10
2353.9355
 20
1685.2827
 30
0.0000
  0
VERTEX
  8
0
 10
2353.3182
 20
1685.8777
 30
0.0000
  0
VERTEX
  8
0
 10
2352.5901
 20
1686.4063
 30
0.0000
  0
VERTEX
  8
0
 10
2351.7653
 20
1686.8583
 30
0.0000
  0
VERTEX
  8
0
 10
2350.8597
 20
1687.2250
 30
0.0000
  0
VERTEX
  8
0
 10
2349.7664
 20
1687.5267
 30
0.0000
  0
VERTEX
  8
0
 10
2348.6198
 20
1687.7042
 30
0.0000
  0
VERTEX
  8
0
 10
2347.4481
 20
1687.7529
 30
0.0000
  0
VERTEX
  8
0
 10
2346.2800
 20
1687.6718
 30
0.0000
  0
VERTEX
  8
0
 10
2345.1441
 20
1687.4629
 30
0.0000
  0
VERTEX
  8
0
 10
2344.1839
 20
1687.1739
 30
0.0000
  0
VERTEX
  8
0
 10
2343.2898
 20
1686.7934
 30
0.0000
  0
VERTEX
  8
0
 10
2342.4790
 20
1686.3289
 30
0.0000
  0
VERTEX
  8
0
 10
2342.2912
 20
1686.2006
 30
0.0000
  0
SEQEND
  0
POLYLINE
  6
continous
  8
BYBLOCK
 70
0
 66
1
  0
VERTEX
  8
0
 10
2285.7227
 20
1646.2006
 30
0.0000
  0
VERTEX
  8
0
 10
2285.0418
 20
1645.6475
 30
0.0000
  0
VERTEX
  8
0
 10
2284.4753
 20
1645.0331
 30
0.0000
  0
VERTEX
  8
0
 10
2284.0341
 20
1644.3694
 30
0.0000
  0
VERTEX
  8
0
 10
2283.7266
 20
1643.6691
 30
0.0000
  0
VERTEX
  8
0
 10
2283.5587
 20
1642.9454
 30
0.0000
  0
VERTEX
  8
0
 10
2283.5262
 20
1642.4874
 30
0.0000
  0
SEQEND
  0
LINE
  6
continous
  8
BYBLOCK
 10
2285.7227
 20
1646.2006
 30
0.0000
 11
2285.7227
 21
1646.2714
 31
0.0000
  0
POLYLINE
  6
continous
  8
BYBLOCK
 70
0
 66
1
  0
VERTEX
  8
0
 10
2298.5258
 20
1642.4843
 30
0.0000
  0
VERTEX
  8
0
 10
2298.4466
 20
1643.2201
 30
0.0000
  0
VERTEX
  8
0
 10
2298.2237
 20
1643.9410
 30
0.0000
  0
VERTEX
  8
0
 10
2297.8615
 20
1644.6330
 30
0.0000
  0
VERTEX
  8
0
 10
2297.3670
 20
1645.2827
 30
0.0000
  0
VERTEX
  8
0
 10
2296.7497
 20
1645.8777
 30
0.0000
  0
VERTEX
  8
0
 10
2296.0216
 20
1646.4063
 30
0.0000
  0
VERTEX
  8
0
 10
2295.1968
 20
1646.8583
 30
0.0000
  0
VERTEX
  8
0
 10
2294.2912
 20
1647.2250
 30
0.0000
  0
VERTEX
  8
0
 10
2293.1978
 20
1647.5267
 30
0.0000
  0
VERTEX
  8
0
 10
2292.0512
 20
1647.7042
 30
0.0000
  0
VERTEX
  8
0
 10
2290.8795
 20
1647.7529
 30
0.0000
  0
VERTEX
  8
0
 10
2289.7114
 20
1647.6718
 30
0.0000
  0
VERTEX
  8
0
 10
2288.5755
 20
1647.4629
 30
0.0000
  0
VERTEX
  8
0
 10
2287.6154
 20
1647.1739
 30
0.0000
  0
VERTEX
  8
0
 10
2286.7213
 20
1646.7934
 30
0.0000
  0
VERTEX
  8
0
 10
2285.9105
 20
1646.3289
 30
0.0000
  0
VERTEX
  8
0
 10
2285.7227
 20
1646.2006
 30
0.0000
  0
SEQEND
  0
POLYLINE
  6
continous
  8
BYBLOCK
 70
0
 66
1
  0
VERTEX
  8
0
 10
2229.1541
 20
1606.2006
 30
0.0000
  0
VERTEX
  8
0
 10
2228.4732
 20
1605.6475
 30
0.0000
  0
VERTEX
  8
0
 10
2227.9068
 20
1605.0331
 30
0.0000
  0
VERTEX
  8
0
 10
2227.4656
 20
1604.3694
 30
0.0000
  0
VERTEX
  8
0
 10
2227.1581
 20
1603.6691
 30
0.0000
  0
VERTEX
  8
0
 10
2226.9901
 20
1602.9454
 30
0.0000
  0
VERTEX
  8
0
 10
2226.9576
 20
1602.4874
 30
0.0000
  0
SEQEND
  0
LINE
  6
continous
  8
BYBLOCK
 10
2229.1541
 20
1606.2006
 30
0.0000
 11
2229.1541
 21
1606.2714
 31
0.0000
  0
POLYLINE
  6
continous
  8
BYBLOCK
 70
0
 66
1
  0
VERTEX
  8
0
 10
2241.9573
 20
1602.4843
 30
0.0000
  0
VERTEX
  8
0
 10
2241.8781
 20
1603.2201
 30
0.0000
  0
VERTEX
  8
0
 10
2241.6552
 20
1603.9410
 30
0.0000
  0
VERTEX
  8
0
 10
2241.2930
 20
1604.6330
 30
0.0000
  0
VERTEX
  8
0
 10
2240.7984
 20
1605.2827
 30
0.0000
  0
VERTEX
  8
0
 10
2240.1811
 20
1605.8777
 30
0.0000
  0
VERTEX
  8
0
 10
2239.4530
 20
1606.4063
 30
0.0000
  0
VERTEX
  8
0
 10
2238.6282
 20
1606.8583
 30
0.0000
  0
VERTEX
  8
0
 10
2237.7227
 20
1607.2250
 30
0.0000
  0
VERTEX
  8
0
 10
2236.6293
 20
1607.5267
 30
0.0000
  0
VERTEX
  8
0
 10
2235.4827
 20
1607.7042
 30
0.0000
  0
VERTEX
  8
0
 10
2234.3110
 20
1607.7529
 30
0.0000
  0
VERTEX
  8
0
 10
2233.1429
 20
1607.6718
 30
0.0000
  0
VERTEX
  8
0
 10
2232.0070
 20
1607.4629
 30
0.0000
  0
VERTEX
  8
0
 10
2231.0468
 20
1607.1739
 30
0.0000
  0
VERTEX
  8
0
 10
2230.1527
 20
1606.7934
 30
0.0000
  0
VERTEX
  8
0
 10
2229.3419
 20
1606.3289
 30
0.0000
  0
VERTEX
  8
0
 10
2229.1541
 20
1606.2006
 30
0.0000
  0
SEQEND
  0
POLYLINE
  6
continous
  8
BYBLOCK
 70
0
 66
1
  0
VERTEX
  8
0
 10
2172.5856
 20
1566.2006
 30
0.0000
  0
VERTEX
  8
0
 10
2171.9047
 20
1565.6475
 30
0.0000
  0
VERTEX
  8
0
 10
2171.3382
 20
1565.0331
 30
0.0000
  0
VERTEX
  8
0
 10
2170.8970
 20
1564.3694
 30
0.0000
  0
VERTEX
  8
0
 10
2170.5895
 20
1563.6691
 30
0.0000
  0
VERTEX
  8
0
 10
2170.4216
 20
1562.9454
 30
0.0000
  0
VERTEX
  8
0
 10
2170.3891
 20
1562.4874
 30
0.0000
  0
SEQEND
  0
LINE
  6
continous
  8
BYBLOCK
 10
2172.5856
 20
1566.2006
 30
0.0000
 11
2172.5856
 21
1566.2714
 31
0.0000
  0
POLYLINE
  6
continous
  8
BYBLOCK
 70
0
 66
1
  0
VERTEX
  8
0
 10
2185.3887
 20
1562.4843
 30
0.0000
  0
VERTEX
  8
0
 10
2185.3095
 20
1563.2201
 30
0.0000
  0
VERTEX
  8
0
 10
2185.0867
 20
1563.9410
 30
0.0000
  0
VERTEX
  8
0
 10
2184.7244
 20
1564.6330
 30
0.0000
  0
VERTEX
  8
0
 10
2184.2299
 20
1565.2827
 30
0.0000
  0
VERTEX
  8
0
 10
2183.6126
 20
1565.8777
 30
0.0000
  0
VERTEX
  8
0
 10
2182.8845
 20
1566.4063
 30
0.0000
  0
VERTEX
  8
0
 10
2182.0597
 20
1566.8583
 30
0.0000
  0
VERTEX
  8
0
 10
2181.1541
 20
1567.2250
 30
0.0000
  0
VERTEX
  8
0
 10
2180.0607
 20
1567.5267
 30
0.0000
  0
VERTEX
  8
0
 10
2178.9141
 20
1567.7042
 30
0.0000
  0
VERTEX
  8
0
 10
2177.7425
 20
1567.7529
 30
0.0000
  0
VERTEX
  8
0
 10
2176.5744
 20
1567.6718
 30
0.0000
  0
VERTEX
  8
0
 10
2175.4384
 20
1567.4629
 30
0.0000
  0
VERTEX
  8
0
 10
2174.4783
 20
1567.1739
 30
0.0000
  0
VERTEX
  8
0
 10
2173.5842
 20
1566.7934
 30
0.0000
  0
VERTEX
  8
0
 10
2172.7734
 20
1566.3289
 30
0.0000
  0
VERTEX
  8
0
 10
2172.5856
 20
1566.2006
 30
0.0000
  0
SEQEND
  0
POLYLINE
  6
continous
  8
BYBLOCK
 70
0
 66
1
  0
VERTEX
  8
0
 10
2116.0170
 20
1526.2006
 30
0.0000
  0
VERTEX
  8
0
 10
2115.3361
 20
1525.6475
 30
0.0000
  0
VERTEX
  8
0
 10
2114.7697
 20
1525.0331
 30
0.0000
  0
VERTEX
  8
0
 10
2114.3285
 20
1524.3694
 30
0.0000
  0
VERTEX
  8
0
 10
2114.0210
 20
1523.6691
 30
0.0000
  0
VERTEX
  8
0
 10
2113.8530
 20
1522.9454
 30
0.0000
  0
VERTEX
  8
0
 10
2113.8205
 20
1522.4874
 30
0.0000
  0
SEQEND
  0
LINE
  6
continous
  8
BYBLOCK
 10
2116.0170
 20
1526.2006
 30
0.0000
 11
2116.0170
 21
1526.2714
 31
0.0000
  0
POLYLINE
  6
continous
  8
BYBLOCK
 70
0
 66
1
  0
VERTEX
  8
0
 10
2128.8202
 20
1522.4843
 30
0.0000
  0
VERTEX
  8
0
 10
2128.7410
 20
1523.2201
 30
0.0000
  0
VERTEX
  8
0
 10
2128.5181
 20
1523.9410
 30
0.0000
  0
VERTEX
  8
0
 10
2128.1559
 20
1524.6330
 30
0.0000
  0
VERTEX
  8
0
 10
2127.6614
 20
1525.2827
 30
0.0000
  0
VERTEX
  8
0
 10
2127.0441
 20
1525.8777
 30
0.0000
  0
VERTEX
  8
0
 10
2126.3160
 20
1526.4063
 30
0.0000
  0
VERTEX
  8
0
 10
2125.4911
 20
1526.8583
 30
0.0000
  0
VERTEX
  8
0
 10
2124.5856
 20
1527.2250
 30
0.0000
  0
VERTEX
  8
0
 10
2123.4922
 20
1527.5267
 30
0.0000
  0
VERTEX
  8
0
 10
2122.3456
 20
1527.7042
 30
0.0000
  0
VERTEX
  8
0
 10
2121.1739
 20
1527.7529
 30
0.0000
  0
VERTEX
  8
0
 10
2120.0058
 20
1527.6718
 30
0.0000
  0
VERTEX
  8
0
 10
2118.8699
 20
1527.4629
 30
0.0000
  0
VERTEX
  8
0
 10
2117.9098
 20
1527.1739
 30
0.0000
  0
VERTEX
  8
0
 10
2117.0156
 20
1526.7934
 30
0.0000
  0
VERTEX
  8
0
 10
2116.2048
 20
1526.3289
 30
0.0000
  0
VERTEX
  8
0
 10
2116.0170
 20
1526.2006
 30
0.0000
  0
SEQEND
  0
POLYLINE
  6
continous
  8
BYBLOCK
 70
0
 66
1
  0
VERTEX
  8
0
 10
2059.4485
 20
1486.2006
 30
0.0000
  0
VERTEX
  8
0
 10
2058.7676
 20
1485.6475
 30
0.0000
  0
VERTEX
  8
0
 10
2058.2011
 20
1485.0331
 30
0.0000
  0
VERTEX
  8
0
 10
2057.7599
 20
1484.3694
 30
0.0000
  0
VERTEX
  8
0
 10
2057.4524
 20
1483.6691
 30
0.0000
  0
VERTEX
  8
0
 10
2057.2845
 20
1482.9454
 30
0.0000
  0
VERTEX
  8
0
 10
2057.2520
 20
1482.4874
 30
0.0000
  0
SEQEND
  0
LINE
  6
continous
  8
BYBLOCK
 10
2059.4485
 20
1486.2006
 30
0.0000
 11
2059.4485
 21
1486.2714
 31
0.0000
  0
POLYLINE
  6
continous
  8
BYBLOCK
 70
0
 66
1
  0
VERTEX
  8
0
 10
2072.2516
 20
1482.4843
 30
0.0000
  0
VERTEX
  8
0
 10
2072.1724
 20
1483.2201
 30
0.0000
  0
VERTEX
  8
0
 10
2071.9496
 20
1483.9410
 30
0.0000
  0
VERTEX
  8
0
 10
2071.5874
 20
1484.6330
 30
0.0000
  0
VERTEX
  8
0
 10
2071.0928
 20
1485.2827
 30
0.0000
  0
VERTEX
  8
0
 10
2070.4755
 20
1485.8777
 30
0.0000
  0
VERTEX
  8
0
 10
2069.7474
 20
1486.4063
 30
0.0000
  0
VERTEX
  8
0
 10
2068.9226
 20
1486.8583
 30
0.0000
  0
VERTEX
  8
0
 10
2068.0170
 20
1487.2250
 30
0.0000
  0
VERTEX
  8
0
 10
2066.9236
 20
1487.5267
 30
0.0000
  0
VERTEX
  8
0
 10
2065.7771
 20
1487.7042
 30
0.0000
  0
VERTEX
  8
0
 10
2064.6054
 20
1487.7529
 30
0.0000
  0
VERTEX
  8
0
 10
2063.4373
 20
1487.6718
 30
0.0000
  0
VERTEX
  8
0
 10
2062.3014
 20
1487.4629
 30
0.0000
  0
VERTEX
  8
0
 10
2061.3412
 20
1487.1739
 30
0.0000
  0
VERTEX
  8
0
 10
2060.4471
 20
1486.7934
 30
0.0000
  0
VERTEX
  8
0
 10
2059.6363
 20
1486.3289
 30
0.0000
  0
VERTEX
  8
0
 10
2059.4485
 20
1486.2006
 30
0.0000
  0
SEQEND
  0
POLYLINE
  6
continous
  8
BYBLOCK
 70
0
 66
1
  0
VERTEX
  8
0
 10
2002.8800
 20
1446.2006
 30
0.0000
  0
VERTEX
  8
0
 10
2002.1991
 20
1445.6475
 30
0.0000
  0
VERTEX
  8
0
 10
2001.6326
 20
1445.0331
 30
0.0000
  0
VERTEX
  8
0
 10
2001.1914
 20
1444.3694
 30
0.0000
  0
VERTEX
  8
0
 10
2000.8839
 20
1443.6691
 30
0.0000
  0
VERTEX
  8
0
 10
2000.7160
 20
1442.9454
 30
0.0000
  0
VERTEX
  8
0
 10
2000.6834
 20
1442.4874
 30
0.0000
  0
SEQEND
  0
LINE
  6
continous
  8
BYBLOCK
 10
2002.8800
 20
1446.2006
 30
0.0000
 11
2002.8800
 21
1446.2714
 31
0.0000
  0
POLYLINE
  6
continous
  8
BYBLOCK
 70
0
 66
1
  0
VERTEX
  8
0
 10
2015.6831
 20
1442.4843
 30
0.0000
  0
VERTEX
  8
0
 10
2015.6039
 20
1443.2201
 30
0.0000
  0
VERTEX
  8
0
 10
2015.3810
 20
1443.9410
 30
0.0000
  0
VERTEX
  8
0
 10
2015.0188
 20
1444.6330
 30
0.0000
  0
VERTEX
  8
0
 10
2014.5243
 20
1445.2827
 30
0.0000
  0
VERTEX
  8
0
 10
2013.9070
 20
1445.8777
 30
0.0000
  0
VERTEX
  8
0
 10
2013.1789
 20
1446.4063
 30
0.0000
  0
VERTEX
  8
0
 10
2012.3541
 20
1446.8583
 30
0.0000
  0
VERTEX
  8
0
 10
2011.4485
 20
1447.2250
 30
0.0000
  0
VERTEX
  8
0
 10
2010.3551
 20
1447.5267
 30
0.0000
  0
VERTEX
  8
0
 10
2009.2085
 20
1447.7042
 30
0.0000
  0
VERTEX
  8
0
 10
2008.0368
 20
1447.7529
 30
0.0000
  0
VERTEX
  8
0
 10
2006.8687
 20
1447.6718
 30
0.0000
  0
VERTEX
  8
0
 10
2005.7328
 20
1447.4629
 30
0.0000
  0
VERTEX
  8
0
 10
2004.7727
 20
1447.1739
 30
0.0000
  0
VERTEX
  8
0
 10
2003.8785
 20
1446.7934
 30
0.0000
  0
VERTEX
  8
0
 10
2003.0678
 20
1446.3289
 30
0.0000
  0
VERTEX
  8
0
 10
2002.8800
 20
1446.2006
 30
0.0000
  0
SEQEND
  0
POLYLINE
  6
continous
  8
BYBLOCK
 70
0
 66
1
  0
VERTEX
  8
0
 10
1946.3114
 20
1406.2006
 30
0.0000
  0
VERTEX
  8
0
 10
1945.6305
 20
1405.6475
 30
0.0000
  0
VERTEX
  8
0
 10
1945.0640
 20
1405.0331
 30
0.0000
  0
VERTEX
  8
0
 10
1944.6228
 20
1404.3694
 30
0.0000
  0
VERTEX
  8
0
 10
1944.3153
 20
1403.6691
 30
0.0000
  0
VERTEX
  8
0
 10
1944.1474
 20
1402.9454
 30
0.0000
  0
VERTEX
  8
0
 10
1944.1149
 20
1402.4874
 30
0.0000
  0
SEQEND
  0
LINE
  6
continous
  8
BYBLOCK
 10
1946.3114
 20
1406.2006
 30
0.0000
 11
1946.3114
 21
1406.2714
 31
0.0000
  0
POLYLINE
  6
continous
  8
BYBLOCK
 70
0
 66
1
  0
VERTEX
  8
0
 10
1959.1146
 20
1402.4843
 30
0.0000
  0
VERTEX
  8
0
 10
1959.0354
 20
1403.2201
 30
0.0000
  0
VERTEX
  8
0
 10
1958.8125
 20
1403.9410
 30
0.0000
  0
VERTEX
  8
0
 10
1958.4503
 20
1404.6330
 30
0.0000
  0
VERTEX
  8
0
 10
1957.9557
 20
1405.2827
 30
0.0000
  0
VERTEX
  8
0
 10
1957.3384
 20
1405.8777
 30
0.0000
  0
VERTEX
  8
0
 10
1956.6103
 20
1406.4063
 30
0.0000
  0
VERTEX
  8
0
 10
1955.7855
 20
1406.8583
 30
0.0000
  0
VERTEX
  8
0
 10
1954.8799
 20
1407.2250
 30
0.0000
  0
VERTEX
  8
0
 10
1953.7866
 20
1407.5267
 30
0.0000
  0
VERTEX
  8
0
 10
1952.6400
 20
1407.7042
 30
0.0000
  0
VERTEX
  8
0
 10
1951.4683
 20
1407.7529
 30
0.0000
  0
VERTEX
  8
0
 10
1950.3002
 20
1407.6718
 30
0.0000
  0
VERTEX
  8
0
 10
1949.1643
 20
1407.4629
 30
0.0000
  0
VERTEX
  8
0
 10
1948.2041
 20
1407.1739
 30
0.0000
  0
VERTEX
  8
0
 10
1947.3100
 20
1406.7934
 30
0.0000
  0
VERTEX
  8
0
 10
1946.4992
 20
1406.3289
 30
0.0000
  0
VERTEX
  8
0
 10
1946.3114
 20
1406.2006
 30
0.0000
  0
SEQEND
  0
POLYLINE
  6
continous
  8
BYBLOCK
 70
0
 66
1
  0
VERTEX
  8
0
 10
1889.7429
 20
1366.2006
 30
0.0000
  0
VERTEX
  8
0
 10
1889.0620
 20
1365.6475
 30
0.0000
  0
VERTEX
  8
0
 10
1888.4955
 20
1365.0331
 30
0.0000
  0
VERTEX
  8
0
 10
1888.0543
 20
1364.3694
 30
0.0000
  0
VERTEX
  8
0
 10
1887.7468
 20
1363.6691
 30
0.0000
  0
VERTEX
  8
0
 10
1887.5789
 20
1362.9454
 30
0.0000
  0
VERTEX
  8
0
 10
1887.5464
 20
1362.4874
 30
0.0000
  0
SEQEND
  0
LINE
  6
continous
  8
BYBLOCK
 10
1889.7429
 20
1366.2006
 30
0.0000
 11
1889.7429
 21
1366.2714
 31
0.0000
  0
POLYLINE
  6
continous
  8
BYBLOCK
 70
0
 66
1
  0
VERTEX
  8
0
 10
1902.5460
 20
1362.4843
 30
0.0000
  0
VERTEX
  8
0
 10
1902.4668
 20
1363.2201
 30
0.0000
  0
VERTEX
  8
0
 10
1902.2439
 20
1363.9410
 30
0.0000
  0
VERTEX
  8
0
 10
1901.8817
 20
1364.6330
 30
0.0000
  0
VERTEX
  8
0
 10
1901.3872
 20
1365.2827
 30
0.0000
  0
VERTEX
  8
0
 10
1900.7699
 20
1365.8777
 30
0.0000
  0
VERTEX
  8
0
 10
1900.0418
 20
1366.4063
 30
0.0000
  0
VERTEX
  8
0
 10
1899.2170
 20
1366.8583
 30
0.0000
  0
VERTEX
  8
0
 10
1898.3114
 20
1367.2250
 30
0.0000
  0
VERTEX
  8
0
 10
1897.2180
 20
1367.5267
 30
0.0000
  0
VERTEX
  8
0
 10
1896.0714
 20
1367.7042
 30
0.0000
  0
VERTEX
  8
0
 10
1894.8997
 20
1367.7529
 30
0.0000
  0
VERTEX
  8
0
 10
1893.7316
 20
1367.6718
 30
0.0000
  0
VERTEX
  8
0
 10
1892.5957
 20
1367.4629
 30
0.0000
  0
VERTEX
  8
0
 10
1891.6356
 20
1367.1739
 30
0.0000
  0
VERTEX
  8
0
 10
1890.7415
 20
1366.7934
 30
0.0000
  0
VERTEX
  8
0
 10
1889.9307
 20
1366.3289
 30
0.0000
  0
VERTEX
  8
0
 10
1889.7429
 20
1366.2006
 30
0.0000
  0
SEQEND
  0
POLYLINE
  6
continous
  8
BYBLOCK
 70
0
 66
1
  0
VERTEX
  8
0
 10
1833.1743
 20
1326.2006
 30
0.0000
  0
VERTEX
  8
0
 10
1832.4934
 20
1325.6475
 30
0.0000
  0
VERTEX
  8
0
 10
1831.9270
 20
1325.0331
 30
0.0000
  0
VERTEX
  8
0
 10
1831.4858
 20
1324.3694
 30
0.0000
  0
VERTEX
  8
0
 10
1831.1783
 20
1323.6691
 30
0.0000
  0
VERTEX
  8
0
 10
1831.0103
 20
1322.9454
 30
0.0000
  0
VERTEX
  8
0
 10
1830.9778
 20
1322.4874
 30
0.0000
  0
SEQEND
  0
LINE
  6
continous
  8
BYBLOCK
 10
1833.1743
 20
1326.2006
 30
0.0000
 11
1833.1743
 21
1326.2714
 31
0.0000
  0
POLYLINE
  6
continous
  8
BYBLOCK
 70
0
 66
1
  0
VERTEX
  8
0
 10
1845.9775
 20
1322.4843
 30
0.0000
  0
VERTEX
  8
0
 10
1845.8983
 20
1323.2201
 30
0.0000
  0
VERTEX
  8
0
 10
1845.6754
 20
1323.9410
 30
0.0000
  0
VERTEX
  8
0
 10
1845.3132
 20
1324.6330
 30
0.0000
  0
VERTEX
  8
0
 10
1844.8186
 20
1325.2827
 30
0.0000
  0
VERTEX
  8
0
 10
1844.2013
 20
1325.8777
 30
0.0000
  0
VERTEX
  8
0
 10
1843.4732
 20
1326.4063
 30
0.0000
  0
VERTEX
  8
0
 10
1842.6484
 20
1326.8583
 30
0.0000
  0
VERTEX
  8
0
 10
1841.7429
 20
1327.2250
 30
0.0000
  0
VERTEX
  8
0
 10
1840.6495
 20
1327.5267
 30
0.0000
  0
VERTEX
  8
0
 10
1839.5029
 20
1327.7042
 30
0.0000
  0
VERTEX
  8
0
 10
1838.3312
 20
1327.7529
 30
0.0000
  0
VERTEX
  8
0
 10
1837.1631
 20
1327.6718
 30
0.0000
  0
VERTEX
  8
0
 10
1836.0272
 20
1327.4629
 30
0.0000
  0
VERTEX
  8
0
 10
1835.0670
 20
1327.1739
 30
0.0000
  0
VERTEX
  8
0
 10
1834.1729
 20
1326.7934
 30
0.0000
  0
VERTEX
  8
0
 10
1833.3621
 20
1326.3289
 30
0.0000
  0
VERTEX
  8
0
 10
1833.1743
 20
1326.2006
 30
0.0000
  0
SEQEND
  0
POLYLINE
  6
continous
  8
BYBLOCK
 70
0
 66
1
  0
VERTEX
  8
0
 10
1776.6058
 20
1286.2006
 30
0.0000
  0
VERTEX
  8
0
 10
1775.9249
 20
1285.6475
 30
0.0000
  0
VERTEX
  8
0
 10
1775.3584
 20
1285.0331
 30
0.0000
  0
VERTEX
  8
0
 10
1774.9172
 20
1284.3694
 30
0.0000
  0
VERTEX
  8
0
 10
1774.6097
 20
1283.6691
 30
0.0000
  0
VERTEX
  8
0
 10
1774.4418
 20
1282.9454
 30
0.0000
  0
VERTEX
  8
0
 10
1774.4093
 20
1282.4874
 30
0.0000
  0
SEQEND
  0
LINE
  6
continous
  8
BYBLOCK
 10
1776.6058
 20
1286.2006
 30
0.0000
 11
1776.6058
 21
1286.2714
 31
0.0000
  0
POLYLINE
  6
continous
  8
BYBLOCK
 70
0
 66
1
  0
VERTEX
  8
0
 10
1789.4089
 20
1282.4843
 30
0.0000
  0
VERTEX
  8
0
 10
1789.3297
 20
1283.2201
 30
0.0000
  0
VERTEX
  8
0
 10
1789.1069
 20
1283.9410
 30
0.0000
  0
VERTEX
  8
0
 10
1788.7446
 20
1284.6330
 30
0.0000
  0
VERTEX
  8
0
 10
1788.2501
 20
1285.2827
 30
0.0000
  0
VERTEX
  8
0
 10
1787.6328
 20
1285.8777
 30
0.0000
  0
VERTEX
  8
0
 10
1786.9047
 20
1286.4063
 30
0.0000
  0
VERTEX
  8
0
 10
1786.0799
 20
1286.8583
 30
0.0000
  0
VERTEX
  8
0
 10
1785.1743
 20
1287.2250
 30
0.0000
  0
VERTEX
  8
0
 10
1784.0809
 20
1287.5267
 30
0.0000
  0
VERTEX
  8
0
 10
1782.9344
 20
1287.7042
 30
0.0000
  0
VERTEX
  8
0
 10
1781.7627
 20
1287.7529
 30
0.0000
  0
VERTEX
  8
0
 10
1780.5946
 20
1287.6718
 30
0.0000
  0
VERTEX
  8
0
 10
1779.4586
 20
1287.4629
 30
0.0000
  0
VERTEX
  8
0
 10
1778.4985
 20
1287.1739
 30
0.0000
  0
VERTEX
  8
0
 10
1777.6044
 20
1286.7934
 30
0.0000
  0
VERTEX
  8
0
 10
1776.7936
 20
1286.3289
 30
0.0000
  0
VERTEX
  8
0
 10
1776.6058
 20
1286.2006
 30
0.0000
  0
SEQEND
  0
POLYLINE
  6
continous
  8
BYBLOCK
 70
0
 66
1
  0
VERTEX
  8
0
 10
1720.0372
 20
1246.2006
 30
0.0000
  0
VERTEX
  8
0
 10
1719.3563
 20
1245.6475
 30
0.0000
  0
VERTEX
  8
0
 10
1718.7899
 20
1245.0331
 30
0.0000
  0
VERTEX
  8
0
 10
1718.3487
 20
1244.3694
 30
0.0000
  0
VERTEX
  8
0
 10
1718.0412
 20
1243.6691
 30
0.0000
  0
VERTEX
  8
0
 10
1717.8733
 20
1242.9454
 30
0.0000
  0
VERTEX
  8
0
 10
1717.8407
 20
1242.4874
 30
0.0000
  0
SEQEND
  0
LINE
  6
continous
  8
BYBLOCK
 10
1720.0372
 20
1246.2006
 30
0.0000
 11
1720.0372
 21
1246.2714
 31
0.0000
  0
POLYLINE
  6
continous
  8
BYBLOCK
 70
0
 66
1
  0
VERTEX
  8
0
 10
1732.8404
 20
1242.4843
 30
0.0000
  0
VERTEX
  8
0
 10
1732.7612
 20
1243.2201
 30
0.0000
  0
VERTEX
  8
0
 10
1732.5383
 20
1243.9410
 30
0.0000
  0
VERTEX
  8
0
 10
1732.1761
 20
1244.6330
 30
0.0000
  0
VERTEX
  8
0
 10
1731.6816
 20
1245.2827
 30
0.0000
  0
VERTEX
  8
0
 10
1731.0643
 20
1245.8777
 30
0.0000
  0
VERTEX
  8
0
 10
1730.3362
 20
1246.4063
 30
0.0000
  0
VERTEX
  8
0
 10
1729.5113
 20
1246.8583
 30
0.0000
  0
VERTEX
  8
0
 10
1728.6058
 20
1247.2250
 30
0.0000
  0
VERTEX
  8
0
 10
1727.5124
 20
1247.5267
 30
0.0000
  0
VERTEX
  8
0
 10
1726.3658
 20
1247.7042
 30
0.0000
  0
VERTEX
  8
0
 10
1725.1941
 20
1247.7529
 30
0.0000
  0
VERTEX
  8
0
 10
1724.0260
 20
1247.6718
 30
0.0000
  0
VERTEX
  8
0
 10
1722.8901
 20
1247.4629
 30
0.0000
  0
VERTEX
  8
0
 10
1721.9300
 20
1247.1739
 30
0.0000
  0
VERTEX
  8
0
 10
1721.0358
 20
1246.7934
 30
0.0000
  0
VERTEX
  8
0
 10
1720.2250
 20
1246.3289
 30
0.0000
  0
VERTEX
  8
0
 10
1720.0372
 20
1246.2006
 30
0.0000
  0
SEQEND
  0
POLYLINE
  6
continous
  8
BYBLOCK
 70
0
 66
1
  0
VERTEX
  8
0
 10
1663.4687
 20
1206.2006
 30
0.0000
  0
VERTEX
  8
0
 10
1662.7878
 20
1205.6475
 30
0.0000
  0
VERTEX
  8
0
 10
1662.2213
 20
1205.0331
 30
0.0000
  0
VERTEX
  8
0
 10
1661.7801
 20
1204.3694
 30
0.0000
  0
VERTEX
  8
0
 10
1661.4726
 20
1203.6691
 30
0.0000
  0
VERTEX
  8
0
 10
1661.3047
 20
1202.9454
 30
0.0000
  0
VERTEX
  8
0
 10
1661.2722
 20
1202.4874
 30
0.0000
  0
SEQEND
  0
LINE
  6
continous
  8
BYBLOCK
 10
1663.4687
 20
1206.2006
 30
0.0000
 11
1663.4687
 21
1206.2714
 31
0.0000
  0
POLYLINE
  6
continous
  8
BYBLOCK
 70
0
 66
1
  0
VERTEX
  8
0
 10
1676.2719
 20
1202.4843
 30
0.0000
  0
VERTEX
  8
0
 10
1676.1926
 20
1203.2201
 30
0.0000
  0
VERTEX
  8
0
 10
1675.9698
 20
1203.9410
 30
0.0000
  0
VERTEX
  8
0
 10
1675.6076
 20
1204.6330
 30
0.0000
  0
VERTEX
  8
0
 10
1675.1130
 20
1205.2827
 30
0.0000
  0
VERTEX
  8
0
 10
1674.4957
 20
1205.8777
 30
0.0000
  0
VERTEX
  8
0
 10
1673.7676
 20
1206.4063
 30
0.0000
  0
VERTEX
  8
0
 10
1672.9428
 20
1206.8583
 30
0.0000
  0
VERTEX
  8
0
 10
1672.0372
 20
1207.2250
 30
0.0000
  0
VERTEX
  8
0
 10
1670.9438
 20
1207.5267
 30
0.0000
  0
VERTEX
  8
0
 10
1669.7973
 20
1207.7042
 30
0.0000
  0
VERTEX
  8
0
 10
1668.6256
 20
1207.7529
 30
0.0000
  0
VERTEX
  8
0
 10
1667.4575
 20
1207.6718
 30
0.0000
  0
VERTEX
  8
0
 10
1666.3216
 20
1207.4629
 30
0.0000
  0
VERTEX
  8
0
 10
1665.3614
 20
1207.1739
 30
0.0000
  0
VERTEX
  8
0
 10
1664.4673
 20
1206.7934
 30
0.0000
  0
VERTEX
  8
0
 10
1663.6565
 20
1206.3289
 30
0.0000
  0
VERTEX
  8
0
 10
1663.4687
 20
1206.2006
 30
0.0000
  0
SEQEND
  0
POLYLINE
  6
continous
  8
BYBLOCK
 70
0
 66
1
  0
VERTEX
  8
0
 10
1606.9002
 20
1166.2006
 30
0.0000
  0
VERTEX
  8
0
 10
1606.2193
 20
1165.6475
 30
0.0000
  0
VERTEX
  8
0
 10
1605.6528
 20
1165.0331
 30
0.0000
  0
VERTEX
  8
0
 10
1605.2116
 20
1164.3694
 30
0.0000
  0
VERTEX
  8
0
 10
1604.9041
 20
1163.6691
 30
0.0000
  0
VERTEX
  8
0
 10
1604.7362
 20
1162.9454
 30
0.0000
  0
VERTEX
  8
0
 10
1604.7036
 20
1162.4874
 30
0.0000
  0
SEQEND
  0
LINE
  6
continous
  8
BYBLOCK
 10
1606.9002
 20
1166.2006
 30
0.0000
 11
1606.9002
 21
1166.2714
 31
0.0000
  0
POLYLINE
  6
continous
  8
BYBLOCK
 70
0
 66
1
  0
VERTEX
  8
0
 10
1619.7033
 20
1162.4843
 30
0.0000
  0
VERTEX
  8
0
 10
1619.6241
 20
1163.2201
 30
0.0000
  0
VERTEX
  8
0
 10
1619.4012
 20
1163.9410
 30
0.0000
  0
VERTEX
  8
0
 10
1619.0390
 20
1164.6330
 30
0.0000
  0
VERTEX
  8
0
 10
1618.5445
 20
1165.2827
 30
0.0000
  0
VERTEX
  8
0
 10
1617.9272
 20
1165.8777
 30
0.0000
  0
VERTEX
  8
0
 10
1617.1991
 20
1166.4063
 30
0.0000
  0
VERTEX
  8
0
 10
1616.3743
 20
1166.8583
 30
0.0000
  0
VERTEX
  8
0
 10
1615.4687
 20
1167.2250
 30
0.0000
  0
VERTEX
  8
0
 10
1614.3753
 20
1167.5267
 30
0.0000
  0
VERTEX
  8
0
 10
1613.2287
 20
1167.7042
 30
0.0000
  0
VERTEX
  8
0
 10
1612.0570
 20
1167.7529
 30
0.0000
  0
VERTEX
  8
0
 10
1610.8889
 20
1167.6718
 30
0.0000
  0
VERTEX
  8
0
 10
1609.7530
 20
1167.4629
 30
0.0000
  0
VERTEX
  8
0
 10
1608.7929
 20
1167.1739
 30
0.0000
  0
VERTEX
  8
0
 10
1607.8987
 20
1166.7934
 30
0.0000
  0
VERTEX
  8
0
 10
1607.0880
 20
1166.3289
 30
0.0000
  0
VERTEX
  8
0
 10
1606.9002
 20
1166.2006
 30
0.0000
  0
SEQEND
  0
POLYLINE
  6
continous
  8
BYBLOCK
 70
0
 66
1
  0
VERTEX
  8
0
 10
1550.3316
 20
1126.2006
 30
0.0000
  0
VERTEX
  8
0
 10
1549.6507
 20
1125.6475
 30
0.0000
  0
VERTEX
  8
0
 10
1549.0842
 20
1125.0331
 30
0.0000
  0
VERTEX
  8
0
 10
1548.6430
 20
1124.3694
 30
0.0000
  0
VERTEX
  8
0
 10
1548.3355
 20
1123.6691
 30
0.0000
  0
VERTEX
  8
0
 10
1548.1676
 20
1122.9454
 30
0.0000
  0
VERTEX
  8
0
 10
1548.1351
 20
1122.4874
 30
0.0000
  0
SEQEND
  0
LINE
  6
continous
  8
BYBLOCK
 10
1550.3316
 20
1126.2006
 30
0.0000
 11
1550.3316
 21
1126.2714
 31
0.0000
  0
POLYLINE
  6
continous
  8
BYBLOCK
 70
0
 66
1
  0
VERTEX
  8
0
 10
1563.1348
 20
1122.4843
 30
0.0000
  0
VERTEX
  8
0
 10
1563.0556
 20
1123.2201
 30
0.0000
  0
VERTEX
  8
0
 10
1562.8327
 20
1123.9410
 30
0.0000
  0
VERTEX
  8
0
 10
1562.4705
 20
1124.6330
 30
0.0000
  0
VERTEX
  8
0
 10
1561.9759
 20
1125.2827
 30
0.0000
  0
VERTEX
  8
0
 10
1561.3586
 20
1125.8777
 30
0.0000
  0
VERTEX
  8
0
 10
1560.6305
 20
1126.4063
 30
0.0000
  0
VERTEX
  8
0
 10
1559.8057
 20
1126.8583
 30
0.0000
  0
VERTEX
  8
0
 10
1558.9002
 20
1127.2250
 30
0.0000
  0
VERTEX
  8
0
 10
1557.8068
 20
1127.5267
 30
0.0000
  0
VERTEX
  8
0
 10
1556.6602
 20
1127.7042
 30
0.0000
  0
VERTEX
  8
0
 10
1555.4885
 20
1127.7529
 30
0.0000
  0
VERTEX
  8
0
 10
1554.3204
 20
1127.6718
 30
0.0000
  0
VERTEX
  8
0
 10
1553.1845
 20
1127.4629
 30
0.0000
  0
VERTEX
  8
0
 10
1552.2243
 20
1127.1739
 30
0.0000
  0
VERTEX
  8
0
 10
1551.3302
 20
1126.7934
 30
0.0000
  0
VERTEX
  8
0
 10
1550.5194
 20
1126.3289
 30
0.0000
  0
VERTEX
  8
0
 10
1550.3316
 20
1126.2006
 30
0.0000
  0
SEQEND
  0
POLYLINE
  6
continous
  8
BYBLOCK
 70
0
 66
1
  0
VERTEX
  8
0
 10
1493.7631
 20
1086.2006
 30
0.0000
  0
VERTEX
  8
0
 10
1493.0822
 20
1085.6475
 30
0.0000
  0
VERTEX
  8
0
 10
1492.5157
 20
1085.0331
 30
0.0000
  0
VERTEX
  8
0
 10
1492.0745
 20
1084.3694
 30
0.0000
  0
VERTEX
  8
0
 10
1491.7670
 20
1083.6691
 30
0.0000
  0
VERTEX
  8
0
 10
1491.5991
 20
1082.9454
 30
0.0000
  0
VERTEX
  8
0
 10
1491.5666
 20
1082.4874
 30
0.0000
  0
SEQEND
  0
LINE
  6
continous
  8
BYBLOCK
 10
1493.7631
 20
1086.2006
 30
0.0000
 11
1493.7631
 21
1086.2714
 31
0.0000
  0
POLYLINE
  6
continous
  8
BYBLOCK
 70
0
 66
1
  0
VERTEX
  8
0
 10
1506.5662
 20
1082.4843
 30
0.0000
  0
VERTEX
  8
0
 10
1506.4870
 20
1083.2201
 30
0.0000
  0
VERTEX
  8
0
 10
1506.2641
 20
1083.9410
 30
0.0000
  0
VERTEX
  8
0
 10
1505.9019
 20
1084.6330
 30
0.0000
  0
VERTEX
  8
0
 10
1505.4074
 20
1085.2827
 30
0.0000
  0
VERTEX
  8
0
 10
1504.7901
 20
1085.8777
 30
0.0000
  0
VERTEX
  8
0
 10
1504.0620
 20
1086.4063
 30
0.0000
  0
VERTEX
  8
0
 10
1503.2372
 20
1086.8583
 30
0.0000
  0
VERTEX
  8
0
 10
1502.3316
 20
1087.2250
 30
0.0000
  0
VERTEX
  8
0
 10
1501.2382
 20
1087.5267
 30
0.0000
  0
VERTEX
  8
0
 10
1500.0916
 20
1087.7042
 30
0.0000
  0
VERTEX
  8
0
 10
1498.9199
 20
1087.7529
 30
0.0000
  0
VERTEX
  8
0
 10
1497.7518
 20
1087.6718
 30
0.0000
  0
VERTEX
  8
0
 10
1496.6159
 20
1087.4629
 30
0.0000
  0
VERTEX
  8
0
 10
1495.6558
 20
1087.1739
 30
0.0000
  0
VERTEX
  8
0
 10
1494.7617
 20
1086.7934
 30
0.0000
  0
VERTEX
  8
0
 10
1493.9509
 20
1086.3289
 30
0.0000
  0
VERTEX
  8
0
 10
1493.7631
 20
1086.2006
 30
0.0000
  0
SEQEND
  0
POLYLINE
  6
continous
  8
BYBLOCK
 70
0
 66
1
  0
VERTEX
  8
0
 10
1437.1945
 20
1046.2006
 30
0.0000
  0
VERTEX
  8
0
 10
1436.5136
 20
1045.6475
 30
0.0000
  0
VERTEX
  8
0
 10
1435.9472
 20
1045.0331
 30
0.0000
  0
VERTEX
  8
0
 10
1435.5060
 20
1044.3694
 30
0.0000
  0
VERTEX
  8
0
 10
1435.1985
 20
1043.6691
 30
0.0000
  0
VERTEX
  8
0
 10
1435.0305
 20
1042.9454
 30
0.0000
  0
VERTEX
  8
0
 10
1434.9980
 20
1042.4874
 30
0.0000
  0
SEQEND
  0
LINE
  6
continous
  8
BYBLOCK
 10
1437.1945
 20
1046.2006
 30
0.0000
 11
1437.1945
 21
1046.2714
 31
0.0000
  0
POLYLINE
  6
continous
  8
BYBLOCK
 70
0
 66
1
  0
VERTEX
  8
0
 10
1449.9977
 20
1042.4843
 30
0.0000
  0
VERTEX
  8
0
 10
1449.9185
 20
1043.2201
 30
0.0000
  0
VERTEX
  8
0
 10
1449.6956
 20
1043.9410
 30
0.0000
  0
VERTEX
  8
0
 10
1449.3334
 20
1044.6330
 30
0.0000
  0
VERTEX
  8
0
 10
1448.8388
 20
1045.2827
 30
0.0000
  0
VERTEX
  8
0
 10
1448.2215
 20
1045.8777
 30
0.0000
  0
VERTEX
  8
0
 10
1447.4934
 20
1046.4063
 30
0.0000
  0
VERTEX
  8
0
 10
1446.6686
 20
1046.8583
 30
0.0000
  0
VERTEX
  8
0
 10
1445.7631
 20
1047.2250
 30
0.0000
  0
VERTEX
  8
0
 10
1444.6697
 20
1047.5267
 30
0.0000
  0
VERTEX
  8
0
 10
1443.5231
 20
1047.7042
 30
0.0000
  0
VERTEX
  8
0
 10
1442.3514
 20
1047.7529
 30
0.0000
  0
VERTEX
  8
0
 10
1441.1833
 20
1047.6718
 30
0.0000
  0
VERTEX
  8
0
 10
1440.0474
 20
1047.4629
 30
0.0000
  0
VERTEX
  8
0
 10
1439.0872
 20
1047.1739
 30
0.0000
  0
VERTEX
  8
0
 10
1438.1931
 20
1046.7934
 30
0.0000
  0
VERTEX
  8
0
 10
1437.3823
 20
1046.3289
 30
0.0000
  0
VERTEX
  8
0
 10
1437.1945
 20
1046.2006
 30
0.0000
  0
SEQEND
  0
POLYLINE
  6
continous
  8
BYBLOCK
 70
0
 66
1
  0
VERTEX
  8
0
 10
1380.6260
 20
1006.2006
 30
0.0000
  0
VERTEX
  8
0
 10
1379.9451
 20
1005.6475
 30
0.0000
  0
VERTEX
  8
0
 10
1379.3786
 20
1005.0331
 30
0.0000
  0
VERTEX
  8
0
 10
1378.9374
 20
1004.3694
 30
0.0000
  0
VERTEX
  8
0
 10
1378.6299
 20
1003.6691
 30
0.0000
  0
VERTEX
  8
0
 10
1378.4620
 20
1002.9454
 30
0.0000
  0
VERTEX
  8
0
 10
1378.4295
 20
1002.4874
 30
0.0000
  0
SEQEND
  0
LINE
  6
continous
  8
BYBLOCK
 10
1380.6260
 20
1006.2006
 30
0.0000
 11
1380.6260
 21
1006.2714
 31
0.0000
  0
POLYLINE
  6
continous
  8
BYBLOCK
 70
0
 66
1
  0
VERTEX
  8
0
 10
1393.4291
 20
1002.4843
 30
0.0000
  0
VERTEX
  8
0
 10
1393.3499
 20
1003.2201
 30
0.0000
  0
VERTEX
  8
0
 10
1393.1271
 20
1003.9410
 30
0.0000
  0
VERTEX
  8
0
 10
1392.7648
 20
1004.6330
 30
0.0000
  0
VERTEX
  8
0
 10
1392.2703
 20
1005.2827
 30
0.0000
  0
VERTEX
  8
0
 10
1391.6530
 20
1005.8777
 30
0.0000
  0
VERTEX
  8
0
 10
1390.9249
 20
1006.4063
 30
0.0000
  0
VERTEX
  8
0
 10
1390.1001
 20
1006.8583
 30
0.0000
  0
VERTEX
  8
0
 10
1389.1945
 20
1007.2250
 30
0.0000
  0
VERTEX
  8
0
 10
1388.1011
 20
1007.5267
 30
0.0000
  0
VERTEX
  8
0
 10
1386.9546
 20
1007.7042
 30
0.0000
  0
VERTEX
  8
0
 10
1385.7829
 20
1007.7529
 30
0.0000
  0
VERTEX
  8
0
 10
1384.6148
 20
1007.6718
 30
0.0000
  0
VERTEX
  8
0
 10
1383.4789
 20
1007.4629
 30
0.0000
  0
VERTEX
  8
0
 10
1382.5187
 20
1007.1739
 30
0.0000
  0
VERTEX
  8
0
 10
1381.6246
 20
1006.7934
 30
0.0000
  0
VERTEX
  8
0
 10
1380.8138
 20
1006.3289
 30
0.0000
  0
VERTEX
  8
0
 10
1380.6260
 20
1006.2006
 30
0.0000
  0
SEQEND
  0
POLYLINE
  6
continous
  8
BYBLOCK
 70
0
 66
1
  0
VERTEX
  8
0
 10
1324.0574
 20
966.2006
 30
0.0000
  0
VERTEX
  8
0
 10
1323.3765
 20
965.6475
 30
0.0000
  0
VERTEX
  8
0
 10
1322.8101
 20
965.0331
 30
0.0000
  0
VERTEX
  8
0
 10
1322.3689
 20
964.3694
 30
0.0000
  0
VERTEX
  8
0
 10
1322.0614
 20
963.6691
 30
0.0000
  0
VERTEX
  8
0
 10
1321.8935
 20
962.9454
 30
0.0000
  0
VERTEX
  8
0
 10
1321.8609
 20
962.4874
 30
0.0000
  0
SEQEND
  0
LINE
  6
continous
  8
BYBLOCK
 10
1324.0574
 20
966.2006
 30
0.0000
 11
1324.0574
 21
966.2714
 31
0.0000
  0
POLYLINE
  6
continous
  8
BYBLOCK
 70
0
 66
1
  0
VERTEX
  8
0
 10
1336.8606
 20
962.4843
 30
0.0000
  0
VERTEX
  8
0
 10
1336.7814
 20
963.2201
 30
0.0000
  0
VERTEX
  8
0
 10
1336.5585
 20
963.9410
 30
0.0000
  0
VERTEX
  8
0
 10
1336.1963
 20
964.6330
 30
0.0000
  0
VERTEX
  8
0
 10
1335.7018
 20
965.2827
 30
0.0000
  0
VERTEX
  8
0
 10
1335.0845
 20
965.8777
 30
0.0000
  0
VERTEX
  8
0
 10
1334.3564
 20
966.4063
 30
0.0000
  0
VERTEX
  8
0
 10
1333.5315
 20
966.8583
 30
0.0000
  0
VERTEX
  8
0
 10
1332.6260
 20
967.2250
 30
0.0000
  0
VERTEX
  8
0
 10
1331.5326
 20
967.5267
 30
0.0000
  0
VERTEX
  8
0
 10
1330.3860
 20
967.7042
 30
0.0000
  0
VERTEX
  8
0
 10
1329.2143
 20
967.7529
 30
0.0000
  0
VERTEX
  8
0
 10
1328.0462
 20
967.6718
 30
0.0000
  0
VERTEX
  8
0
 10
1326.9103
 20
967.4629
 30
0.0000
  0
VERTEX
  8
0
 10
1325.9502
 20
967.1739
 30
0.0000
  0
VERTEX
  8
0
 10
1325.0560
 20
966.7934
 30
0.0000
  0
VERTEX
  8
0
 10
1324.2452
 20
966.3289
 30
0.0000
  0
VERTEX
  8
0
 10
1324.0574
 20
966.2006
 30
0.0000
  0
SEQEND
  0
POLYLINE
  6
continous
  8
BYBLOCK
 70
0
 66
1
  0
VERTEX
  8
0
 10
1267.4889
 20
926.2006
 30
0.0000
  0
VERTEX
  8
0
 10
1266.8080
 20
925.6475
 30
0.0000
  0
VERTEX
  8
0
 10
1266.2415
 20
925.0331
 30
0.0000
  0
VERTEX
  8
0
 10
1265.8003
 20
924.3694
 30
0.0000
  0
VERTEX
  8
0
 10
1265.4928
 20
923.6691
 30
0.0000
  0
VERTEX
  8
0
 10
1265.3249
 20
922.9454
 30
0.0000
  0
VERTEX
  8
0
 10
1265.2924
 20
922.4874
 30
0.0000
  0
SEQEND
  0
LINE
  6
continous
  8
BYBLOCK
 10
1267.4889
 20
926.2006
 30
0.0000
 11
1267.4889
 21
926.2714
 31
0.0000
  0
POLYLINE
  6
continous
  8
BYBLOCK
 70
0
 66
1
  0
VERTEX
  8
0
 10
1280.2921
 20
922.4843
 30
0.0000
  0
VERTEX
  8
0
 10
1280.2128
 20
923.2201
 30
0.0000
  0
VERTEX
  8
0
 10
1279.9900
 20
923.9410
 30
0.0000
  0
VERTEX
  8
0
 10
1279.6278
 20
924.6330
 30
0.0000
  0
VERTEX
  8
0
 10
1279.1332
 20
925.2827
 30
0.0000
  0
VERTEX
  8
0
 10
1278.5159
 20
925.8777
 30
0.0000
  0
VERTEX
  8
0
 10
1277.7878
 20
926.4063
 30
0.0000
  0
VERTEX
  8
0
 10
1276.9630
 20
926.8583
 30
0.0000
  0
VERTEX
  8
0
 10
1276.0574
 20
927.2250
 30
0.0000
  0
VERTEX
  8
0
 10
1274.9640
 20
927.5267
 30
0.0000
  0
VERTEX
  8
0
 10
1273.8175
 20
927.7042
 30
0.0000
  0
VERTEX
  8
0
 10
1272.6458
 20
927.7529
 30
0.0000
  0
VERTEX
  8
0
 10
1271.4777
 20
927.6718
 30
0.0000
  0
VERTEX
  8
0
 10
1270.3418
 20
927.4629
 30
0.0000
  0
VERTEX
  8
0
 10
1269.3816
 20
927.1739
 30
0.0000
  0
VERTEX
  8
0
 10
1268.4875
 20
926.7934
 30
0.0000
  0
VERTEX
  8
0
 10
1267.6767
 20
926.3289
 30
0.0000
  0
VERTEX
  8
0
 10
1267.4889
 20
926.2006
 30
0.0000
  0
SEQEND
  0
POLYLINE
  6
continous
  8
BYBLOCK
 70
0
 66
1
  0
VERTEX
  8
0
 10
1210.9204
 20
886.2006
 30
0.0000
  0
VERTEX
  8
0
 10
1210.2395
 20
885.6475
 30
0.0000
  0
VERTEX
  8
0
 10
1209.6730
 20
885.0331
 30
0.0000
  0
VERTEX
  8
0
 10
1209.2318
 20
884.3694
 30
0.0000
  0
VERTEX
  8
0
 10
1208.9243
 20
883.6691
 30
0.0000
  0
VERTEX
  8
0
 10
1208.7564
 20
882.9454
 30
0.0000
  0
VERTEX
  8
0
 10
1208.7238
 20
882.4874
 30
0.0000
  0
SEQEND
  0
LINE
  6
continous
  8
BYBLOCK
 10
1210.9204
 20
886.2006
 30
0.0000
 11
1210.9204
 21
886.2714
 31
0.0000
  0
POLYLINE
  6
continous
  8
BYBLOCK
 70
0
 66
1
  0
VERTEX
  8
0
 10
1223.7235
 20
882.4843
 30
0.0000
  0
VERTEX
  8
0
 10
1223.6443
 20
883.2201
 30
0.0000
  0
VERTEX
  8
0
 10
1223.4214
 20
883.9410
 30
0.0000
  0
VERTEX
  8
0
 10
1223.0592
 20
884.6330
 30
0.0000
  0
VERTEX
  8
0
 10
1222.5647
 20
885.2827
 30
0.0000
  0
VERTEX
  8
0
 10
1221.9474
 20
885.8777
 30
0.0000
  0
VERTEX
  8
0
 10
1221.2193
 20
886.4063
 30
0.0000
  0
VERTEX
  8
0
 10
1220.3945
 20
886.8583
 30
0.0000
  0
VERTEX
  8
0
 10
1219.4889
 20
887.2250
 30
0.0000
  0
VERTEX
  8
0
 10
1218.3955
 20
887.5267
 30
0.0000
  0
VERTEX
  8
0
 10
1217.2489
 20
887.7042
 30
0.0000
  0
VERTEX
  8
0
 10
1216.0772
 20
887.7529
 30
0.0000
  0
VERTEX
  8
0
 10
1214.9091
 20
887.6718
 30
0.0000
  0
VERTEX
  8
0
 10
1213.7732
 20
887.4629
 30
0.0000
  0
VERTEX
  8
0
 10
1212.8131
 20
887.1739
 30
0.0000
  0
VERTEX
  8
0
 10
1211.9189
 20
886.7934
 30
0.0000
  0
VERTEX
  8
0
 10
1211.1082
 20
886.3289
 30
0.0000
  0
VERTEX
  8
0
 10
1210.9204
 20
886.2006
 30
0.0000
  0
SEQEND
  0
POLYLINE
  6
continous
  8
BYBLOCK
 70
0
 66
1
  0
VERTEX
  8
0
 10
1154.3518
 20
846.2006
 30
0.0000
  0
VERTEX
  8
0
 10
1153.6709
 20
845.6475
 30
0.0000
  0
VERTEX
  8
0
 10
1153.1044
 20
845.0331
 30
0.0000
  0
VERTEX
  8
0
 10
1152.6632
 20
844.3694
 30
0.0000
  0
VERTEX
  8
0
 10
1152.3557
 20
843.6691
 30
0.0000
  0
VERTEX
  8
0
 10
1152.1878
 20
842.9454
 30
0.0000
  0
VERTEX
  8
0
 10
1152.1553
 20
842.4874
 30
0.0000
  0
SEQEND
  0
LINE
  6
continous
  8
BYBLOCK
 10
1154.3518
 20
846.2006
 30
0.0000
 11
1154.3518
 21
846.2714
 31
0.0000
  0
POLYLINE
  6
continous
  8
BYBLOCK
 70
0
 66
1
  0
VERTEX
  8
0
 10
1167.1550
 20
842.4843
 30
0.0000
  0
VERTEX
  8
0
 10
1167.0758
 20
843.2201
 30
0.0000
  0
VERTEX
  8
0
 10
1166.8529
 20
843.9410
 30
0.0000
  0
VERTEX
  8
0
 10
1166.4907
 20
844.6330
 30
0.0000
  0
VERTEX
  8
0
 10
1165.9961
 20
845.2827
 30
0.0000
  0
VERTEX
  8
0
 10
1165.3788
 20
845.8777
 30
0.0000
  0
VERTEX
  8
0
 10
1164.6507
 20
846.4063
 30
0.0000
  0
VERTEX
  8
0
 10
1163.8259
 20
846.8583
 30
0.0000
  0
VERTEX
  8
0
 10
1162.9204
 20
847.2250
 30
0.0000
  0
VERTEX
  8
0
 10
1161.8270
 20
847.5267
 30
0.0000
  0
VERTEX
  8
0
 10
1160.6804
 20
847.7042
 30
0.0000
  0
VERTEX
  8
0
 10
1159.5087
 20
847.7529
 30
0.0000
  0
VERTEX
  8
0
 10
1158.3406
 20
847.6718
 30
0.0000
  0
VERTEX
  8
0
 10
1157.2047
 20
847.4629
 30
0.0000
  0
VERTEX
  8
0
 10
1156.2445
 20
847.1739
 30
0.0000
  0
VERTEX
  8
0
 10
1155.3504
 20
846.7934
 30
0.0000
  0
VERTEX
  8
0
 10
1154.5396
 20
846.3289
 30
0.0000
  0
VERTEX
  8
0
 10
1154.3518
 20
846.2006
 30
0.0000
  0
SEQEND
  0
POLYLINE
  6
continous
  8
BYBLOCK
 70
0
 66
1
  0
VERTEX
  8
0
 10
1097.7833
 20
806.2006
 30
0.0000
  0
VERTEX
  8
0
 10
1097.1024
 20
805.6475
 30
0.0000
  0
VERTEX
  8
0
 10
1096.5359
 20
805.0331
 30
0.0000
  0
VERTEX
  8
0
 10
1096.0947
 20
804.3694
 30
0.0000
  0
VERTEX
  8
0
 10
1095.7872
 20
803.6691
 30
0.0000
  0
VERTEX
  8
0
 10
1095.6193
 20
802.9454
 30
0.0000
  0
VERTEX
  8
0
 10
1095.5868
 20
802.4874
 30
0.0000
  0
SEQEND
  0
LINE
  6
continous
  8
BYBLOCK
 10
1097.7833
 20
806.2006
 30
0.0000
 11
1097.7833
 21
806.2714
 31
0.0000
  0
POLYLINE
  6
continous
  8
BYBLOCK
 70
0
 66
1
  0
VERTEX
  8
0
 10
1110.5864
 20
802.4843
 30
0.0000
  0
VERTEX
  8
0
 10
1110.5072
 20
803.2201
 30
0.0000
  0
VERTEX
  8
0
 10
1110.2843
 20
803.9410
 30
0.0000
  0
VERTEX
  8
0
 10
1109.9221
 20
804.6330
 30
0.0000
  0
VERTEX
  8
0
 10
1109.4276
 20
805.2827
 30
0.0000
  0
VERTEX
  8
0
 10
1108.8103
 20
805.8777
 30
0.0000
  0
VERTEX
  8
0
 10
1108.0822
 20
806.4063
 30
0.0000
  0
VERTEX
  8
0
 10
1107.2574
 20
806.8583
 30
0.0000
  0
VERTEX
  8
0
 10
1106.3518
 20
807.2250
 30
0.0000
  0
VERTEX
  8
0
 10
1105.2584
 20
807.5267
 30
0.0000
  0
VERTEX
  8
0
 10
1104.1118
 20
807.7042
 30
0.0000
  0
VERTEX
  8
0
 10
1102.9402
 20
807.7529
 30
0.0000
  0
VERTEX
  8
0
 10
1101.7720
 20
807.6718
 30
0.0000
  0
VERTEX
  8
0
 10
1100.6361
 20
807.4629
 30
0.0000
  0
VERTEX
  8
0
 10
1099.6760
 20
807.1739
 30
0.0000
  0
VERTEX
  8
0
 10
1098.7819
 20
806.7934
 30
0.0000
  0
VERTEX
  8
0
 10
1097.9711
 20
806.3289
 30
0.0000
  0
VERTEX
  8
0
 10
1097.7833
 20
806.2006
 30
0.0000
  0
SEQEND
  0
POLYLINE
  6
continous
  8
BYBLOCK
 70
0
 66
1
  0
VERTEX
  8
0
 10
1041.2147
 20
766.2006
 30
0.0000
  0
VERTEX
  8
0
 10
1040.5338
 20
765.6475
 30
0.0000
  0
VERTEX
  8
0
 10
1039.9674
 20
765.0331
 30
0.0000
  0
VERTEX
  8
0
 10
1039.5262
 20
764.3694
 30
0.0000
  0
VERTEX
  8
0
 10
1039.2187
 20
763.6691
 30
0.0000
  0
VERTEX
  8
0
 10
1039.0507
 20
762.9454
 30
0.0000
  0
VERTEX
  8
0
 10
1039.0182
 20
762.4874
 30
0.0000
  0
SEQEND
  0
LINE
  6
continous
  8
BYBLOCK
 10
1041.2147
 20
766.2006
 30
0.0000
 11
1041.2147
 21
766.2714
 31
0.0000
  0
POLYLINE
  6
continous
  8
BYBLOCK
 70
0
 66
1
  0
VERTEX
  8
0
 10
1054.0179
 20
762.4843
 30
0.0000
  0
VERTEX
  8
0
 10
1053.9387
 20
763.2201
 30
0.0000
  0
VERTEX
  8
0
 10
1053.7158
 20
763.9410
 30
0.0000
  0
VERTEX
  8
0
 10
1053.3536
 20
764.6330
 30
0.0000
  0
VERTEX
  8
0
 10
1052.8590
 20
765.2827
 30
0.0000
  0
VERTEX
  8
0
 10
1052.2418
 20
765.8777
 30
0.0000
  0
VERTEX
  8
0
 10
1051.5136
 20
766.4063
 30
0.0000
  0
VERTEX
  8
0
 10
1050.6888
 20
766.8583
 30
0.0000
  0
VERTEX
  8
0
 10
1049.7833
 20
767.2250
 30
0.0000
  0
VERTEX
  8
0
 10
1048.6899
 20
767.5267
 30
0.0000
  0
VERTEX
  8
0
 10
1047.5433
 20
767.7042
 30
0.0000
  0
VERTEX
  8
0
 10
1046.3716
 20
767.7529
 30
0.0000
  0
VERTEX
  8
0
 10
1045.2035
 20
767.6718
 30
0.0000
  0
VERTEX
  8
0
 10
1044.0676
 20
767.4629
 30
0.0000
  0
VERTEX
  8
0
 10
1043.1074
 20
767.1739
 30
0.0000
  0
VERTEX
  8
0
 10
1042.2133
 20
766.7934
 30
0.0000
  0
VERTEX
  8
0
 10
1041.4025
 20
766.3289
 30
0.0000
  0
VERTEX
  8
0
 10
1041.2147
 20
766.2006
 30
0.0000
  0
SEQEND
  0
POLYLINE
  6
continous
  8
BYBLOCK
 70
0
 66
1
  0
VERTEX
  8
0
 10
984.6462
 20
726.2006
 30
0.0000
  0
VERTEX
  8
0
 10
983.9653
 20
725.6475
 30
0.0000
  0
VERTEX
  8
0
 10
983.3988
 20
725.0331
 30
0.0000
  0
VERTEX
  8
0
 10
982.9576
 20
724.3694
 30
0.0000
  0
VERTEX
  8
0
 10
982.6501
 20
723.6691
 30
0.0000
  0
VERTEX
  8
0
 10
982.4822
 20
722.9454
 30
0.0000
  0
VERTEX
  8
0
 10
982.4497
 20
722.4874
 30
0.0000
  0
SEQEND
  0
LINE
  6
continous
  8
BYBLOCK
 10
984.6462
 20
726.2006
 30
0.0000
 11
984.6462
 21
726.2714
 31
0.0000
  0
POLYLINE
  6
continous
  8
BYBLOCK
 70
0
 66
1
  0
VERTEX
  8
0
 10
997.4493
 20
722.4843
 30
0.0000
  0
VERTEX
  8
0
 10
997.3701
 20
723.2201
 30
0.0000
  0
VERTEX
  8
0
 10
997.1473
 20
723.9410
 30
0.0000
  0
VERTEX
  8
0
 10
996.7850
 20
724.6330
 30
0.0000
  0
VERTEX
  8
0
 10
996.2905
 20
725.2827
 30
0.0000
  0
VERTEX
  8
0
 10
995.6732
 20
725.8777
 30
0.0000
  0
VERTEX
  8
0
 10
994.9451
 20
726.4063
 30
0.0000
  0
VERTEX
  8
0
 10
994.1203
 20
726.8583
 30
0.0000
  0
VERTEX
  8
0
 10
993.2147
 20
727.2250
 30
0.0000
  0
VERTEX
  8
0
 10
992.1213
 20
727.5267
 30
0.0000
  0
VERTEX
  8
0
 10
990.9748
 20
727.7042
 30
0.0000
  0
VERTEX
  8
0
 10
989.8031
 20
727.7529
 30
0.0000
  0
VERTEX
  8
0
 10
988.6350
 20
727.6718
 30
0.0000
  0
VERTEX
  8
0
 10
987.4991
 20
727.4629
 30
0.0000
  0
VERTEX
  8
0
 10
986.5389
 20
727.1739
 30
0.0000
  0
VERTEX
  8
0
 10
985.6448
 20
726.7934
 30
0.0000
  0
VERTEX
  8
0
 10
984.8340
 20
726.3289
 30
0.0000
  0
VERTEX
  8
0
 10
984.6462
 20
726.2006
 30
0.0000
  0
SEQEND
  0
POLYLINE
  6
continous
  8
BYBLOCK
 70
0
 66
1
  0
VERTEX
  8
0
 10
928.0777
 20
686.2006
 30
0.0000
  0
VERTEX
  8
0
 10
927.3967
 20
685.6475
 30
0.0000
  0
VERTEX
  8
0
 10
926.8303
 20
685.0331
 30
0.0000
  0
VERTEX
  8
0
 10
926.3891
 20
684.3694
 30
0.0000
  0
VERTEX
  8
0
 10
926.0816
 20
683.6691
 30
0.0000
  0
VERTEX
  8
0
 10
925.9137
 20
682.9454
 30
0.0000
  0
VERTEX
  8
0
 10
925.8811
 20
682.4874
 30
0.0000
  0
SEQEND
  0
LINE
  6
continous
  8
BYBLOCK
 10
928.0777
 20
686.2006
 30
0.0000
 11
928.0777
 21
686.2714
 31
0.0000
  0
POLYLINE
  6
continous
  8
BYBLOCK
 70
0
 66
1
  0
VERTEX
  8
0
 10
940.8808
 20
682.4843
 30
0.0000
  0
VERTEX
  8
0
 10
940.8016
 20
683.2201
 30
0.0000
  0
VERTEX
  8
0
 10
940.5787
 20
683.9410
 30
0.0000
  0
VERTEX
  8
0
 10
940.2165
 20
684.6330
 30
0.0000
  0
VERTEX
  8
0
 10
939.7220
 20
685.2827
 30
0.0000
  0
VERTEX
  8
0
 10
939.1047
 20
685.8777
 30
0.0000
  0
VERTEX
  8
0
 10
938.3766
 20
686.4063
 30
0.0000
  0
VERTEX
  8
0
 10
937.5517
 20
686.8583
 30
0.0000
  0
VERTEX
  8
0
 10
936.6462
 20
687.2250
 30
0.0000
  0
VERTEX
  8
0
 10
935.5528
 20
687.5267
 30
0.0000
  0
VERTEX
  8
0
 10
934.4062
 20
687.7042
 30
0.0000
  0
VERTEX
  8
0
 10
933.2345
 20
687.7529
 30
0.0000
  0
VERTEX
  8
0
 10
932.0664
 20
687.6718
 30
0.0000
  0
VERTEX
  8
0
 10
930.9305
 20
687.4629
 30
0.0000
  0
VERTEX
  8
0
 10
929.9704
 20
687.1739
 30
0.0000
  0
VERTEX
  8
0
 10
929.0762
 20
686.7934
 30
0.0000
  0
VERTEX
  8
0
 10
928.2654
 20
686.3289
 30
0.0000
  0
VERTEX
  8
0
 10
928.0777
 20
686.2006
 30
0.0000
  0
SEQEND
  0
POLYLINE
  6
continous
  8
BYBLOCK
 70
0
 66
1
  0
VERTEX
  8
0
 10
871.5091
 20
646.2006
 30
0.0000
  0
VERTEX
  8
0
 10
870.8282
 20
645.6475
 30
0.0000
  0
VERTEX
  8
0
 10
870.2617
 20
645.0331
 30
0.0000
  0
VERTEX
  8
0
 10
869.8205
 20
644.3694
 30
0.0000
  0
VERTEX
  8
0
 10
869.5130
 20
643.6691
 30
0.0000
  0
VERTEX
  8
0
 10
869.3451
 20
642.9454
 30
0.0000
  0
VERTEX
  8
0
 10
869.3126
 20
642.4874
 30
0.0000
  0
SEQEND
  0
LINE
  6
continous
  8
BYBLOCK
 10
871.5091
 20
646.2006
 30
0.0000
 11
871.5091
 21
646.2714
 31
0.0000
  0
POLYLINE
  6
continous
  8
BYBLOCK
 70
0
 66
1
  0
VERTEX
  8
0
 10
884.3123
 20
642.4843
 30
0.0000
  0
VERTEX
  8
0
 10
884.2330
 20
643.2201
 30
0.0000
  0
VERTEX
  8
0
 10
884.0102
 20
643.9410
 30
0.0000
  0
VERTEX
  8
0
 10
883.6480
 20
644.6330
 30
0.0000
  0
VERTEX
  8
0
 10
883.1534
 20
645.2827
 30
0.0000
  0
VERTEX
  8
0
 10
882.5361
 20
645.8777
 30
0.0000
  0
VERTEX
  8
0
 10
881.8080
 20
646.4063
 30
0.0000
  0
VERTEX
  8
0
 10
880.9832
 20
646.8583
 30
0.0000
  0
VERTEX
  8
0
 10
880.0776
 20
647.2250
 30
0.0000
  0
VERTEX
  8
0
 10
878.9843
 20
647.5267
 30
0.0000
  0
VERTEX
  8
0
 10
877.8377
 20
647.7042
 30
0.0000
  0
VERTEX
  8
0
 10
876.6660
 20
647.7529
 30
0.0000
  0
VERTEX
  8
0
 10
875.4979
 20
647.6718
 30
0.0000
  0
VERTEX
  8
0
 10
874.3620
 20
647.4629
 30
0.0000
  0
VERTEX
  8
0
 10
873.4018
 20
647.1739
 30
0.0000
  0
VERTEX
  8
0
 10
872.5077
 20
646.7934
 30
0.0000
  0
VERTEX
  8
0
 10
871.6969
 20
646.3289
 30
0.0000
  0
VERTEX
  8
0
 10
871.5091
 20
646.2006
 30
0.0000
  0
SEQEND
  0
POLYLINE
  6
continous
  8
BYBLOCK
 70
0
 66
1
  0
VERTEX
  8
0
 10
814.9406
 20
606.2006
 30
0.0000
  0
VERTEX
  8
0
 10
814.2597
 20
605.6475
 30
0.0000
  0
VERTEX
  8
0
 10
813.6932
 20
605.0331
 30
0.0000
  0
VERTEX
  8
0
 10
813.2520
 20
604.3694
 30
0.0000
  0
VERTEX
  8
0
 10
812.9445
 20
603.6691
 30
0.0000
  0
VERTEX
  8
0
 10
812.7766
 20
602.9454
 30
0.0000
  0
VERTEX
  8
0
 10
812.7440
 20
602.4874
 30
0.0000
  0
SEQEND
  0
LINE
  6
continous
  8
BYBLOCK
 10
814.9406
 20
606.2006
 30
0.0000
 11
814.9406
 21
606.2714
 31
0.0000
  0
POLYLINE
  6
continous
  8
BYBLOCK
 70
0
 66
1
  0
VERTEX
  8
0
 10
827.7437
 20
602.4843
 30
0.0000
  0
VERTEX
  8
0
 10
827.6645
 20
603.2201
 30
0.0000
  0
VERTEX
  8
0
 10
827.4416
 20
603.9410
 30
0.0000
  0
VERTEX
  8
0
 10
827.0794
 20
604.6330
 30
0.0000
  0
VERTEX
  8
0
 10
826.5849
 20
605.2827
 30
0.0000
  0
VERTEX
  8
0
 10
825.9676
 20
605.8777
 30
0.0000
  0
VERTEX
  8
0
 10
825.2395
 20
606.4063
 30
0.0000
  0
VERTEX
  8
0
 10
824.4147
 20
606.8583
 30
0.0000
  0
VERTEX
  8
0
 10
823.5091
 20
607.2250
 30
0.0000
  0
VERTEX
  8
0
 10
822.4157
 20
607.5267
 30
0.0000
  0
VERTEX
  8
0
 10
821.2691
 20
607.7042
 30
0.0000
  0
VERTEX
  8
0
 10
820.0974
 20
607.7529
 30
0.0000
  0
VERTEX
  8
0
 10
818.9293
 20
607.6718
 30
0.0000
  0
VERTEX
  8
0
 10
817.7934
 20
607.4629
 30
0.0000
  0
VERTEX
  8
0
 10
816.8333
 20
607.1739
 30
0.0000
  0
VERTEX
  8
0
 10
815.9392
 20
606.7934
 30
0.0000
  0
VERTEX
  8
0
 10
815.1284
 20
606.3289
 30
0.0000
  0
VERTEX
  8
0
 10
814.9406
 20
606.2006
 30
0.0000
  0
SEQEND
  0
POLYLINE
  6
continous
  8
BYBLOCK
 70
0
 66
1
  0
VERTEX
  8
0
 10
758.3720
 20
566.2006
 30
0.0000
  0
VERTEX
  8
0
 10
757.6911
 20
565.6475
 30
0.0000
  0
VERTEX
  8
0
 10
757.1247
 20
565.0331
 30
0.0000
  0
VERTEX
  8
0
 10
756.6834
 20
564.3694
 30
0.0000
  0
VERTEX
  8
0
 10
756.3759
 20
563.6691
 30
0.0000
  0
VERTEX
  8
0
 10
756.2080
 20
562.9454
 30
0.0000
  0
VERTEX
  8
0
 10
756.1755
 20
562.4874
 30
0.0000
  0
SEQEND
  0
LINE
  6
continous
  8
BYBLOCK
 10
758.3720
 20
566.2006
 30
0.0000
 11
758.3720
 21
566.2714
 31
0.0000
  0
POLYLINE
  6
continous
  8
BYBLOCK
 70
0
 66
1
  0
VERTEX
  8
0
 10
771.1752
 20
562.4843
 30
0.0000
  0
VERTEX
  8
0
 10
771.0960
 20
563.2201
 30
0.0000
  0
VERTEX
  8
0
 10
770.8731
 20
563.9410
 30
0.0000
  0
VERTEX
  8
0
 10
770.5109
 20
564.6330
 30
0.0000
  0
VERTEX
  8
0
 10
770.0163
 20
565.2827
 30
0.0000
  0
VERTEX
  8
0
 10
769.3990
 20
565.8777
 30
0.0000
  0
VERTEX
  8
0
 10
768.6709
 20
566.4063
 30
0.0000
  0
VERTEX
  8
0
 10
767.8461
 20
566.8583
 30
0.0000
  0
VERTEX
  8
0
 10
766.9406
 20
567.2250
 30
0.0000
  0
VERTEX
  8
0
 10
765.8472
 20
567.5267
 30
0.0000
  0
VERTEX
  8
0
 10
764.7006
 20
567.7042
 30
0.0000
  0
VERTEX
  8
0
 10
763.5289
 20
567.7529
 30
0.0000
  0
VERTEX
  8
0
 10
762.3608
 20
567.6718
 30
0.0000
  0
VERTEX
  8
0
 10
761.2249
 20
567.4629
 30
0.0000
  0
VERTEX
  8
0
 10
760.2647
 20
567.1739
 30
0.0000
  0
VERTEX
  8
0
 10
759.3706
 20
566.7934
 30
0.0000
  0
VERTEX
  8
0
 10
758.5598
 20
566.3289
 30
0.0000
  0
VERTEX
  8
0
 10
758.3720
 20
566.2006
 30
0.0000
  0
SEQEND
  0
POLYLINE
  6
continous
  8
BYBLOCK
 70
0
 66
1
  0
VERTEX
  8
0
 10
701.8035
 20
526.2006
 30
0.0000
  0
VERTEX
  8
0
 10
701.1226
 20
525.6475
 30
0.0000
  0
VERTEX
  8
0
 10
700.5561
 20
525.0331
 30
0.0000
  0
VERTEX
  8
0
 10
700.1149
 20
524.3694
 30
0.0000
  0
VERTEX
  8
0
 10
699.8074
 20
523.6691
 30
0.0000
  0
VERTEX
  8
0
 10
699.6395
 20
522.9454
 30
0.0000
  0
VERTEX
  8
0
 10
699.6070
 20
522.4874
 30
0.0000
  0
SEQEND
  0
LINE
  6
continous
  8
BYBLOCK
 10
701.8035
 20
526.2006
 30
0.0000
 11
701.8035
 21
526.2714
 31
0.0000
  0
POLYLINE
  6
continous
  8
BYBLOCK
 70
0
 66
1
  0
VERTEX
  8
0
 10
714.6066
 20
522.4843
 30
0.0000
  0
VERTEX
  8
0
 10
714.5274
 20
523.2201
 30
0.0000
  0
VERTEX
  8
0
 10
714.3045
 20
523.9410
 30
0.0000
  0
VERTEX
  8
0
 10
713.9423
 20
524.6330
 30
0.0000
  0
VERTEX
  8
0
 10
713.4478
 20
525.2827
 30
0.0000
  0
VERTEX
  8
0
 10
712.8305
 20
525.8777
 30
0.0000
  0
VERTEX
  8
0
 10
712.1024
 20
526.4063
 30
0.0000
  0
VERTEX
  8
0
 10
711.2776
 20
526.8583
 30
0.0000
  0
VERTEX
  8
0
 10
710.3720
 20
527.2250
 30
0.0000
  0
VERTEX
  8
0
 10
709.2786
 20
527.5267
 30
0.0000
  0
VERTEX
  8
0
 10
708.1320
 20
527.7042
 30
0.0000
  0
VERTEX
  8
0
 10
706.9604
 20
527.7529
 30
0.0000
  0
VERTEX
  8
0
 10
705.7923
 20
527.6718
 30
0.0000
  0
VERTEX
  8
0
 10
704.6563
 20
527.4629
 30
0.0000
  0
VERTEX
  8
0
 10
703.6962
 20
527.1739
 30
0.0000
  0
VERTEX
  8
0
 10
702.8021
 20
526.7934
 30
0.0000
  0
VERTEX
  8
0
 10
701.9913
 20
526.3289
 30
0.0000
  0
VERTEX
  8
0
 10
701.8035
 20
526.2006
 30
0.0000
  0
SEQEND
  0
POLYLINE
  6
continous
  8
BYBLOCK
 70
0
 66
1
  0
VERTEX
  8
0
 10
645.2349
 20
486.2006
 30
0.0000
  0
VERTEX
  8
0
 10
644.5540
 20
485.6475
 30
0.0000
  0
VERTEX
  8
0
 10
643.9876
 20
485.0331
 30
0.0000
  0
VERTEX
  8
0
 10
643.5464
 20
484.3694
 30
0.0000
  0
VERTEX
  8
0
 10
643.2389
 20
483.6691
 30
0.0000
  0
VERTEX
  8
0
 10
643.0709
 20
482.9454
 30
0.0000
  0
VERTEX
  8
0
 10
643.0384
 20
482.4874
 30
0.0000
  0
SEQEND
  0
LINE
  6
continous
  8
BYBLOCK
 10
645.2349
 20
486.2006
 30
0.0000
 11
645.2349
 21
486.2714
 31
0.0000
  0
POLYLINE
  6
continous
  8
BYBLOCK
 70
0
 66
1
  0
VERTEX
  8
0
 10
658.0381
 20
482.4843
 30
0.0000
  0
VERTEX
  8
0
 10
657.9589
 20
483.2201
 30
0.0000
  0
VERTEX
  8
0
 10
657.7360
 20
483.9410
 30
0.0000
  0
VERTEX
  8
0
 10
657.3738
 20
484.6330
 30
0.0000
  0
VERTEX
  8
0
 10
656.8793
 20
485.2827
 30
0.0000
  0
VERTEX
  8
0
 10
656.2620
 20
485.8777
 30
0.0000
  0
VERTEX
  8
0
 10
655.5338
 20
486.4063
 30
0.0000
  0
VERTEX
  8
0
 10
654.7090
 20
486.8583
 30
0.0000
  0
VERTEX
  8
0
 10
653.8035
 20
487.2250
 30
0.0000
  0
VERTEX
  8
0
 10
652.7101
 20
487.5267
 30
0.0000
  0
VERTEX
  8
0
 10
651.5635
 20
487.7042
 30
0.0000
  0
VERTEX
  8
0
 10
650.3918
 20
487.7529
 30
0.0000
  0
VERTEX
  8
0
 10
649.2237
 20
487.6718
 30
0.0000
  0
VERTEX
  8
0
 10
648.0878
 20
487.4629
 30
0.0000
  0
VERTEX
  8
0
 10
647.1276
 20
487.1739
 30
0.0000
  0
VERTEX
  8
0
 10
646.2335
 20
486.7934
 30
0.0000
  0
VERTEX
  8
0
 10
645.4227
 20
486.3289
 30
0.0000
  0
VERTEX
  8
0
 10
645.2349
 20
486.2006
 30
0.0000
  0
SEQEND
  0
POLYLINE
  6
continous
  8
BYBLOCK
 70
0
 66
1
  0
VERTEX
  8
0
 10
588.6664
 20
446.2006
 30
0.0000
  0
VERTEX
  8
0
 10
587.9855
 20
445.6475
 30
0.0000
  0
VERTEX
  8
0
 10
587.4190
 20
445.0331
 30
0.0000
  0
VERTEX
  8
0
 10
586.9778
 20
444.3694
 30
0.0000
  0
VERTEX
  8
0
 10
586.6703
 20
443.6691
 30
0.0000
  0
VERTEX
  8
0
 10
586.5024
 20
442.9454
 30
0.0000
  0
VERTEX
  8
0
 10
586.4699
 20
442.4874
 30
0.0000
  0
SEQEND
  0
LINE
  6
continous
  8
BYBLOCK
 10
588.6664
 20
446.2006
 30
0.0000
 11
588.6664
 21
446.2714
 31
0.0000
  0
POLYLINE
  6
continous
  8
BYBLOCK
 70
0
 66
1
  0
VERTEX
  8
0
 10
601.4695
 20
442.4843
 30
0.0000
  0
VERTEX
  8
0
 10
601.3903
 20
443.2201
 30
0.0000
  0
VERTEX
  8
0
 10
601.1675
 20
443.9410
 30
0.0000
  0
VERTEX
  8
0
 10
600.8053
 20
444.6330
 30
0.0000
  0
VERTEX
  8
0
 10
600.3107
 20
445.2827
 30
0.0000
  0
VERTEX
  8
0
 10
599.6934
 20
445.8777
 30
0.0000
  0
VERTEX
  8
0
 10
598.9653
 20
446.4063
 30
0.0000
  0
VERTEX
  8
0
 10
598.1405
 20
446.8583
 30
0.0000
  0
VERTEX
  8
0
 10
597.2349
 20
447.2250
 30
0.0000
  0
VERTEX
  8
0
 10
596.1415
 20
447.5267
 30
0.0000
  0
VERTEX
  8
0
 10
594.9950
 20
447.7042
 30
0.0000
  0
VERTEX
  8
0
 10
593.8233
 20
447.7529
 30
0.0000
  0
VERTEX
  8
0
 10
592.6552
 20
447.6718
 30
0.0000
  0
VERTEX
  8
0
 10
591.5193
 20
447.4629
 30
0.0000
  0
VERTEX
  8
0
 10
590.5591
 20
447.1739
 30
0.0000
  0
VERTEX
  8
0
 10
589.6650
 20
446.7934
 30
0.0000
  0
VERTEX
  8
0
 10
588.8542
 20
446.3289
 30
0.0000
  0
VERTEX
  8
0
 10
588.6664
 20
446.2006
 30
0.0000
  0
SEQEND
  0
POLYLINE
  6
continous
  8
BYBLOCK
 70
0
 66
1
  0
VERTEX
  8
0
 10
532.0979
 20
406.2006
 30
0.0000
  0
VERTEX
  8
0
 10
531.4169
 20
405.6475
 30
0.0000
  0
VERTEX
  8
0
 10
530.8505
 20
405.0331
 30
0.0000
  0
VERTEX
  8
0
 10
530.4093
 20
404.3694
 30
0.0000
  0
VERTEX
  8
0
 10
530.1018
 20
403.6691
 30
0.0000
  0
VERTEX
  8
0
 10
529.9339
 20
402.9454
 30
0.0000
  0
VERTEX
  8
0
 10
529.9013
 20
402.4874
 30
0.0000
  0
SEQEND
  0
LINE
  6
continous
  8
BYBLOCK
 10
532.0979
 20
406.2006
 30
0.0000
 11
532.0979
 21
406.2714
 31
0.0000
  0
POLYLINE
  6
continous
  8
BYBLOCK
 70
0
 66
1
  0
VERTEX
  8
0
 10
544.9010
 20
402.4843
 30
0.0000
  0
VERTEX
  8
0
 10
544.8218
 20
403.2201
 30
0.0000
  0
VERTEX
  8
0
 10
544.5989
 20
403.9410
 30
0.0000
  0
VERTEX
  8
0
 10
544.2367
 20
404.6330
 30
0.0000
  0
VERTEX
  8
0
 10
543.7422
 20
405.2827
 30
0.0000
  0
VERTEX
  8
0
 10
543.1249
 20
405.8777
 30
0.0000
  0
VERTEX
  8
0
 10
542.3968
 20
406.4063
 30
0.0000
  0
VERTEX
  8
0
 10
541.5719
 20
406.8583
 30
0.0000
  0
VERTEX
  8
0
 10
540.6664
 20
407.2250
 30
0.0000
  0
VERTEX
  8
0
 10
539.5730
 20
407.5267
 30
0.0000
  0
VERTEX
  8
0
 10
538.4264
 20
407.7042
 30
0.0000
  0
VERTEX
  8
0
 10
537.2547
 20
407.7529
 30
0.0000
  0
VERTEX
  8
0
 10
536.0866
 20
407.6718
 30
0.0000
  0
VERTEX
  8
0
 10
534.9507
 20
407.4629
 30
0.0000
  0
VERTEX
  8
0
 10
533.9906
 20
407.1739
 30
0.0000
  0
VERTEX
  8
0
 10
533.0964
 20
406.7934
 30
0.0000
  0
VERTEX
  8
0
 10
532.2856
 20
406.3289
 30
0.0000
  0
VERTEX
  8
0
 10
532.0979
 20
406.2006
 30
0.0000
  0
SEQEND
  0
POLYLINE
  6
continous
  8
BYBLOCK
 70
0
 66
1
  0
VERTEX
  8
0
 10
475.5293
 20
366.2006
 30
0.0000
  0
VERTEX
  8
0
 10
474.8484
 20
365.6475
 30
0.0000
  0
VERTEX
  8
0
 10
474.2819
 20
365.0331
 30
0.0000
  0
VERTEX
  8
0
 10
473.8407
 20
364.3694
 30
0.0000
  0
VERTEX
  8
0
 10
473.5332
 20
363.6691
 30
0.0000
  0
VERTEX
  8
0
 10
473.3653
 20
362.9454
 30
0.0000
  0
VERTEX
  8
0
 10
473.3328
 20
362.4874
 30
0.0000
  0
SEQEND
  0
LINE
  6
continous
  8
BYBLOCK
 10
475.5293
 20
366.2006
 30
0.0000
 11
475.5293
 21
366.2714
 31
0.0000
  0
POLYLINE
  6
continous
  8
BYBLOCK
 70
0
 66
1
  0
VERTEX
  8
0
 10
488.3325
 20
362.4843
 30
0.0000
  0
VERTEX
  8
0
 10
488.2532
 20
363.2201
 30
0.0000
  0
VERTEX
  8
0
 10
488.0304
 20
363.9410
 30
0.0000
  0
VERTEX
  8
0
 10
487.6682
 20
364.6330
 30
0.0000
  0
VERTEX
  8
0
 10
487.1736
 20
365.2827
 30
0.0000
  0
VERTEX
  8
0
 10
486.5563
 20
365.8777
 30
0.0000
  0
VERTEX
  8
0
 10
485.8282
 20
366.4063
 30
0.0000
  0
VERTEX
  8
0
 10
485.0034
 20
366.8583
 30
0.0000
  0
VERTEX
  8
0
 10
484.0978
 20
367.2250
 30
0.0000
  0
VERTEX
  8
0
 10
483.0045
 20
367.5267
 30
0.0000
  0
VERTEX
  8
0
 10
481.8579
 20
367.7042
 30
0.0000
  0
VERTEX
  8
0
 10
480.6862
 20
367.7529
 30
0.0000
  0
VERTEX
  8
0
 10
479.5181
 20
367.6718
 30
0.0000
  0
VERTEX
  8
0
 10
478.3822
 20
367.4629
 30
0.0000
  0
VERTEX
  8
0
 10
477.4220
 20
367.1739
 30
0.0000
  0
VERTEX
  8
0
 10
476.5279
 20
366.7934
 30
0.0000
  0
VERTEX
  8
0
 10
475.7171
 20
366.3289
 30
0.0000
  0
VERTEX
  8
0
 10
475.5293
 20
366.2006
 30
0.0000
  0
SEQEND
  0
POLYLINE
  6
continous
  8
BYBLOCK
 70
0
 66
1
  0
VERTEX
  8
0
 10
418.9608
 20
326.2006
 30
0.0000
  0
VERTEX
  8
0
 10
418.2799
 20
325.6475
 30
0.0000
  0
VERTEX
  8
0
 10
417.7134
 20
325.0331
 30
0.0000
  0
VERTEX
  8
0
 10
417.2722
 20
324.3694
 30
0.0000
  0
VERTEX
  8
0
 10
416.9647
 20
323.6691
 30
0.0000
  0
VERTEX
  8
0
 10
416.7968
 20
322.9454
 30
0.0000
  0
VERTEX
  8
0
 10
416.7642
 20
322.4874
 30
0.0000
  0
SEQEND
  0
LINE
  6
continous
  8
BYBLOCK
 10
418.9608
 20
326.2006
 30
0.0000
 11
418.9608
 21
326.2714
 31
0.0000
  0
POLYLINE
  6
continous
  8
BYBLOCK
 70
0
 66
1
  0
VERTEX
  8
0
 10
431.7639
 20
322.4843
 30
0.0000
  0
VERTEX
  8
0
 10
431.6847
 20
323.2201
 30
0.0000
  0
VERTEX
  8
0
 10
431.4618
 20
323.9410
 30
0.0000
  0
VERTEX
  8
0
 10
431.0996
 20
324.6330
 30
0.0000
  0
VERTEX
  8
0
 10
430.6051
 20
325.2827
 30
0.0000
  0
VERTEX
  8
0
 10
429.9878
 20
325.8777
 30
0.0000
  0
VERTEX
  8
0
 10
429.2597
 20
326.4063
 30
0.0000
  0
VERTEX
  8
0
 10
428.4349
 20
326.8583
 30
0.0000
  0
VERTEX
  8
0
 10
427.5293
 20
327.2250
 30
0.0000
  0
VERTEX
  8
0
 10
426.4359
 20
327.5267
 30
0.0000
  0
VERTEX
  8
0
 10
425.2893
 20
327.7042
 30
0.0000
  0
VERTEX
  8
0
 10
424.1176
 20
327.7529
 30
0.0000
  0
VERTEX
  8
0
 10
422.9495
 20
327.6718
 30
0.0000
  0
VERTEX
  8
0
 10
421.8136
 20
327.4629
 30
0.0000
  0
VERTEX
  8
0
 10
420.8535
 20
327.1739
 30
0.0000
  0
VERTEX
  8
0
 10
419.9594
 20
326.7934
 30
0.0000
  0
VERTEX
  8
0
 10
419.1486
 20
326.3289
 30
0.0000
  0
VERTEX
  8
0
 10
418.9608
 20
326.2006
 30
0.0000
  0
SEQEND
  0
POLYLINE
  6
continous
  8
BYBLOCK
 70
0
 66
1
  0
VERTEX
  8
0
 10
362.3922
 20
286.2006
 30
0.0000
  0
VERTEX
  8
0
 10
361.7113
 20
285.6475
 30
0.0000
  0
VERTEX
  8
0
 10
361.1449
 20
285.0331
 30
0.0000
  0
VERTEX
  8
0
 10
360.7036
 20
284.3694
 30
0.0000
  0
VERTEX
  8
0
 10
360.3961
 20
283.6691
 30
0.0000
  0
VERTEX
  8
0
 10
360.2282
 20
282.9454
 30
0.0000
  0
VERTEX
  8
0
 10
360.1957
 20
282.4874
 30
0.0000
  0
SEQEND
  0
LINE
  6
continous
  8
BYBLOCK
 10
362.3922
 20
286.2006
 30
0.0000
 11
362.3922
 21
286.2714
 31
0.0000
  0
POLYLINE
  6
continous
  8
BYBLOCK
 70
0
 66
1
  0
VERTEX
  8
0
 10
375.1954
 20
282.4843
 30
0.0000
  0
VERTEX
  8
0
 10
375.1162
 20
283.2201
 30
0.0000
  0
VERTEX
  8
0
 10
374.8933
 20
283.9410
 30
0.0000
  0
VERTEX
  8
0
 10
374.5311
 20
284.6330
 30
0.0000
  0
VERTEX
  8
0
 10
374.0365
 20
285.2827
 30
0.0000
  0
VERTEX
  8
0
 10
373.4192
 20
285.8777
 30
0.0000
  0
VERTEX
  8
0
 10
372.6911
 20
286.4063
 30
0.0000
  0
VERTEX
  8
0
 10
371.8663
 20
286.8583
 30
0.0000
  0
VERTEX
  8
0
 10
370.9608
 20
287.2250
 30
0.0000
  0
VERTEX
  8
0
 10
369.8674
 20
287.5267
 30
0.0000
  0
VERTEX
  8
0
 10
368.7208
 20
287.7042
 30
0.0000
  0
VERTEX
  8
0
 10
367.5491
 20
287.7529
 30
0.0000
  0
VERTEX
  8
0
 10
366.3810
 20
287.6718
 30
0.0000
  0
VERTEX
  8
0
 10
365.2451
 20
287.4629
 30
0.0000
  0
VERTEX
  8
0
 10
364.2849
 20
287.1739
 30
0.0000
  0
VERTEX
  8
0
 10
363.3908
 20
286.7934
 30
0.0000
  0
VERTEX
  8
0
 10
362.5800
 20
286.3289
 30
0.0000
  0
VERTEX
  8
0
 10
362.3922
 20
286.2006
 30
0.0000
  0
SEQEND
  0
POLYLINE
  6
continous
  8
BYBLOCK
 70
0
 66
1
  0
VERTEX
  8
0
 10
305.8237
 20
246.2006
 30
0.0000
  0
VERTEX
  8
0
 10
305.1428
 20
245.6475
 30
0.0000
  0
VERTEX
  8
0
 10
304.5763
 20
245.0331
 30
0.0000
  0
VERTEX
  8
0
 10
304.1351
 20
244.3694
 30
0.0000
  0
VERTEX
  8
0
 10
303.8276
 20
243.6691
 30
0.0000
  0
VERTEX
  8
0
 10
303.6597
 20
242.9454
 30
0.0000
  0
VERTEX
  8
0
 10
303.6272
 20
242.4874
 30
0.0000
  0
SEQEND
  0
LINE
  6
continous
  8
BYBLOCK
 10
305.8237
 20
246.2006
 30
0.0000
 11
305.8237
 21
246.2714
 31
0.0000
  0
POLYLINE
  6
continous
  8
BYBLOCK
 70
0
 66
1
  0
VERTEX
  8
0
 10
318.6268
 20
242.4843
 30
0.0000
  0
VERTEX
  8
0
 10
318.5476
 20
243.2201
 30
0.0000
  0
VERTEX
  8
0
 10
318.3248
 20
243.9410
 30
0.0000
  0
VERTEX
  8
0
 10
317.9625
 20
244.6330
 30
0.0000
  0
VERTEX
  8
0
 10
317.4680
 20
245.2827
 30
0.0000
  0
VERTEX
  8
0
 10
316.8507
 20
245.8777
 30
0.0000
  0
VERTEX
  8
0
 10
316.1226
 20
246.4063
 30
0.0000
  0
VERTEX
  8
0
 10
315.2978
 20
246.8583
 30
0.0000
  0
VERTEX
  8
0
 10
314.3922
 20
247.2250
 30
0.0000
  0
VERTEX
  8
0
 10
313.2988
 20
247.5267
 30
0.0000
  0
VERTEX
  8
0
 10
312.1522
 20
247.7042
 30
0.0000
  0
VERTEX
  8
0
 10
310.9806
 20
247.7529
 30
0.0000
  0
VERTEX
  8
0
 10
309.8125
 20
247.6718
 30
0.0000
  0
VERTEX
  8
0
 10
308.6765
 20
247.4629
 30
0.0000
  0
VERTEX
  8
0
 10
307.7164
 20
247.1739
 30
0.0000
  0
VERTEX
  8
0
 10
306.8223
 20
246.7934
 30
0.0000
  0
VERTEX
  8
0
 10
306.0115
 20
246.3289
 30
0.0000
  0
VERTEX
  8
0
 10
305.8237
 20
246.2006
 30
0.0000
  0
SEQEND
  0
POLYLINE
  6
continous
  8
BYBLOCK
 70
0
 66
1
  0
VERTEX
  8
0
 10
249.2551
 20
206.2006
 30
0.0000
  0
VERTEX
  8
0
 10
248.5742
 20
205.6475
 30
0.0000
  0
VERTEX
  8
0
 10
248.0078
 20
205.0331
 30
0.0000
  0
VERTEX
  8
0
 10
247.5666
 20
204.3694
 30
0.0000
  0
VERTEX
  8
0
 10
247.2591
 20
203.6691
 30
0.0000
  0
VERTEX
  8
0
 10
247.0911
 20
202.9454
 30
0.0000
  0
VERTEX
  8
0
 10
247.0586
 20
202.4874
 30
0.0000
  0
SEQEND
  0
LINE
  6
continous
  8
BYBLOCK
 10
249.2551
 20
206.2006
 30
0.0000
 11
249.2551
 21
206.2714
 31
0.0000
  0
POLYLINE
  6
continous
  8
BYBLOCK
 70
0
 66
1
  0
VERTEX
  8
0
 10
262.0583
 20
202.4843
 30
0.0000
  0
VERTEX
  8
0
 10
261.9791
 20
203.2201
 30
0.0000
  0
VERTEX
  8
0
 10
261.7562
 20
203.9410
 30
0.0000
  0
VERTEX
  8
0
 10
261.3940
 20
204.6330
 30
0.0000
  0
VERTEX
  8
0
 10
260.8995
 20
205.2827
 30
0.0000
  0
VERTEX
  8
0
 10
260.2822
 20
205.8777
 30
0.0000
  0
VERTEX
  8
0
 10
259.5540
 20
206.4063
 30
0.0000
  0
VERTEX
  8
0
 10
258.7292
 20
206.8583
 30
0.0000
  0
VERTEX
  8
0
 10
257.8237
 20
207.2250
 30
0.0000
  0
VERTEX
  8
0
 10
256.7303
 20
207.5267
 30
0.0000
  0
VERTEX
  8
0
 10
255.5837
 20
207.7042
 30
0.0000
  0
VERTEX
  8
0
 10
254.4120
 20
207.7529
 30
0.0000
  0
VERTEX
  8
0
 10
253.2439
 20
207.6718
 30
0.0000
  0
VERTEX
  8
0
 10
252.1080
 20
207.4629
 30
0.0000
  0
VERTEX
  8
0
 10
251.1479
 20
207.1739
 30
0.0000
  0
VERTEX
  8
0
 10
250.2537
 20
206.7934
 30
0.0000
  0
VERTEX
  8
0
 10
249.4429
 20
206.3289
 30
0.0000
  0
VERTEX
  8
0
 10
249.2551
 20
206.2006
 30
0.0000
  0
SEQEND
  0
POLYLINE
  6
continous
  8
BYBLOCK
 70
0
 66
1
  0
VERTEX
  8
0
 10
192.6866
 20
166.2006
 30
0.0000
  0
VERTEX
  8
0
 10
192.0057
 20
165.6475
 30
0.0000
  0
VERTEX
  8
0
 10
191.4392
 20
165.0331
 30
0.0000
  0
VERTEX
  8
0
 10
190.9980
 20
164.3694
 30
0.0000
  0
VERTEX
  8
0
 10
190.6905
 20
163.6691
 30
0.0000
  0
VERTEX
  8
0
 10
190.5226
 20
162.9454
 30
0.0000
  0
VERTEX
  8
0
 10
190.4901
 20
162.4874
 30
0.0000
  0
SEQEND
  0
LINE
  6
continous
  8
BYBLOCK
 10
192.6866
 20
166.2006
 30
0.0000
 11
192.6866
 21
166.2714
 31
0.0000
  0
POLYLINE
  6
continous
  8
BYBLOCK
 70
0
 66
1
  0
VERTEX
  8
0
 10
205.4897
 20
162.4843
 30
0.0000
  0
VERTEX
  8
0
 10
205.4105
 20
163.2201
 30
0.0000
  0
VERTEX
  8
0
 10
205.1877
 20
163.9410
 30
0.0000
  0
VERTEX
  8
0
 10
204.8255
 20
164.6330
 30
0.0000
  0
VERTEX
  8
0
 10
204.3309
 20
165.2827
 30
0.0000
  0
VERTEX
  8
0
 10
203.7136
 20
165.8777
 30
0.0000
  0
VERTEX
  8
0
 10
202.9855
 20
166.4063
 30
0.0000
  0
VERTEX
  8
0
 10
202.1607
 20
166.8583
 30
0.0000
  0
VERTEX
  8
0
 10
201.2551
 20
167.2250
 30
0.0000
  0
VERTEX
  8
0
 10
200.1617
 20
167.5267
 30
0.0000
  0
VERTEX
  8
0
 10
199.0152
 20
167.7042
 30
0.0000
  0
VERTEX
  8
0
 10
197.8435
 20
167.7529
 30
0.0000
  0
VERTEX
  8
0
 10
196.6754
 20
167.6718
 30
0.0000
  0
VERTEX
  8
0
 10
195.5395
 20
167.4629
 30
0.0000
  0
VERTEX
  8
0
 10
194.5793
 20
167.1739
 30
0.0000
  0
VERTEX
  8
0
 10
193.6852
 20
166.7934
 30
0.0000
  0
VERTEX
  8
0
 10
192.8744
 20
166.3289
 30
0.0000
  0
VERTEX
  8
0
 10
192.6866
 20
166.2006
 30
0.0000
  0
SEQEND
  0
POLYLINE
  6
continous
  8
BYBLOCK
 70
0
 66
1
  0
VERTEX
  8
0
 10
136.1181
 20
126.2006
 30
0.0000
  0
VERTEX
  8
0
 10
135.4372
 20
125.6475
 30
0.0000
  0
VERTEX
  8
0
 10
134.8707
 20
125.0331
 30
0.0000
  0
VERTEX
  8
0
 10
134.4295
 20
124.3694
 30
0.0000
  0
VERTEX
  8
0
 10
134.1220
 20
123.6691
 30
0.0000
  0
VERTEX
  8
0
 10
133.9541
 20
122.9454
 30
0.0000
  0
VERTEX
  8
0
 10
133.9215
 20
122.4874
 30
0.0000
  0
SEQEND
  0
LINE
  6
continous
  8
BYBLOCK
 10
136.1181
 20
126.2006
 30
0.0000
 11
136.1181
 21
126.2714
 31
0.0000
  0
POLYLINE
  6
continous
  8
BYBLOCK
 70
0
 66
1
  0
VERTEX
  8
0
 10
148.9212
 20
122.4843
 30
0.0000
  0
VERTEX
  8
0
 10
148.8420
 20
123.2201
 30
0.0000
  0
VERTEX
  8
0
 10
148.6191
 20
123.9410
 30
0.0000
  0
VERTEX
  8
0
 10
148.2569
 20
124.6330
 30
0.0000
  0
VERTEX
  8
0
 10
147.7624
 20
125.2827
 30
0.0000
  0
VERTEX
  8
0
 10
147.1451
 20
125.8777
 30
0.0000
  0
VERTEX
  8
0
 10
146.4170
 20
126.4063
 30
0.0000
  0
VERTEX
  8
0
 10
145.5921
 20
126.8583
 30
0.0000
  0
VERTEX
  8
0
 10
144.6866
 20
127.2250
 30
0.0000
  0
VERTEX
  8
0
 10
143.5932
 20
127.5267
 30
0.0000
  0
VERTEX
  8
0
 10
142.4466
 20
127.7042
 30
0.0000
  0
VERTEX
  8
0
 10
141.2749
 20
127.7529
 30
0.0000
  0
VERTEX
  8
0
 10
140.1068
 20
127.6718
 30
0.0000
  0
VERTEX
  8
0
 10
138.9709
 20
127.4629
 30
0.0000
  0
VERTEX
  8
0
 10
138.0108
 20
127.1739
 30
0.0000
  0
VERTEX
  8
0
 10
137.1166
 20
126.7934
 30
0.0000
  0
VERTEX
  8
0
 10
136.3059
 20
126.3289
 30
0.0000
  0
VERTEX
  8
0
 10
136.1181
 20
126.2006
 30
0.0000
  0
SEQEND
  0
POLYLINE
  6
continous
  8
BYBLOCK
 70
0
 66
1
  0
VERTEX
  8
0
 10
79.5495
 20
86.2006
 30
0.0000
  0
VERTEX
  8
0
 10
78.8686
 20
85.6475
 30
0.0000
  0
VERTEX
  8
0
 10
78.3021
 20
85.0331
 30
0.0000
  0
VERTEX
  8
0
 10
77.8609
 20
84.3694
 30
0.0000
  0
VERTEX
  8
0
 10
77.5534
 20
83.6691
 30
0.0000
  0
VERTEX
  8
0
 10
77.3855
 20
82.9454
 30
0.0000
  0
VERTEX
  8
0
 10
77.3530
 20
82.4874
 30
0.0000
  0
SEQEND
  0
LINE
  6
continous
  8
BYBLOCK
 10
79.5495
 20
86.2006
 30
0.0000
 11
79.5495
 21
86.2714
 31
0.0000
  0
POLYLINE
  6
continous
  8
BYBLOCK
 70
0
 66
1
  0
VERTEX
  8
0
 10
92.3527
 20
82.4843
 30
0.0000
  0
VERTEX
  8
0
 10
92.2735
 20
83.2201
 30
0.0000
  0
VERTEX
  8
0
 10
92.0506
 20
83.9410
 30
0.0000
  0
VERTEX
  8
0
 10
91.6884
 20
84.6330
 30
0.0000
  0
VERTEX
  8
0
 10
91.1938
 20
85.2827
 30
0.0000
  0
VERTEX
  8
0
 10
90.5765
 20
85.8777
 30
0.0000
  0
VERTEX
  8
0
 10
89.8484
 20
86.4063
 30
0.0000
  0
VERTEX
  8
0
 10
89.0236
 20
86.8583
 30
0.0000
  0
VERTEX
  8
0
 10
88.1180
 20
87.2250
 30
0.0000
  0
VERTEX
  8
0
 10
87.0247
 20
87.5267
 30
0.0000
  0
VERTEX
  8
0
 10
85.8781
 20
87.7042
 30
0.0000
  0
VERTEX
  8
0
 10
84.7064
 20
87.7529
 30
0.0000
  0
VERTEX
  8
0
 10
83.5383
 20
87.6718
 30
0.0000
  0
VERTEX
  8
0
 10
82.4024
 20
87.4629
 30
0.0000
  0
VERTEX
  8
0
 10
81.4422
 20
87.1739
 30
0.0000
  0
VERTEX
  8
0
 10
80.5481
 20
86.7934
 30
0.0000
  0
VERTEX
  8
0
 10
79.7373
 20
86.3289
 30
0.0000
  0
VERTEX
  8
0
 10
79.5495
 20
86.2006
 30
0.0000
  0
SEQEND
  0
LINE
  6
continous
  8
BYBLOCK
 10
22.9810
 20
46.2006
 30
0.0000
 11
22.9810
 21
46.2714
 31
0.0000
  0
POLYLINE
  6
continous
  8
BYBLOCK
 70
0
 66
1
  0
VERTEX
  8
0
 10
20.7843
 20
42.5214
 30
0.0000
  0
VERTEX
  8
0
 10
20.8573
 20
41.7833
 30
0.0000
  0
VERTEX
  8
0
 10
21.0748
 20
41.0596
 30
0.0000
  0
VERTEX
  8
0
 10
21.4327
 20
40.3643
 30
0.0000
  0
VERTEX
  8
0
 10
21.9239
 20
39.7110
 30
0.0000
  0
VERTEX
  8
0
 10
22.5389
 20
39.1125
 30
0.0000
  0
VERTEX
  8
0
 10
23.2658
 20
38.5802
 30
0.0000
  0
VERTEX
  8
0
 10
24.0903
 20
38.1247
 30
0.0000
  0
VERTEX
  8
0
 10
24.9965
 20
37.7548
 30
0.0000
  0
VERTEX
  8
0
 10
25.9666
 20
37.4776
 30
0.0000
  0
VERTEX
  8
0
 10
27.1110
 20
37.2833
 30
0.0000
  0
VERTEX
  8
0
 10
28.2843
 20
37.2181
 30
0.0000
  0
VERTEX
  8
0
 10
29.4575
 20
37.2833
 30
0.0000
  0
VERTEX
  8
0
 10
30.6019
 20
37.4776
 30
0.0000
  0
VERTEX
  8
0
 10
31.5721
 20
37.7548
 30
0.0000
  0
VERTEX
  8
0
 10
32.4782
 20
38.1247
 30
0.0000
  0
VERTEX
  8
0
 10
33.3028
 20
38.5802
 30
0.0000
  0
VERTEX
  8
0
 10
33.5876
 20
38.7714
 30
0.0000
  0
SEQEND
  0
POLYLINE
  6
continous
  8
BYBLOCK
 70
0
 66
1
  0
VERTEX
  8
0
 10
22.9810
 20
46.2714
 30
0.0000
  0
VERTEX
  8
0
 10
22.2945
 20
45.7130
 30
0.0000
  0
VERTEX
  8
0
 10
21.7246
 20
45.0924
 30
0.0000
  0
VERTEX
  8
0
 10
21.2824
 20
44.4219
 30
0.0000
  0
VERTEX
  8
0
 10
20.9765
 20
43.7143
 30
0.0000
  0
VERTEX
  8
0
 10
20.8128
 20
42.9836
 30
0.0000
  0
VERTEX
  8
0
 10
20.7843
 20
42.5214
 30
0.0000
  0
SEQEND
  0
POLYLINE
  6
continous
  8
BYBLOCK
 70
0
 66
1
  0
VERTEX
  8
0
 10
35.7843
 20
42.5214
 30
0.0000
  0
VERTEX
  8
0
 10
35.7113
 20
43.2594
 30
0.0000
  0
VERTEX
  8
0
 10
35.4937
 20
43.9831
 30
0.0000
  0
VERTEX
  8
0
 10
35.1359
 20
44.6784
 30
0.0000
  0
VERTEX
  8
0
 10
34.6446
 20
45.3317
 30
0.0000
  0
VERTEX
  8
0
 10
34.0296
 20
45.9302
 30
0.0000
  0
VERTEX
  8
0
 10
33.3028
 20
46.4625
 30
0.0000
  0
VERTEX
  8
0
 10
32.4782
 20
46.9180
 30
0.0000
  0
VERTEX
  8
0
 10
31.5721
 20
47.2879
 30
0.0000
  0
VERTEX
  8
0
 10
30.6019
 20
47.5651
 30
0.0000
  0
VERTEX
  8
0
 10
29.4575
 20
47.7594
 30
0.0000
  0
VERTEX
  8
0
 10
28.2843
 20
47.8247
 30
0.0000
  0
VERTEX
  8
0
 10
27.1110
 20
47.7594
 30
0.0000
  0
VERTEX
  8
0
 10
25.9666
 20
47.5651
 30
0.0000
  0
VERTEX
  8
0
 10
24.9965
 20
47.2879
 30
0.0000
  0
VERTEX
  8
0
 10
24.0903
 20
46.9180
 30
0.0000
  0
VERTEX
  8
0
 10
23.2658
 20
46.4625
 30
0.0000
  0
VERTEX
  8
0
 10
22.9810
 20
46.2714
 30
0.0000
  0
SEQEND
  0
POLYLINE
  6
continous
  8
BYBLOCK
 70
0
 66
1
  0
VERTEX
  8
0
 10
33.5876
 20
38.7714
 30
0.0000
  0
VERTEX
  8
0
 10
34.2740
 20
39.3297
 30
0.0000
  0
VERTEX
  8
0
 10
34.8439
 20
39.9503
 30
0.0000
  0
VERTEX
  8
0
 10
35.2861
 20
40.6208
 30
0.0000
  0
VERTEX
  8
0
 10
35.5920
 20
41.3284
 30
0.0000
  0
VERTEX
  8
0
 10
35.7557
 20
42.0591
 30
0.0000
  0
VERTEX
  8
0
 10
35.7843
 20
42.5214
 30
0.0000
  0
SEQEND
  0
POLYLINE
  6
continous
  8
BYBLOCK
 70
0
 66
1
  0
VERTEX
  8
0
 10
2792.6429
 20
2002.5214
 30
0.0000
  0
VERTEX
  8
0
 10
2792.7158
 20
2001.7833
 30
0.0000
  0
VERTEX
  8
0
 10
2792.9334
 20
2001.0596
 30
0.0000
  0
VERTEX
  8
0
 10
2793.2913
 20
2000.3643
 30
0.0000
  0
VERTEX
  8
0
 10
2793.7825
 20
1999.7110
 30
0.0000
  0
VERTEX
  8
0
 10
2794.3975
 20
1999.1125
 30
0.0000
  0
VERTEX
  8
0
 10
2795.1244
 20
1998.5802
 30
0.0000
  0
VERTEX
  8
0
 10
2795.9489
 20
1998.1247
 30
0.0000
  0
VERTEX
  8
0
 10
2796.8551
 20
1997.7548
 30
0.0000
  0
VERTEX
  8
0
 10
2797.8252
 20
1997.4776
 30
0.0000
  0
VERTEX
  8
0
 10
2798.9696
 20
1997.2833
 30
0.0000
  0
VERTEX
  8
0
 10
2800.1429
 20
1997.2181
 30
0.0000
  0
VERTEX
  8
0
 10
2801.3161
 20
1997.2833
 30
0.0000
  0
VERTEX
  8
0
 10
2802.4605
 20
1997.4776
 30
0.0000
  0
VERTEX
  8
0
 10
2803.4306
 20
1997.7548
 30
0.0000
  0
VERTEX
  8
0
 10
2804.3368
 20
1998.1247
 30
0.0000
  0
VERTEX
  8
0
 10
2805.1613
 20
1998.5802
 30
0.0000
  0
VERTEX
  8
0
 10
2805.4462
 20
1998.7714
 30
0.0000
  0
SEQEND
  0
POLYLINE
  6
continous
  8
BYBLOCK
 70
0
 66
1
  0
VERTEX
  8
0
 10
2794.8396
 20
2006.2714
 30
0.0000
  0
VERTEX
  8
0
 10
2794.1531
 20
2005.7130
 30
0.0000
  0
VERTEX
  8
0
 10
2793.5832
 20
2005.0924
 30
0.0000
  0
VERTEX
  8
0
 10
2793.1410
 20
2004.4219
 30
0.0000
  0
VERTEX
  8
0
 10
2792.8351
 20
2003.7143
 30
0.0000
  0
VERTEX
  8
0
 10
2792.6714
 20
2002.9836
 30
0.0000
  0
VERTEX
  8
0
 10
2792.6429
 20
2002.5214
 30
0.0000
  0
SEQEND
  0
POLYLINE
  6
continous
  8
BYBLOCK
 70
0
 66
1
  0
VERTEX
  8
0
 10
2807.6429
 20
2002.5214
 30
0.0000
  0
VERTEX
  8
0
 10
2807.5699
 20
2003.2594
 30
0.0000
  0
VERTEX
  8
0
 10
2807.3523
 20
2003.9831
 30
0.0000
  0
VERTEX
  8
0
 10
2806.9944
 20
2004.6784
 30
0.0000
  0
VERTEX
  8
0
 10
2806.5032
 20
2005.3317
 30
0.0000
  0
VERTEX
  8
0
 10
2805.8882
 20
2005.9302
 30
0.0000
  0
VERTEX
  8
0
 10
2805.1613
 20
2006.4625
 30
0.0000
  0
VERTEX
  8
0
 10
2804.3368
 20
2006.9180
 30
0.0000
  0
VERTEX
  8
0
 10
2803.4306
 20
2007.2879
 30
0.0000
  0
VERTEX
  8
0
 10
2802.4605
 20
2007.5651
 30
0.0000
  0
VERTEX
  8
0
 10
2801.3161
 20
2007.7594
 30
0.0000
  0
VERTEX
  8
0
 10
2800.1429
 20
2007.8247
 30
0.0000
  0
VERTEX
  8
0
 10
2798.9696
 20
2007.7594
 30
0.0000
  0
VERTEX
  8
0
 10
2797.8252
 20
2007.5651
 30
0.0000
  0
VERTEX
  8
0
 10
2796.8551
 20
2007.2879
 30
0.0000
  0
VERTEX
  8
0
 10
2795.9489
 20
2006.9180
 30
0.0000
  0
VERTEX
  8
0
 10
2795.1244
 20
2006.4625
 30
0.0000
  0
VERTEX
  8
0
 10
2794.8396
 20
2006.2714
 30
0.0000
  0
SEQEND
  0
POLYLINE
  6
continous
  8
BYBLOCK
 70
0
 66
1
  0
VERTEX
  8
0
 10
2805.4462
 20
1998.7714
 30
0.0000
  0
VERTEX
  8
0
 10
2806.1326
 20
1999.3297
 30
0.0000
  0
VERTEX
  8
0
 10
2806.7025
 20
1999.9503
 30
0.0000
  0
VERTEX
  8
0
 10
2807.1447
 20
2000.6208
 30
0.0000
  0
VERTEX
  8
0
 10
2807.4506
 20
2001.3284
 30
0.0000
  0
VERTEX
  8
0
 10
2807.6143
 20
2002.0591
 30
0.0000
  0
VERTEX
  8
0
 10
2807.6429
 20
2002.5214
 30
0.0000
  0
SEQEND
  0
POLYLINE
  6
continous
  8
BYBLOCK
 70
0
 66
1
  0
VERTEX
  8
0
 10
2736.0743
 20
1962.5214
 30
0.0000
  0
VERTEX
  8
0
 10
2736.1473
 20
1961.7833
 30
0.0000
  0
VERTEX
  8
0
 10
2736.3648
 20
1961.0596
 30
0.0000
  0
VERTEX
  8
0
 10
2736.7227
 20
1960.3643
 30
0.0000
  0
VERTEX
  8
0
 10
2737.2140
 20
1959.7110
 30
0.0000
  0
VERTEX
  8
0
 10
2737.8290
 20
1959.1125
 30
0.0000
  0
VERTEX
  8
0
 10
2738.5558
 20
1958.5802
 30
0.0000
  0
VERTEX
  8
0
 10
2739.3804
 20
1958.1247
 30
0.0000
  0
VERTEX
  8
0
 10
2740.2865
 20
1957.7548
 30
0.0000
  0
VERTEX
  8
0
 10
2741.2567
 20
1957.4776
 30
0.0000
  0
VERTEX
  8
0
 10
2742.4011
 20
1957.2833
 30
0.0000
  0
VERTEX
  8
0
 10
2743.5743
 20
1957.2181
 30
0.0000
  0
VERTEX
  8
0
 10
2744.7476
 20
1957.2833
 30
0.0000
  0
VERTEX
  8
0
 10
2745.8919
 20
1957.4776
 30
0.0000
  0
VERTEX
  8
0
 10
2746.8621
 20
1957.7548
 30
0.0000
  0
VERTEX
  8
0
 10
2747.7683
 20
1958.1247
 30
0.0000
  0
VERTEX
  8
0
 10
2748.5928
 20
1958.5802
 30
0.0000
  0
VERTEX
  8
0
 10
2748.8776
 20
1958.7714
 30
0.0000
  0
SEQEND
  0
POLYLINE
  6
continous
  8
BYBLOCK
 70
0
 66
1
  0
VERTEX
  8
0
 10
2738.2710
 20
1966.2714
 30
0.0000
  0
VERTEX
  8
0
 10
2737.5845
 20
1965.7130
 30
0.0000
  0
VERTEX
  8
0
 10
2737.0147
 20
1965.0924
 30
0.0000
  0
VERTEX
  8
0
 10
2736.5725
 20
1964.4219
 30
0.0000
  0
VERTEX
  8
0
 10
2736.2665
 20
1963.7143
 30
0.0000
  0
VERTEX
  8
0
 10
2736.1029
 20
1962.9836
 30
0.0000
  0
VERTEX
  8
0
 10
2736.0743
 20
1962.5214
 30
0.0000
  0
SEQEND
  0
POLYLINE
  6
continous
  8
BYBLOCK
 70
0
 66
1
  0
VERTEX
  8
0
 10
2751.0743
 20
1962.5214
 30
0.0000
  0
VERTEX
  8
0
 10
2751.0013
 20
1963.2594
 30
0.0000
  0
VERTEX
  8
0
 10
2750.7838
 20
1963.9831
 30
0.0000
  0
VERTEX
  8
0
 10
2750.4259
 20
1964.6784
 30
0.0000
  0
VERTEX
  8
0
 10
2749.9347
 20
1965.3317
 30
0.0000
  0
VERTEX
  8
0
 10
2749.3196
 20
1965.9302
 30
0.0000
  0
VERTEX
  8
0
 10
2748.5928
 20
1966.4625
 30
0.0000
  0
VERTEX
  8
0
 10
2747.7683
 20
1966.9180
 30
0.0000
  0
VERTEX
  8
0
 10
2746.8621
 20
1967.2879
 30
0.0000
  0
VERTEX
  8
0
 10
2745.8919
 20
1967.5651
 30
0.0000
  0
VERTEX
  8
0
 10
2744.7476
 20
1967.7594
 30
0.0000
  0
VERTEX
  8
0
 10
2743.5743
 20
1967.8247
 30
0.0000
  0
VERTEX
  8
0
 10
2742.4011
 20
1967.7594
 30
0.0000
  0
VERTEX
  8
0
 10
2741.2567
 20
1967.5651
 30
0.0000
  0
VERTEX
  8
0
 10
2740.2865
 20
1967.2879
 30
0.0000
  0
VERTEX
  8
0
 10
2739.3804
 20
1966.9180
 30
0.0000
  0
VERTEX
  8
0
 10
2738.5558
 20
1966.4625
 30
0.0000
  0
VERTEX
  8
0
 10
2738.2710
 20
1966.2714
 30
0.0000
  0
SEQEND
  0
POLYLINE
  6
continous
  8
BYBLOCK
 70
0
 66
1
  0
VERTEX
  8
0
 10
2748.8776
 20
1958.7714
 30
0.0000
  0
VERTEX
  8
0
 10
2749.5641
 20
1959.3297
 30
0.0000
  0
VERTEX
  8
0
 10
2750.1340
 20
1959.9503
 30
0.0000
  0
VERTEX
  8
0
 10
2750.5762
 20
1960.6208
 30
0.0000
  0
VERTEX
  8
0
 10
2750.8821
 20
1961.3284
 30
0.0000
  0
VERTEX
  8
0
 10
2751.0458
 20
1962.0591
 30
0.0000
  0
VERTEX
  8
0
 10
2751.0743
 20
1962.5214
 30
0.0000
  0
SEQEND
  0
POLYLINE
  6
continous
  8
BYBLOCK
 70
0
 66
1
  0
VERTEX
  8
0
 10
2679.5058
 20
1922.5214
 30
0.0000
  0
VERTEX
  8
0
 10
2679.5788
 20
1921.7833
 30
0.0000
  0
VERTEX
  8
0
 10
2679.7963
 20
1921.0596
 30
0.0000
  0
VERTEX
  8
0
 10
2680.1542
 20
1920.3643
 30
0.0000
  0
VERTEX
  8
0
 10
2680.6454
 20
1919.7110
 30
0.0000
  0
VERTEX
  8
0
 10
2681.2604
 20
1919.1125
 30
0.0000
  0
VERTEX
  8
0
 10
2681.9873
 20
1918.5802
 30
0.0000
  0
VERTEX
  8
0
 10
2682.8118
 20
1918.1247
 30
0.0000
  0
VERTEX
  8
0
 10
2683.7180
 20
1917.7548
 30
0.0000
  0
VERTEX
  8
0
 10
2684.6881
 20
1917.4776
 30
0.0000
  0
VERTEX
  8
0
 10
2685.8325
 20
1917.2833
 30
0.0000
  0
VERTEX
  8
0
 10
2687.0058
 20
1917.2181
 30
0.0000
  0
VERTEX
  8
0
 10
2688.1790
 20
1917.2833
 30
0.0000
  0
VERTEX
  8
0
 10
2689.3234
 20
1917.4776
 30
0.0000
  0
VERTEX
  8
0
 10
2690.2936
 20
1917.7548
 30
0.0000
  0
VERTEX
  8
0
 10
2691.1997
 20
1918.1247
 30
0.0000
  0
VERTEX
  8
0
 10
2692.0242
 20
1918.5802
 30
0.0000
  0
VERTEX
  8
0
 10
2692.3091
 20
1918.7714
 30
0.0000
  0
SEQEND
  0
POLYLINE
  6
continous
  8
BYBLOCK
 70
0
 66
1
  0
VERTEX
  8
0
 10
2681.7025
 20
1926.2714
 30
0.0000
  0
VERTEX
  8
0
 10
2681.0160
 20
1925.7130
 30
0.0000
  0
VERTEX
  8
0
 10
2680.4461
 20
1925.0924
 30
0.0000
  0
VERTEX
  8
0
 10
2680.0039
 20
1924.4219
 30
0.0000
  0
VERTEX
  8
0
 10
2679.6980
 20
1923.7143
 30
0.0000
  0
VERTEX
  8
0
 10
2679.5343
 20
1922.9836
 30
0.0000
  0
VERTEX
  8
0
 10
2679.5058
 20
1922.5214
 30
0.0000
  0
SEQEND
  0
POLYLINE
  6
continous
  8
BYBLOCK
 70
0
 66
1
  0
VERTEX
  8
0
 10
2694.5058
 20
1922.5214
 30
0.0000
  0
VERTEX
  8
0
 10
2694.4328
 20
1923.2594
 30
0.0000
  0
VERTEX
  8
0
 10
2694.2152
 20
1923.9831
 30
0.0000
  0
VERTEX
  8
0
 10
2693.8574
 20
1924.6784
 30
0.0000
  0
VERTEX
  8
0
 10
2693.3661
 20
1925.3317
 30
0.0000
  0
VERTEX
  8
0
 10
2692.7511
 20
1925.9302
 30
0.0000
  0
VERTEX
  8
0
 10
2692.0242
 20
1926.4625
 30
0.0000
  0
VERTEX
  8
0
 10
2691.1997
 20
1926.9180
 30
0.0000
  0
VERTEX
  8
0
 10
2690.2936
 20
1927.2879
 30
0.0000
  0
VERTEX
  8
0
 10
2689.3234
 20
1927.5651
 30
0.0000
  0
VERTEX
  8
0
 10
2688.1790
 20
1927.7594
 30
0.0000
  0
VERTEX
  8
0
 10
2687.0058
 20
1927.8247
 30
0.0000
  0
VERTEX
  8
0
 10
2685.8325
 20
1927.7594
 30
0.0000
  0
VERTEX
  8
0
 10
2684.6881
 20
1927.5651
 30
0.0000
  0
VERTEX
  8
0
 10
2683.7180
 20
1927.2879
 30
0.0000
  0
VERTEX
  8
0
 10
2682.8118
 20
1926.9180
 30
0.0000
  0
VERTEX
  8
0
 10
2681.9873
 20
1926.4625
 30
0.0000
  0
VERTEX
  8
0
 10
2681.7025
 20
1926.2714
 30
0.0000
  0
SEQEND
  0
POLYLINE
  6
continous
  8
BYBLOCK
 70
0
 66
1
  0
VERTEX
  8
0
 10
2692.3091
 20
1918.7714
 30
0.0000
  0
VERTEX
  8
0
 10
2692.9955
 20
1919.3297
 30
0.0000
  0
VERTEX
  8
0
 10
2693.5654
 20
1919.9503
 30
0.0000
  0
VERTEX
  8
0
 10
2694.0076
 20
1920.6208
 30
0.0000
  0
VERTEX
  8
0
 10
2694.3135
 20
1921.3284
 30
0.0000
  0
VERTEX
  8
0
 10
2694.4772
 20
1922.0591
 30
0.0000
  0
VERTEX
  8
0
 10
2694.5058
 20
1922.5214
 30
0.0000
  0
SEQEND
  0
POLYLINE
  6
continous
  8
BYBLOCK
 70
0
 66
1
  0
VERTEX
  8
0
 10
2622.9372
 20
1882.5214
 30
0.0000
  0
VERTEX
  8
0
 10
2623.0102
 20
1881.7833
 30
0.0000
  0
VERTEX
  8
0
 10
2623.2278
 20
1881.0596
 30
0.0000
  0
VERTEX
  8
0
 10
2623.5856
 20
1880.3643
 30
0.0000
  0
VERTEX
  8
0
 10
2624.0769
 20
1879.7110
 30
0.0000
  0
VERTEX
  8
0
 10
2624.6919
 20
1879.1125
 30
0.0000
  0
VERTEX
  8
0
 10
2625.4187
 20
1878.5802
 30
0.0000
  0
VERTEX
  8
0
 10
2626.2433
 20
1878.1247
 30
0.0000
  0
VERTEX
  8
0
 10
2627.1494
 20
1877.7548
 30
0.0000
  0
VERTEX
  8
0
 10
2628.1196
 20
1877.4776
 30
0.0000
  0
VERTEX
  8
0
 10
2629.2640
 20
1877.2833
 30
0.0000
  0
VERTEX
  8
0
 10
2630.4372
 20
1877.2181
 30
0.0000
  0
VERTEX
  8
0
 10
2631.6105
 20
1877.2833
 30
0.0000
  0
VERTEX
  8
0
 10
2632.7549
 20
1877.4776
 30
0.0000
  0
VERTEX
  8
0
 10
2633.7250
 20
1877.7548
 30
0.0000
  0
VERTEX
  8
0
 10
2634.6312
 20
1878.1247
 30
0.0000
  0
VERTEX
  8
0
 10
2635.4557
 20
1878.5802
 30
0.0000
  0
VERTEX
  8
0
 10
2635.7405
 20
1878.7714
 30
0.0000
  0
SEQEND
  0
POLYLINE
  6
continous
  8
BYBLOCK
 70
0
 66
1
  0
VERTEX
  8
0
 10
2625.1339
 20
1886.2714
 30
0.0000
  0
VERTEX
  8
0
 10
2624.4475
 20
1885.7130
 30
0.0000
  0
VERTEX
  8
0
 10
2623.8776
 20
1885.0924
 30
0.0000
  0
VERTEX
  8
0
 10
2623.4354
 20
1884.4219
 30
0.0000
  0
VERTEX
  8
0
 10
2623.1295
 20
1883.7143
 30
0.0000
  0
VERTEX
  8
0
 10
2622.9658
 20
1882.9836
 30
0.0000
  0
VERTEX
  8
0
 10
2622.9372
 20
1882.5214
 30
0.0000
  0
SEQEND
  0
POLYLINE
  6
continous
  8
BYBLOCK
 70
0
 66
1
  0
VERTEX
  8
0
 10
2637.9372
 20
1882.5214
 30
0.0000
  0
VERTEX
  8
0
 10
2637.8642
 20
1883.2594
 30
0.0000
  0
VERTEX
  8
0
 10
2637.6467
 20
1883.9831
 30
0.0000
  0
VERTEX
  8
0
 10
2637.2888
 20
1884.6784
 30
0.0000
  0
VERTEX
  8
0
 10
2636.7976
 20
1885.3317
 30
0.0000
  0
VERTEX
  8
0
 10
2636.1826
 20
1885.9302
 30
0.0000
  0
VERTEX
  8
0
 10
2635.4557
 20
1886.4625
 30
0.0000
  0
VERTEX
  8
0
 10
2634.6312
 20
1886.9180
 30
0.0000
  0
VERTEX
  8
0
 10
2633.7250
 20
1887.2879
 30
0.0000
  0
VERTEX
  8
0
 10
2632.7549
 20
1887.5651
 30
0.0000
  0
VERTEX
  8
0
 10
2631.6105
 20
1887.7594
 30
0.0000
  0
VERTEX
  8
0
 10
2630.4372
 20
1887.8247
 30
0.0000
  0
VERTEX
  8
0
 10
2629.2640
 20
1887.7594
 30
0.0000
  0
VERTEX
  8
0
 10
2628.1196
 20
1887.5651
 30
0.0000
  0
VERTEX
  8
0
 10
2627.1494
 20
1887.2879
 30
0.0000
  0
VERTEX
  8
0
 10
2626.2433
 20
1886.9180
 30
0.0000
  0
VERTEX
  8
0
 10
2625.4187
 20
1886.4625
 30
0.0000
  0
VERTEX
  8
0
 10
2625.1339
 20
1886.2714
 30
0.0000
  0
SEQEND
  0
POLYLINE
  6
continous
  8
BYBLOCK
 70
0
 66
1
  0
VERTEX
  8
0
 10
2635.7405
 20
1878.7714
 30
0.0000
  0
VERTEX
  8
0
 10
2636.4270
 20
1879.3297
 30
0.0000
  0
VERTEX
  8
0
 10
2636.9969
 20
1879.9503
 30
0.0000
  0
VERTEX
  8
0
 10
2637.4391
 20
1880.6208
 30
0.0000
  0
VERTEX
  8
0
 10
2637.7450
 20
1881.3284
 30
0.0000
  0
VERTEX
  8
0
 10
2637.9087
 20
1882.0591
 30
0.0000
  0
VERTEX
  8
0
 10
2637.9372
 20
1882.5214
 30
0.0000
  0
SEQEND
  0
POLYLINE
  6
continous
  8
BYBLOCK
 70
0
 66
1
  0
VERTEX
  8
0
 10
2566.3687
 20
1842.5214
 30
0.0000
  0
VERTEX
  8
0
 10
2566.4417
 20
1841.7833
 30
0.0000
  0
VERTEX
  8
0
 10
2566.6592
 20
1841.0596
 30
0.0000
  0
VERTEX
  8
0
 10
2567.0171
 20
1840.3643
 30
0.0000
  0
VERTEX
  8
0
 10
2567.5083
 20
1839.7110
 30
0.0000
  0
VERTEX
  8
0
 10
2568.1234
 20
1839.1125
 30
0.0000
  0
VERTEX
  8
0
 10
2568.8502
 20
1838.5802
 30
0.0000
  0
VERTEX
  8
0
 10
2569.6747
 20
1838.1247
 30
0.0000
  0
VERTEX
  8
0
 10
2570.5809
 20
1837.7548
 30
0.0000
  0
VERTEX
  8
0
 10
2571.5511
 20
1837.4776
 30
0.0000
  0
VERTEX
  8
0
 10
2572.6954
 20
1837.2833
 30
0.0000
  0
VERTEX
  8
0
 10
2573.8687
 20
1837.2181
 30
0.0000
  0
VERTEX
  8
0
 10
2575.0419
 20
1837.2833
 30
0.0000
  0
VERTEX
  8
0
 10
2576.1863
 20
1837.4776
 30
0.0000
  0
VERTEX
  8
0
 10
2577.1565
 20
1837.7548
 30
0.0000
  0
VERTEX
  8
0
 10
2578.0626
 20
1838.1247
 30
0.0000
  0
VERTEX
  8
0
 10
2578.8872
 20
1838.5802
 30
0.0000
  0
VERTEX
  8
0
 10
2579.1720
 20
1838.7714
 30
0.0000
  0
SEQEND
  0
POLYLINE
  6
continous
  8
BYBLOCK
 70
0
 66
1
  0
VERTEX
  8
0
 10
2568.5654
 20
1846.2714
 30
0.0000
  0
VERTEX
  8
0
 10
2567.8789
 20
1845.7130
 30
0.0000
  0
VERTEX
  8
0
 10
2567.3090
 20
1845.0924
 30
0.0000
  0
VERTEX
  8
0
 10
2566.8668
 20
1844.4219
 30
0.0000
  0
VERTEX
  8
0
 10
2566.5609
 20
1843.7143
 30
0.0000
  0
VERTEX
  8
0
 10
2566.3972
 20
1842.9836
 30
0.0000
  0
VERTEX
  8
0
 10
2566.3687
 20
1842.5214
 30
0.0000
  0
SEQEND
  0
POLYLINE
  6
continous
  8
BYBLOCK
 70
0
 66
1
  0
VERTEX
  8
0
 10
2581.3687
 20
1842.5214
 30
0.0000
  0
VERTEX
  8
0
 10
2581.2957
 20
1843.2594
 30
0.0000
  0
VERTEX
  8
0
 10
2581.0781
 20
1843.9831
 30
0.0000
  0
VERTEX
  8
0
 10
2580.7203
 20
1844.6784
 30
0.0000
  0
VERTEX
  8
0
 10
2580.2290
 20
1845.3317
 30
0.0000
  0
VERTEX
  8
0
 10
2579.6140
 20
1845.9302
 30
0.0000
  0
VERTEX
  8
0
 10
2578.8872
 20
1846.4625
 30
0.0000
  0
VERTEX
  8
0
 10
2578.0626
 20
1846.9180
 30
0.0000
  0
VERTEX
  8
0
 10
2577.1565
 20
1847.2879
 30
0.0000
  0
VERTEX
  8
0
 10
2576.1863
 20
1847.5651
 30
0.0000
  0
VERTEX
  8
0
 10
2575.0419
 20
1847.7594
 30
0.0000
  0
VERTEX
  8
0
 10
2573.8687
 20
1847.8247
 30
0.0000
  0
VERTEX
  8
0
 10
2572.6954
 20
1847.7594
 30
0.0000
  0
VERTEX
  8
0
 10
2571.5511
 20
1847.5651
 30
0.0000
  0
VERTEX
  8
0
 10
2570.5809
 20
1847.2879
 30
0.0000
  0
VERTEX
  8
0
 10
2569.6747
 20
1846.9180
 30
0.0000
  0
VERTEX
  8
0
 10
2568.8502
 20
1846.4625
 30
0.0000
  0
VERTEX
  8
0
 10
2568.5654
 20
1846.2714
 30
0.0000
  0
SEQEND
  0
POLYLINE
  6
continous
  8
BYBLOCK
 70
0
 66
1
  0
VERTEX
  8
0
 10
2579.1720
 20
1838.7714
 30
0.0000
  0
VERTEX
  8
0
 10
2579.8584
 20
1839.3297
 30
0.0000
  0
VERTEX
  8
0
 10
2580.4283
 20
1839.9503
 30
0.0000
  0
VERTEX
  8
0
 10
2580.8705
 20
1840.6208
 30
0.0000
  0
VERTEX
  8
0
 10
2581.1765
 20
1841.3284
 30
0.0000
  0
VERTEX
  8
0
 10
2581.3401
 20
1842.0591
 30
0.0000
  0
VERTEX
  8
0
 10
2581.3687
 20
1842.5214
 30
0.0000
  0
SEQEND
  0
POLYLINE
  6
continous
  8
BYBLOCK
 70
0
 66
1
  0
VERTEX
  8
0
 10
2509.8001
 20
1802.5214
 30
0.0000
  0
VERTEX
  8
0
 10
2509.8731
 20
1801.7833
 30
0.0000
  0
VERTEX
  8
0
 10
2510.0907
 20
1801.0596
 30
0.0000
  0
VERTEX
  8
0
 10
2510.4486
 20
1800.3643
 30
0.0000
  0
VERTEX
  8
0
 10
2510.9398
 20
1799.7110
 30
0.0000
  0
VERTEX
  8
0
 10
2511.5548
 20
1799.1125
 30
0.0000
  0
VERTEX
  8
0
 10
2512.2817
 20
1798.5802
 30
0.0000
  0
VERTEX
  8
0
 10
2513.1062
 20
1798.1247
 30
0.0000
  0
VERTEX
  8
0
 10
2514.0124
 20
1797.7548
 30
0.0000
  0
VERTEX
  8
0
 10
2514.9825
 20
1797.4776
 30
0.0000
  0
VERTEX
  8
0
 10
2516.1269
 20
1797.2833
 30
0.0000
  0
VERTEX
  8
0
 10
2517.3001
 20
1797.2181
 30
0.0000
  0
VERTEX
  8
0
 10
2518.4734
 20
1797.2833
 30
0.0000
  0
VERTEX
  8
0
 10
2519.6178
 20
1797.4776
 30
0.0000
  0
VERTEX
  8
0
 10
2520.5879
 20
1797.7548
 30
0.0000
  0
VERTEX
  8
0
 10
2521.4941
 20
1798.1247
 30
0.0000
  0
VERTEX
  8
0
 10
2522.3186
 20
1798.5802
 30
0.0000
  0
VERTEX
  8
0
 10
2522.6034
 20
1798.7714
 30
0.0000
  0
SEQEND
  0
POLYLINE
  6
continous
  8
BYBLOCK
 70
0
 66
1
  0
VERTEX
  8
0
 10
2511.9968
 20
1806.2714
 30
0.0000
  0
VERTEX
  8
0
 10
2511.3104
 20
1805.7130
 30
0.0000
  0
VERTEX
  8
0
 10
2510.7405
 20
1805.0924
 30
0.0000
  0
VERTEX
  8
0
 10
2510.2983
 20
1804.4219
 30
0.0000
  0
VERTEX
  8
0
 10
2509.9924
 20
1803.7143
 30
0.0000
  0
VERTEX
  8
0
 10
2509.8287
 20
1802.9836
 30
0.0000
  0
VERTEX
  8
0
 10
2509.8001
 20
1802.5214
 30
0.0000
  0
SEQEND
  0
POLYLINE
  6
continous
  8
BYBLOCK
 70
0
 66
1
  0
VERTEX
  8
0
 10
2524.8001
 20
1802.5214
 30
0.0000
  0
VERTEX
  8
0
 10
2524.7272
 20
1803.2594
 30
0.0000
  0
VERTEX
  8
0
 10
2524.5096
 20
1803.9831
 30
0.0000
  0
VERTEX
  8
0
 10
2524.1517
 20
1804.6784
 30
0.0000
  0
VERTEX
  8
0
 10
2523.6605
 20
1805.3317
 30
0.0000
  0
VERTEX
  8
0
 10
2523.0455
 20
1805.9302
 30
0.0000
  0
VERTEX
  8
0
 10
2522.3186
 20
1806.4625
 30
0.0000
  0
VERTEX
  8
0
 10
2521.4941
 20
1806.9180
 30
0.0000
  0
VERTEX
  8
0
 10
2520.5879
 20
1807.2879
 30
0.0000
  0
VERTEX
  8
0
 10
2519.6178
 20
1807.5651
 30
0.0000
  0
VERTEX
  8
0
 10
2518.4734
 20
1807.7594
 30
0.0000
  0
VERTEX
  8
0
 10
2517.3001
 20
1807.8247
 30
0.0000
  0
VERTEX
  8
0
 10
2516.1269
 20
1807.7594
 30
0.0000
  0
VERTEX
  8
0
 10
2514.9825
 20
1807.5651
 30
0.0000
  0
VERTEX
  8
0
 10
2514.0124
 20
1807.2879
 30
0.0000
  0
VERTEX
  8
0
 10
2513.1062
 20
1806.9180
 30
0.0000
  0
VERTEX
  8
0
 10
2512.2817
 20
1806.4625
 30
0.0000
  0
VERTEX
  8
0
 10
2511.9968
 20
1806.2714
 30
0.0000
  0
SEQEND
  0
POLYLINE
  6
continous
  8
BYBLOCK
 70
0
 66
1
  0
VERTEX
  8
0
 10
2522.6034
 20
1798.7714
 30
0.0000
  0
VERTEX
  8
0
 10
2523.2899
 20
1799.3297
 30
0.0000
  0
VERTEX
  8
0
 10
2523.8598
 20
1799.9503
 30
0.0000
  0
VERTEX
  8
0
 10
2524.3020
 20
1800.6208
 30
0.0000
  0
VERTEX
  8
0
 10
2524.6079
 20
1801.3284
 30
0.0000
  0
VERTEX
  8
0
 10
2524.7716
 20
1802.0591
 30
0.0000
  0
VERTEX
  8
0
 10
2524.8001
 20
1802.5214
 30
0.0000
  0
SEQEND
  0
POLYLINE
  6
continous
  8
BYBLOCK
 70
0
 66
1
  0
VERTEX
  8
0
 10
2453.2316
 20
1762.5214
 30
0.0000
  0
VERTEX
  8
0
 10
2453.3046
 20
1761.7833
 30
0.0000
  0
VERTEX
  8
0
 10
2453.5221
 20
1761.0596
 30
0.0000
  0
VERTEX
  8
0
 10
2453.8800
 20
1760.3643
 30
0.0000
  0
VERTEX
  8
0
 10
2454.3712
 20
1759.7110
 30
0.0000
  0
VERTEX
  8
0
 10
2454.9863
 20
1759.1125
 30
0.0000
  0
VERTEX
  8
0
 10
2455.7131
 20
1758.5802
 30
0.0000
  0
VERTEX
  8
0
 10
2456.5377
 20
1758.1247
 30
0.0000
  0
VERTEX
  8
0
 10
2457.4438
 20
1757.7548
 30
0.0000
  0
VERTEX
  8
0
 10
2458.4140
 20
1757.4776
 30
0.0000
  0
VERTEX
  8
0
 10
2459.5583
 20
1757.2833
 30
0.0000
  0
VERTEX
  8
0
 10
2460.7316
 20
1757.2181
 30
0.0000
  0
VERTEX
  8
0
 10
2461.9049
 20
1757.2833
 30
0.0000
  0
VERTEX
  8
0
 10
2463.0492
 20
1757.4776
 30
0.0000
  0
VERTEX
  8
0
 10
2464.0194
 20
1757.7548
 30
0.0000
  0
VERTEX
  8
0
 10
2464.9255
 20
1758.1247
 30
0.0000
  0
VERTEX
  8
0
 10
2465.7501
 20
1758.5802
 30
0.0000
  0
VERTEX
  8
0
 10
2466.0349
 20
1758.7714
 30
0.0000
  0
SEQEND
  0
POLYLINE
  6
continous
  8
BYBLOCK
 70
0
 66
1
  0
VERTEX
  8
0
 10
2455.4283
 20
1766.2714
 30
0.0000
  0
VERTEX
  8
0
 10
2454.7418
 20
1765.7130
 30
0.0000
  0
VERTEX
  8
0
 10
2454.1720
 20
1765.0924
 30
0.0000
  0
VERTEX
  8
0
 10
2453.7297
 20
1764.4219
 30
0.0000
  0
VERTEX
  8
0
 10
2453.4238
 20
1763.7143
 30
0.0000
  0
VERTEX
  8
0
 10
2453.2601
 20
1762.9836
 30
0.0000
  0
VERTEX
  8
0
 10
2453.2316
 20
1762.5214
 30
0.0000
  0
SEQEND
  0
POLYLINE
  6
continous
  8
BYBLOCK
 70
0
 66
1
  0
VERTEX
  8
0
 10
2468.2316
 20
1762.5214
 30
0.0000
  0
VERTEX
  8
0
 10
2468.1586
 20
1763.2594
 30
0.0000
  0
VERTEX
  8
0
 10
2467.9411
 20
1763.9831
 30
0.0000
  0
VERTEX
  8
0
 10
2467.5832
 20
1764.6784
 30
0.0000
  0
VERTEX
  8
0
 10
2467.0920
 20
1765.3317
 30
0.0000
  0
VERTEX
  8
0
 10
2466.4769
 20
1765.9302
 30
0.0000
  0
VERTEX
  8
0
 10
2465.7501
 20
1766.4625
 30
0.0000
  0
VERTEX
  8
0
 10
2464.9255
 20
1766.9180
 30
0.0000
  0
VERTEX
  8
0
 10
2464.0194
 20
1767.2879
 30
0.0000
  0
VERTEX
  8
0
 10
2463.0492
 20
1767.5651
 30
0.0000
  0
VERTEX
  8
0
 10
2461.9049
 20
1767.7594
 30
0.0000
  0
VERTEX
  8
0
 10
2460.7316
 20
1767.8247
 30
0.0000
  0
VERTEX
  8
0
 10
2459.5583
 20
1767.7594
 30
0.0000
  0
VERTEX
  8
0
 10
2458.4140
 20
1767.5651
 30
0.0000
  0
VERTEX
  8
0
 10
2457.4438
 20
1767.2879
 30
0.0000
  0
VERTEX
  8
0
 10
2456.5377
 20
1766.9180
 30
0.0000
  0
VERTEX
  8
0
 10
2455.7131
 20
1766.4625
 30
0.0000
  0
VERTEX
  8
0
 10
2455.4283
 20
1766.2714
 30
0.0000
  0
SEQEND
  0
POLYLINE
  6
continous
  8
BYBLOCK
 70
0
 66
1
  0
VERTEX
  8
0
 10
2466.0349
 20
1758.7714
 30
0.0000
  0
VERTEX
  8
0
 10
2466.7214
 20
1759.3297
 30
0.0000
  0
VERTEX
  8
0
 10
2467.2912
 20
1759.9503
 30
0.0000
  0
VERTEX
  8
0
 10
2467.7335
 20
1760.6208
 30
0.0000
  0
VERTEX
  8
0
 10
2468.0394
 20
1761.3284
 30
0.0000
  0
VERTEX
  8
0
 10
2468.2031
 20
1762.0591
 30
0.0000
  0
VERTEX
  8
0
 10
2468.2316
 20
1762.5214
 30
0.0000
  0
SEQEND
  0
POLYLINE
  6
continous
  8
BYBLOCK
 70
0
 66
1
  0
VERTEX
  8
0
 10
2396.6631
 20
1722.5214
 30
0.0000
  0
VERTEX
  8
0
 10
2396.7360
 20
1721.7833
 30
0.0000
  0
VERTEX
  8
0
 10
2396.9536
 20
1721.0596
 30
0.0000
  0
VERTEX
  8
0
 10
2397.3115
 20
1720.3643
 30
0.0000
  0
VERTEX
  8
0
 10
2397.8027
 20
1719.7110
 30
0.0000
  0
VERTEX
  8
0
 10
2398.4177
 20
1719.1125
 30
0.0000
  0
VERTEX
  8
0
 10
2399.1446
 20
1718.5802
 30
0.0000
  0
VERTEX
  8
0
 10
2399.9691
 20
1718.1247
 30
0.0000
  0
VERTEX
  8
0
 10
2400.8753
 20
1717.7548
 30
0.0000
  0
VERTEX
  8
0
 10
2401.8454
 20
1717.4776
 30
0.0000
  0
VERTEX
  8
0
 10
2402.9898
 20
1717.2833
 30
0.0000
  0
VERTEX
  8
0
 10
2404.1631
 20
1717.2181
 30
0.0000
  0
VERTEX
  8
0
 10
2405.3363
 20
1717.2833
 30
0.0000
  0
VERTEX
  8
0
 10
2406.4807
 20
1717.4776
 30
0.0000
  0
VERTEX
  8
0
 10
2407.4508
 20
1717.7548
 30
0.0000
  0
VERTEX
  8
0
 10
2408.3570
 20
1718.1247
 30
0.0000
  0
VERTEX
  8
0
 10
2409.1815
 20
1718.5802
 30
0.0000
  0
VERTEX
  8
0
 10
2409.4664
 20
1718.7714
 30
0.0000
  0
SEQEND
  0
POLYLINE
  6
continous
  8
BYBLOCK
 70
0
 66
1
  0
VERTEX
  8
0
 10
2398.8598
 20
1726.2714
 30
0.0000
  0
VERTEX
  8
0
 10
2398.1733
 20
1725.7130
 30
0.0000
  0
VERTEX
  8
0
 10
2397.6034
 20
1725.0924
 30
0.0000
  0
VERTEX
  8
0
 10
2397.1612
 20
1724.4219
 30
0.0000
  0
VERTEX
  8
0
 10
2396.8553
 20
1723.7143
 30
0.0000
  0
VERTEX
  8
0
 10
2396.6916
 20
1722.9836
 30
0.0000
  0
VERTEX
  8
0
 10
2396.6631
 20
1722.5214
 30
0.0000
  0
SEQEND
  0
POLYLINE
  6
continous
  8
BYBLOCK
 70
0
 66
1
  0
VERTEX
  8
0
 10
2411.6631
 20
1722.5214
 30
0.0000
  0
VERTEX
  8
0
 10
2411.5901
 20
1723.2594
 30
0.0000
  0
VERTEX
  8
0
 10
2411.3725
 20
1723.9831
 30
0.0000
  0
VERTEX
  8
0
 10
2411.0146
 20
1724.6784
 30
0.0000
  0
VERTEX
  8
0
 10
2410.5234
 20
1725.3317
 30
0.0000
  0
VERTEX
  8
0
 10
2409.9084
 20
1725.9302
 30
0.0000
  0
VERTEX
  8
0
 10
2409.1815
 20
1726.4625
 30
0.0000
  0
VERTEX
  8
0
 10
2408.3570
 20
1726.9180
 30
0.0000
  0
VERTEX
  8
0
 10
2407.4508
 20
1727.2879
 30
0.0000
  0
VERTEX
  8
0
 10
2406.4807
 20
1727.5651
 30
0.0000
  0
VERTEX
  8
0
 10
2405.3363
 20
1727.7594
 30
0.0000
  0
VERTEX
  8
0
 10
2404.1631
 20
1727.8247
 30
0.0000
  0
VERTEX
  8
0
 10
2402.9898
 20
1727.7594
 30
0.0000
  0
VERTEX
  8
0
 10
2401.8454
 20
1727.5651
 30
0.0000
  0
VERTEX
  8
0
 10
2400.8753
 20
1727.2879
 30
0.0000
  0
VERTEX
  8
0
 10
2399.9691
 20
1726.9180
 30
0.0000
  0
VERTEX
  8
0
 10
2399.1446
 20
1726.4625
 30
0.0000
  0
VERTEX
  8
0
 10
2398.8598
 20
1726.2714
 30
0.0000
  0
SEQEND
  0
POLYLINE
  6
continous
  8
BYBLOCK
 70
0
 66
1
  0
VERTEX
  8
0
 10
2409.4664
 20
1718.7714
 30
0.0000
  0
VERTEX
  8
0
 10
2410.1528
 20
1719.3297
 30
0.0000
  0
VERTEX
  8
0
 10
2410.7227
 20
1719.9503
 30
0.0000
  0
VERTEX
  8
0
 10
2411.1649
 20
1720.6208
 30
0.0000
  0
VERTEX
  8
0
 10
2411.4708
 20
1721.3284
 30
0.0000
  0
VERTEX
  8
0
 10
2411.6345
 20
1722.0591
 30
0.0000
  0
VERTEX
  8
0
 10
2411.6631
 20
1722.5214
 30
0.0000
  0
SEQEND
  0
POLYLINE
  6
continous
  8
BYBLOCK
 70
0
 66
1
  0
VERTEX
  8
0
 10
2340.0945
 20
1682.5214
 30
0.0000
  0
VERTEX
  8
0
 10
2340.1675
 20
1681.7833
 30
0.0000
  0
VERTEX
  8
0
 10
2340.3851
 20
1681.0596
 30
0.0000
  0
VERTEX
  8
0
 10
2340.7429
 20
1680.3643
 30
0.0000
  0
VERTEX
  8
0
 10
2341.2342
 20
1679.7110
 30
0.0000
  0
VERTEX
  8
0
 10
2341.8492
 20
1679.1125
 30
0.0000
  0
VERTEX
  8
0
 10
2342.5760
 20
1678.5802
 30
0.0000
  0
VERTEX
  8
0
 10
2343.4006
 20
1678.1247
 30
0.0000
  0
VERTEX
  8
0
 10
2344.3067
 20
1677.7548
 30
0.0000
  0
VERTEX
  8
0
 10
2345.2769
 20
1677.4776
 30
0.0000
  0
VERTEX
  8
0
 10
2346.4213
 20
1677.2833
 30
0.0000
  0
VERTEX
  8
0
 10
2347.5945
 20
1677.2181
 30
0.0000
  0
VERTEX
  8
0
 10
2348.7678
 20
1677.2833
 30
0.0000
  0
VERTEX
  8
0
 10
2349.9121
 20
1677.4776
 30
0.0000
  0
VERTEX
  8
0
 10
2350.8823
 20
1677.7548
 30
0.0000
  0
VERTEX
  8
0
 10
2351.7885
 20
1678.1247
 30
0.0000
  0
VERTEX
  8
0
 10
2352.6130
 20
1678.5802
 30
0.0000
  0
VERTEX
  8
0
 10
2352.8978
 20
1678.7714
 30
0.0000
  0
SEQEND
  0
POLYLINE
  6
continous
  8
BYBLOCK
 70
0
 66
1
  0
VERTEX
  8
0
 10
2342.2912
 20
1686.2714
 30
0.0000
  0
VERTEX
  8
0
 10
2341.6047
 20
1685.7130
 30
0.0000
  0
VERTEX
  8
0
 10
2341.0349
 20
1685.0924
 30
0.0000
  0
VERTEX
  8
0
 10
2340.5927
 20
1684.4219
 30
0.0000
  0
VERTEX
  8
0
 10
2340.2867
 20
1683.7143
 30
0.0000
  0
VERTEX
  8
0
 10
2340.1231
 20
1682.9836
 30
0.0000
  0
VERTEX
  8
0
 10
2340.0945
 20
1682.5214
 30
0.0000
  0
SEQEND
  0
POLYLINE
  6
continous
  8
BYBLOCK
 70
0
 66
1
  0
VERTEX
  8
0
 10
2355.0945
 20
1682.5214
 30
0.0000
  0
VERTEX
  8
0
 10
2355.0215
 20
1683.2594
 30
0.0000
  0
VERTEX
  8
0
 10
2354.8040
 20
1683.9831
 30
0.0000
  0
VERTEX
  8
0
 10
2354.4461
 20
1684.6784
 30
0.0000
  0
VERTEX
  8
0
 10
2353.9549
 20
1685.3317
 30
0.0000
  0
VERTEX
  8
0
 10
2353.3398
 20
1685.9302
 30
0.0000
  0
VERTEX
  8
0
 10
2352.6130
 20
1686.4625
 30
0.0000
  0
VERTEX
  8
0
 10
2351.7885
 20
1686.9180
 30
0.0000
  0
VERTEX
  8
0
 10
2350.8823
 20
1687.2879
 30
0.0000
  0
VERTEX
  8
0
 10
2349.9121
 20
1687.5651
 30
0.0000
  0
VERTEX
  8
0
 10
2348.7678
 20
1687.7594
 30
0.0000
  0
VERTEX
  8
0
 10
2347.5945
 20
1687.8247
 30
0.0000
  0
VERTEX
  8
0
 10
2346.4213
 20
1687.7594
 30
0.0000
  0
VERTEX
  8
0
 10
2345.2769
 20
1687.5651
 30
0.0000
  0
VERTEX
  8
0
 10
2344.3067
 20
1687.2879
 30
0.0000
  0
VERTEX
  8
0
 10
2343.4006
 20
1686.9180
 30
0.0000
  0
VERTEX
  8
0
 10
2342.5760
 20
1686.4625
 30
0.0000
  0
VERTEX
  8
0
 10
2342.2912
 20
1686.2714
 30
0.0000
  0
SEQEND
  0
POLYLINE
  6
continous
  8
BYBLOCK
 70
0
 66
1
  0
VERTEX
  8
0
 10
2352.8978
 20
1678.7714
 30
0.0000
  0
VERTEX
  8
0
 10
2353.5843
 20
1679.3297
 30
0.0000
  0
VERTEX
  8
0
 10
2354.1542
 20
1679.9503
 30
0.0000
  0
VERTEX
  8
0
 10
2354.5964
 20
1680.6208
 30
0.0000
  0
VERTEX
  8
0
 10
2354.9023
 20
1681.3284
 30
0.0000
  0
VERTEX
  8
0
 10
2355.0660
 20
1682.0591
 30
0.0000
  0
VERTEX
  8
0
 10
2355.0945
 20
1682.5214
 30
0.0000
  0
SEQEND
  0
POLYLINE
  6
continous
  8
BYBLOCK
 70
0
 66
1
  0
VERTEX
  8
0
 10
2283.5260
 20
1642.5214
 30
0.0000
  0
VERTEX
  8
0
 10
2283.5990
 20
1641.7833
 30
0.0000
  0
VERTEX
  8
0
 10
2283.8165
 20
1641.0596
 30
0.0000
  0
VERTEX
  8
0
 10
2284.1744
 20
1640.3643
 30
0.0000
  0
VERTEX
  8
0
 10
2284.6656
 20
1639.7110
 30
0.0000
  0
VERTEX
  8
0
 10
2285.2806
 20
1639.1125
 30
0.0000
  0
VERTEX
  8
0
 10
2286.0075
 20
1638.5802
 30
0.0000
  0
VERTEX
  8
0
 10
2286.8320
 20
1638.1247
 30
0.0000
  0
VERTEX
  8
0
 10
2287.7382
 20
1637.7548
 30
0.0000
  0
VERTEX
  8
0
 10
2288.7083
 20
1637.4776
 30
0.0000
  0
VERTEX
  8
0
 10
2289.8527
 20
1637.2833
 30
0.0000
  0
VERTEX
  8
0
 10
2291.0260
 20
1637.2181
 30
0.0000
  0
VERTEX
  8
0
 10
2292.1992
 20
1637.2833
 30
0.0000
  0
VERTEX
  8
0
 10
2293.3436
 20
1637.4776
 30
0.0000
  0
VERTEX
  8
0
 10
2294.3138
 20
1637.7548
 30
0.0000
  0
VERTEX
  8
0
 10
2295.2199
 20
1638.1247
 30
0.0000
  0
VERTEX
  8
0
 10
2296.0445
 20
1638.5802
 30
0.0000
  0
VERTEX
  8
0
 10
2296.3293
 20
1638.7714
 30
0.0000
  0
SEQEND
  0
POLYLINE
  6
continous
  8
BYBLOCK
 70
0
 66
1
  0
VERTEX
  8
0
 10
2285.7227
 20
1646.2714
 30
0.0000
  0
VERTEX
  8
0
 10
2285.0362
 20
1645.7130
 30
0.0000
  0
VERTEX
  8
0
 10
2284.4663
 20
1645.0924
 30
0.0000
  0
VERTEX
  8
0
 10
2284.0241
 20
1644.4219
 30
0.0000
  0
VERTEX
  8
0
 10
2283.7182
 20
1643.7143
 30
0.0000
  0
VERTEX
  8
0
 10
2283.5545
 20
1642.9836
 30
0.0000
  0
VERTEX
  8
0
 10
2283.5260
 20
1642.5214
 30
0.0000
  0
SEQEND
  0
POLYLINE
  6
continous
  8
BYBLOCK
 70
0
 66
1
  0
VERTEX
  8
0
 10
2298.5260
 20
1642.5214
 30
0.0000
  0
VERTEX
  8
0
 10
2298.4530
 20
1643.2594
 30
0.0000
  0
VERTEX
  8
0
 10
2298.2354
 20
1643.9831
 30
0.0000
  0
VERTEX
  8
0
 10
2297.8776
 20
1644.6784
 30
0.0000
  0
VERTEX
  8
0
 10
2297.3863
 20
1645.3317
 30
0.0000
  0
VERTEX
  8
0
 10
2296.7713
 20
1645.9302
 30
0.0000
  0
VERTEX
  8
0
 10
2296.0445
 20
1646.4625
 30
0.0000
  0
VERTEX
  8
0
 10
2295.2199
 20
1646.9180
 30
0.0000
  0
VERTEX
  8
0
 10
2294.3138
 20
1647.2879
 30
0.0000
  0
VERTEX
  8
0
 10
2293.3436
 20
1647.5651
 30
0.0000
  0
VERTEX
  8
0
 10
2292.1992
 20
1647.7594
 30
0.0000
  0
VERTEX
  8
0
 10
2291.0260
 20
1647.8247
 30
0.0000
  0
VERTEX
  8
0
 10
2289.8527
 20
1647.7594
 30
0.0000
  0
VERTEX
  8
0
 10
2288.7083
 20
1647.5651
 30
0.0000
  0
VERTEX
  8
0
 10
2287.7382
 20
1647.2879
 30
0.0000
  0
VERTEX
  8
0
 10
2286.8320
 20
1646.9180
 30
0.0000
  0
VERTEX
  8
0
 10
2286.0075
 20
1646.4625
 30
0.0000
  0
VERTEX
  8
0
 10
2285.7227
 20
1646.2714
 30
0.0000
  0
SEQEND
  0
POLYLINE
  6
continous
  8
BYBLOCK
 70
0
 66
1
  0
VERTEX
  8
0
 10
2296.3293
 20
1638.7714
 30
0.0000
  0
VERTEX
  8
0
 10
2297.0157
 20
1639.3297
 30
0.0000
  0
VERTEX
  8
0
 10
2297.5856
 20
1639.9503
 30
0.0000
  0
VERTEX
  8
0
 10
2298.0278
 20
1640.6208
 30
0.0000
  0
VERTEX
  8
0
 10
2298.3337
 20
1641.3284
 30
0.0000
  0
VERTEX
  8
0
 10
2298.4974
 20
1642.0591
 30
0.0000
  0
VERTEX
  8
0
 10
2298.5260
 20
1642.5214
 30
0.0000
  0
SEQEND
  0
POLYLINE
  6
continous
  8
BYBLOCK
 70
0
 66
1
  0
VERTEX
  8
0
 10
2226.9574
 20
1602.5214
 30
0.0000
  0
VERTEX
  8
0
 10
2227.0304
 20
1601.7833
 30
0.0000
  0
VERTEX
  8
0
 10
2227.2480
 20
1601.0596
 30
0.0000
  0
VERTEX
  8
0
 10
2227.6058
 20
1600.3643
 30
0.0000
  0
VERTEX
  8
0
 10
2228.0971
 20
1599.7110
 30
0.0000
  0
VERTEX
  8
0
 10
2228.7121
 20
1599.1125
 30
0.0000
  0
VERTEX
  8
0
 10
2229.4389
 20
1598.5802
 30
0.0000
  0
VERTEX
  8
0
 10
2230.2635
 20
1598.1247
 30
0.0000
  0
VERTEX
  8
0
 10
2231.1696
 20
1597.7548
 30
0.0000
  0
VERTEX
  8
0
 10
2232.1398
 20
1597.4776
 30
0.0000
  0
VERTEX
  8
0
 10
2233.2842
 20
1597.2833
 30
0.0000
  0
VERTEX
  8
0
 10
2234.4574
 20
1597.2181
 30
0.0000
  0
VERTEX
  8
0
 10
2235.6307
 20
1597.2833
 30
0.0000
  0
VERTEX
  8
0
 10
2236.7751
 20
1597.4776
 30
0.0000
  0
VERTEX
  8
0
 10
2237.7452
 20
1597.7548
 30
0.0000
  0
VERTEX
  8
0
 10
2238.6514
 20
1598.1247
 30
0.0000
  0
VERTEX
  8
0
 10
2239.4759
 20
1598.5802
 30
0.0000
  0
VERTEX
  8
0
 10
2239.7607
 20
1598.7714
 30
0.0000
  0
SEQEND
  0
POLYLINE
  6
continous
  8
BYBLOCK
 70
0
 66
1
  0
VERTEX
  8
0
 10
2229.1541
 20
1606.2714
 30
0.0000
  0
VERTEX
  8
0
 10
2228.4677
 20
1605.7130
 30
0.0000
  0
VERTEX
  8
0
 10
2227.8978
 20
1605.0924
 30
0.0000
  0
VERTEX
  8
0
 10
2227.4556
 20
1604.4219
 30
0.0000
  0
VERTEX
  8
0
 10
2227.1497
 20
1603.7143
 30
0.0000
  0
VERTEX
  8
0
 10
2226.9860
 20
1602.9836
 30
0.0000
  0
VERTEX
  8
0
 10
2226.9574
 20
1602.5214
 30
0.0000
  0
SEQEND
  0
POLYLINE
  6
continous
  8
BYBLOCK
 70
0
 66
1
  0
VERTEX
  8
0
 10
2241.9574
 20
1602.5214
 30
0.0000
  0
VERTEX
  8
0
 10
2241.8844
 20
1603.2594
 30
0.0000
  0
VERTEX
  8
0
 10
2241.6669
 20
1603.9831
 30
0.0000
  0
VERTEX
  8
0
 10
2241.3090
 20
1604.6784
 30
0.0000
  0
VERTEX
  8
0
 10
2240.8178
 20
1605.3317
 30
0.0000
  0
VERTEX
  8
0
 10
2240.2028
 20
1605.9302
 30
0.0000
  0
VERTEX
  8
0
 10
2239.4759
 20
1606.4625
 30
0.0000
  0
VERTEX
  8
0
 10
2238.6514
 20
1606.9180
 30
0.0000
  0
VERTEX
  8
0
 10
2237.7452
 20
1607.2879
 30
0.0000
  0
VERTEX
  8
0
 10
2236.7751
 20
1607.5651
 30
0.0000
  0
VERTEX
  8
0
 10
2235.6307
 20
1607.7594
 30
0.0000
  0
VERTEX
  8
0
 10
2234.4574
 20
1607.8247
 30
0.0000
  0
VERTEX
  8
0
 10
2233.2842
 20
1607.7594
 30
0.0000
  0
VERTEX
  8
0
 10
2232.1398
 20
1607.5651
 30
0.0000
  0
VERTEX
  8
0
 10
2231.1696
 20
1607.2879
 30
0.0000
  0
VERTEX
  8
0
 10
2230.2635
 20
1606.9180
 30
0.0000
  0
VERTEX
  8
0
 10
2229.4389
 20
1606.4625
 30
0.0000
  0
VERTEX
  8
0
 10
2229.1541
 20
1606.2714
 30
0.0000
  0
SEQEND
  0
POLYLINE
  6
continous
  8
BYBLOCK
 70
0
 66
1
  0
VERTEX
  8
0
 10
2239.7607
 20
1598.7714
 30
0.0000
  0
VERTEX
  8
0
 10
2240.4472
 20
1599.3297
 30
0.0000
  0
VERTEX
  8
0
 10
2241.0171
 20
1599.9503
 30
0.0000
  0
VERTEX
  8
0
 10
2241.4593
 20
1600.6208
 30
0.0000
  0
VERTEX
  8
0
 10
2241.7652
 20
1601.3284
 30
0.0000
  0
VERTEX
  8
0
 10
2241.9289
 20
1602.0591
 30
0.0000
  0
VERTEX
  8
0
 10
2241.9574
 20
1602.5214
 30
0.0000
  0
SEQEND
  0
POLYLINE
  6
continous
  8
BYBLOCK
 70
0
 66
1
  0
VERTEX
  8
0
 10
2170.3889
 20
1562.5214
 30
0.0000
  0
VERTEX
  8
0
 10
2170.4619
 20
1561.7833
 30
0.0000
  0
VERTEX
  8
0
 10
2170.6794
 20
1561.0596
 30
0.0000
  0
VERTEX
  8
0
 10
2171.0373
 20
1560.3643
 30
0.0000
  0
VERTEX
  8
0
 10
2171.5285
 20
1559.7110
 30
0.0000
  0
VERTEX
  8
0
 10
2172.1436
 20
1559.1125
 30
0.0000
  0
VERTEX
  8
0
 10
2172.8704
 20
1558.5802
 30
0.0000
  0
VERTEX
  8
0
 10
2173.6949
 20
1558.1247
 30
0.0000
  0
VERTEX
  8
0
 10
2174.6011
 20
1557.7548
 30
0.0000
  0
VERTEX
  8
0
 10
2175.5713
 20
1557.4776
 30
0.0000
  0
VERTEX
  8
0
 10
2176.7156
 20
1557.2833
 30
0.0000
  0
VERTEX
  8
0
 10
2177.8889
 20
1557.2181
 30
0.0000
  0
VERTEX
  8
0
 10
2179.0621
 20
1557.2833
 30
0.0000
  0
VERTEX
  8
0
 10
2180.2065
 20
1557.4776
 30
0.0000
  0
VERTEX
  8
0
 10
2181.1767
 20
1557.7548
 30
0.0000
  0
VERTEX
  8
0
 10
2182.0828
 20
1558.1247
 30
0.0000
  0
VERTEX
  8
0
 10
2182.9074
 20
1558.5802
 30
0.0000
  0
VERTEX
  8
0
 10
2183.1922
 20
1558.7714
 30
0.0000
  0
SEQEND
  0
POLYLINE
  6
continous
  8
BYBLOCK
 70
0
 66
1
  0
VERTEX
  8
0
 10
2172.5856
 20
1566.2714
 30
0.0000
  0
VERTEX
  8
0
 10
2171.8991
 20
1565.7130
 30
0.0000
  0
VERTEX
  8
0
 10
2171.3292
 20
1565.0924
 30
0.0000
  0
VERTEX
  8
0
 10
2170.8870
 20
1564.4219
 30
0.0000
  0
VERTEX
  8
0
 10
2170.5811
 20
1563.7143
 30
0.0000
  0
VERTEX
  8
0
 10
2170.4174
 20
1562.9836
 30
0.0000
  0
VERTEX
  8
0
 10
2170.3889
 20
1562.5214
 30
0.0000
  0
SEQEND
  0
POLYLINE
  6
continous
  8
BYBLOCK
 70
0
 66
1
  0
VERTEX
  8
0
 10
2185.3889
 20
1562.5214
 30
0.0000
  0
VERTEX
  8
0
 10
2185.3159
 20
1563.2594
 30
0.0000
  0
VERTEX
  8
0
 10
2185.0983
 20
1563.9831
 30
0.0000
  0
VERTEX
  8
0
 10
2184.7405
 20
1564.6784
 30
0.0000
  0
VERTEX
  8
0
 10
2184.2492
 20
1565.3317
 30
0.0000
  0
VERTEX
  8
0
 10
2183.6342
 20
1565.9302
 30
0.0000
  0
VERTEX
  8
0
 10
2182.9074
 20
1566.4625
 30
0.0000
  0
VERTEX
  8
0
 10
2182.0828
 20
1566.9180
 30
0.0000
  0
VERTEX
  8
0
 10
2181.1767
 20
1567.2879
 30
0.0000
  0
VERTEX
  8
0
 10
2180.2065
 20
1567.5651
 30
0.0000
  0
VERTEX
  8
0
 10
2179.0621
 20
1567.7594
 30
0.0000
  0
VERTEX
  8
0
 10
2177.8889
 20
1567.8247
 30
0.0000
  0
VERTEX
  8
0
 10
2176.7156
 20
1567.7594
 30
0.0000
  0
VERTEX
  8
0
 10
2175.5713
 20
1567.5651
 30
0.0000
  0
VERTEX
  8
0
 10
2174.6011
 20
1567.2879
 30
0.0000
  0
VERTEX
  8
0
 10
2173.6949
 20
1566.9180
 30
0.0000
  0
VERTEX
  8
0
 10
2172.8704
 20
1566.4625
 30
0.0000
  0
VERTEX
  8
0
 10
2172.5856
 20
1566.2714
 30
0.0000
  0
SEQEND
  0
POLYLINE
  6
continous
  8
BYBLOCK
 70
0
 66
1
  0
VERTEX
  8
0
 10
2183.1922
 20
1558.7714
 30
0.0000
  0
VERTEX
  8
0
 10
2183.8787
 20
1559.3297
 30
0.0000
  0
VERTEX
  8
0
 10
2184.4485
 20
1559.9503
 30
0.0000
  0
VERTEX
  8
0
 10
2184.8907
 20
1560.6208
 30
0.0000
  0
VERTEX
  8
0
 10
2185.1967
 20
1561.3284
 30
0.0000
  0
VERTEX
  8
0
 10
2185.3603
 20
1562.0591
 30
0.0000
  0
VERTEX
  8
0
 10
2185.3889
 20
1562.5214
 30
0.0000
  0
SEQEND
  0
POLYLINE
  6
continous
  8
BYBLOCK
 70
0
 66
1
  0
VERTEX
  8
0
 10
2113.8203
 20
1522.5214
 30
0.0000
  0
VERTEX
  8
0
 10
2113.8933
 20
1521.7833
 30
0.0000
  0
VERTEX
  8
0
 10
2114.1109
 20
1521.0596
 30
0.0000
  0
VERTEX
  8
0
 10
2114.4688
 20
1520.3643
 30
0.0000
  0
VERTEX
  8
0
 10
2114.9600
 20
1519.7110
 30
0.0000
  0
VERTEX
  8
0
 10
2115.5750
 20
1519.1125
 30
0.0000
  0
VERTEX
  8
0
 10
2116.3019
 20
1518.5802
 30
0.0000
  0
VERTEX
  8
0
 10
2117.1264
 20
1518.1247
 30
0.0000
  0
VERTEX
  8
0
 10
2118.0326
 20
1517.7548
 30
0.0000
  0
VERTEX
  8
0
 10
2119.0027
 20
1517.4776
 30
0.0000
  0
VERTEX
  8
0
 10
2120.1471
 20
1517.2833
 30
0.0000
  0
VERTEX
  8
0
 10
2121.3203
 20
1517.2181
 30
0.0000
  0
VERTEX
  8
0
 10
2122.4936
 20
1517.2833
 30
0.0000
  0
VERTEX
  8
0
 10
2123.6380
 20
1517.4776
 30
0.0000
  0
VERTEX
  8
0
 10
2124.6081
 20
1517.7548
 30
0.0000
  0
VERTEX
  8
0
 10
2125.5143
 20
1518.1247
 30
0.0000
  0
VERTEX
  8
0
 10
2126.3388
 20
1518.5802
 30
0.0000
  0
VERTEX
  8
0
 10
2126.6236
 20
1518.7714
 30
0.0000
  0
SEQEND
  0
POLYLINE
  6
continous
  8
BYBLOCK
 70
0
 66
1
  0
VERTEX
  8
0
 10
2116.0170
 20
1526.2714
 30
0.0000
  0
VERTEX
  8
0
 10
2115.3306
 20
1525.7130
 30
0.0000
  0
VERTEX
  8
0
 10
2114.7607
 20
1525.0924
 30
0.0000
  0
VERTEX
  8
0
 10
2114.3185
 20
1524.4219
 30
0.0000
  0
VERTEX
  8
0
 10
2114.0126
 20
1523.7143
 30
0.0000
  0
VERTEX
  8
0
 10
2113.8489
 20
1522.9836
 30
0.0000
  0
VERTEX
  8
0
 10
2113.8203
 20
1522.5214
 30
0.0000
  0
SEQEND
  0
POLYLINE
  6
continous
  8
BYBLOCK
 70
0
 66
1
  0
VERTEX
  8
0
 10
2128.8203
 20
1522.5214
 30
0.0000
  0
VERTEX
  8
0
 10
2128.7474
 20
1523.2594
 30
0.0000
  0
VERTEX
  8
0
 10
2128.5298
 20
1523.9831
 30
0.0000
  0
VERTEX
  8
0
 10
2128.1719
 20
1524.6784
 30
0.0000
  0
VERTEX
  8
0
 10
2127.6807
 20
1525.3317
 30
0.0000
  0
VERTEX
  8
0
 10
2127.0657
 20
1525.9302
 30
0.0000
  0
VERTEX
  8
0
 10
2126.3388
 20
1526.4625
 30
0.0000
  0
VERTEX
  8
0
 10
2125.5143
 20
1526.9180
 30
0.0000
  0
VERTEX
  8
0
 10
2124.6081
 20
1527.2879
 30
0.0000
  0
VERTEX
  8
0
 10
2123.6380
 20
1527.5651
 30
0.0000
  0
VERTEX
  8
0
 10
2122.4936
 20
1527.7594
 30
0.0000
  0
VERTEX
  8
0
 10
2121.3203
 20
1527.8247
 30
0.0000
  0
VERTEX
  8
0
 10
2120.1471
 20
1527.7594
 30
0.0000
  0
VERTEX
  8
0
 10
2119.0027
 20
1527.5651
 30
0.0000
  0
VERTEX
  8
0
 10
2118.0326
 20
1527.2879
 30
0.0000
  0
VERTEX
  8
0
 10
2117.1264
 20
1526.9180
 30
0.0000
  0
VERTEX
  8
0
 10
2116.3019
 20
1526.4625
 30
0.0000
  0
VERTEX
  8
0
 10
2116.0170
 20
1526.2714
 30
0.0000
  0
SEQEND
  0
POLYLINE
  6
continous
  8
BYBLOCK
 70
0
 66
1
  0
VERTEX
  8
0
 10
2126.6236
 20
1518.7714
 30
0.0000
  0
VERTEX
  8
0
 10
2127.3101
 20
1519.3297
 30
0.0000
  0
VERTEX
  8
0
 10
2127.8800
 20
1519.9503
 30
0.0000
  0
VERTEX
  8
0
 10
2128.3222
 20
1520.6208
 30
0.0000
  0
VERTEX
  8
0
 10
2128.6281
 20
1521.3284
 30
0.0000
  0
VERTEX
  8
0
 10
2128.7918
 20
1522.0591
 30
0.0000
  0
VERTEX
  8
0
 10
2128.8203
 20
1522.5214
 30
0.0000
  0
SEQEND
  0
POLYLINE
  6
continous
  8
BYBLOCK
 70
0
 66
1
  0
VERTEX
  8
0
 10
2057.2518
 20
1482.5214
 30
0.0000
  0
VERTEX
  8
0
 10
2057.3248
 20
1481.7833
 30
0.0000
  0
VERTEX
  8
0
 10
2057.5423
 20
1481.0596
 30
0.0000
  0
VERTEX
  8
0
 10
2057.9002
 20
1480.3643
 30
0.0000
  0
VERTEX
  8
0
 10
2058.3914
 20
1479.7110
 30
0.0000
  0
VERTEX
  8
0
 10
2059.0065
 20
1479.1125
 30
0.0000
  0
VERTEX
  8
0
 10
2059.7333
 20
1478.5802
 30
0.0000
  0
VERTEX
  8
0
 10
2060.5579
 20
1478.1247
 30
0.0000
  0
VERTEX
  8
0
 10
2061.4640
 20
1477.7548
 30
0.0000
  0
VERTEX
  8
0
 10
2062.4342
 20
1477.4776
 30
0.0000
  0
VERTEX
  8
0
 10
2063.5785
 20
1477.2833
 30
0.0000
  0
VERTEX
  8
0
 10
2064.7518
 20
1477.2181
 30
0.0000
  0
VERTEX
  8
0
 10
2065.9251
 20
1477.2833
 30
0.0000
  0
VERTEX
  8
0
 10
2067.0694
 20
1477.4776
 30
0.0000
  0
VERTEX
  8
0
 10
2068.0396
 20
1477.7548
 30
0.0000
  0
VERTEX
  8
0
 10
2068.9457
 20
1478.1247
 30
0.0000
  0
VERTEX
  8
0
 10
2069.7703
 20
1478.5802
 30
0.0000
  0
VERTEX
  8
0
 10
2070.0551
 20
1478.7714
 30
0.0000
  0
SEQEND
  0
POLYLINE
  6
continous
  8
BYBLOCK
 70
0
 66
1
  0
VERTEX
  8
0
 10
2059.4485
 20
1486.2714
 30
0.0000
  0
VERTEX
  8
0
 10
2058.7620
 20
1485.7130
 30
0.0000
  0
VERTEX
  8
0
 10
2058.1922
 20
1485.0924
 30
0.0000
  0
VERTEX
  8
0
 10
2057.7499
 20
1484.4219
 30
0.0000
  0
VERTEX
  8
0
 10
2057.4440
 20
1483.7143
 30
0.0000
  0
VERTEX
  8
0
 10
2057.2803
 20
1482.9836
 30
0.0000
  0
VERTEX
  8
0
 10
2057.2518
 20
1482.5214
 30
0.0000
  0
SEQEND
  0
POLYLINE
  6
continous
  8
BYBLOCK
 70
0
 66
1
  0
VERTEX
  8
0
 10
2072.2518
 20
1482.5214
 30
0.0000
  0
VERTEX
  8
0
 10
2072.1788
 20
1483.2594
 30
0.0000
  0
VERTEX
  8
0
 10
2071.9613
 20
1483.9831
 30
0.0000
  0
VERTEX
  8
0
 10
2071.6034
 20
1484.6784
 30
0.0000
  0
VERTEX
  8
0
 10
2071.1122
 20
1485.3317
 30
0.0000
  0
VERTEX
  8
0
 10
2070.4971
 20
1485.9302
 30
0.0000
  0
VERTEX
  8
0
 10
2069.7703
 20
1486.4625
 30
0.0000
  0
VERTEX
  8
0
 10
2068.9457
 20
1486.9180
 30
0.0000
  0
VERTEX
  8
0
 10
2068.0396
 20
1487.2879
 30
0.0000
  0
VERTEX
  8
0
 10
2067.0694
 20
1487.5651
 30
0.0000
  0
VERTEX
  8
0
 10
2065.9251
 20
1487.7594
 30
0.0000
  0
VERTEX
  8
0
 10
2064.7518
 20
1487.8247
 30
0.0000
  0
VERTEX
  8
0
 10
2063.5785
 20
1487.7594
 30
0.0000
  0
VERTEX
  8
0
 10
2062.4342
 20
1487.5651
 30
0.0000
  0
VERTEX
  8
0
 10
2061.4640
 20
1487.2879
 30
0.0000
  0
VERTEX
  8
0
 10
2060.5579
 20
1486.9180
 30
0.0000
  0
VERTEX
  8
0
 10
2059.7333
 20
1486.4625
 30
0.0000
  0
VERTEX
  8
0
 10
2059.4485
 20
1486.2714
 30
0.0000
  0
SEQEND
  0
POLYLINE
  6
continous
  8
BYBLOCK
 70
0
 66
1
  0
VERTEX
  8
0
 10
2070.0551
 20
1478.7714
 30
0.0000
  0
VERTEX
  8
0
 10
2070.7416
 20
1479.3297
 30
0.0000
  0
VERTEX
  8
0
 10
2071.3114
 20
1479.9503
 30
0.0000
  0
VERTEX
  8
0
 10
2071.7537
 20
1480.6208
 30
0.0000
  0
VERTEX
  8
0
 10
2072.0596
 20
1481.3284
 30
0.0000
  0
VERTEX
  8
0
 10
2072.2233
 20
1482.0591
 30
0.0000
  0
VERTEX
  8
0
 10
2072.2518
 20
1482.5214
 30
0.0000
  0
SEQEND
  0
POLYLINE
  6
continous
  8
BYBLOCK
 70
0
 66
1
  0
VERTEX
  8
0
 10
2000.6833
 20
1442.5214
 30
0.0000
  0
VERTEX
  8
0
 10
2000.7562
 20
1441.7833
 30
0.0000
  0
VERTEX
  8
0
 10
2000.9738
 20
1441.0596
 30
0.0000
  0
VERTEX
  8
0
 10
2001.3317
 20
1440.3643
 30
0.0000
  0
VERTEX
  8
0
 10
2001.8229
 20
1439.7110
 30
0.0000
  0
VERTEX
  8
0
 10
2002.4379
 20
1439.1125
 30
0.0000
  0
VERTEX
  8
0
 10
2003.1648
 20
1438.5802
 30
0.0000
  0
VERTEX
  8
0
 10
2003.9893
 20
1438.1247
 30
0.0000
  0
VERTEX
  8
0
 10
2004.8955
 20
1437.7548
 30
0.0000
  0
VERTEX
  8
0
 10
2005.8656
 20
1437.4776
 30
0.0000
  0
VERTEX
  8
0
 10
2007.0100
 20
1437.2833
 30
0.0000
  0
VERTEX
  8
0
 10
2008.1833
 20
1437.2181
 30
0.0000
  0
VERTEX
  8
0
 10
2009.3565
 20
1437.2833
 30
0.0000
  0
VERTEX
  8
0
 10
2010.5009
 20
1437.4776
 30
0.0000
  0
VERTEX
  8
0
 10
2011.4710
 20
1437.7548
 30
0.0000
  0
VERTEX
  8
0
 10
2012.3772
 20
1438.1247
 30
0.0000
  0
VERTEX
  8
0
 10
2013.2017
 20
1438.5802
 30
0.0000
  0
VERTEX
  8
0
 10
2013.4866
 20
1438.7714
 30
0.0000
  0
SEQEND
  0
POLYLINE
  6
continous
  8
BYBLOCK
 70
0
 66
1
  0
VERTEX
  8
0
 10
2002.8800
 20
1446.2714
 30
0.0000
  0
VERTEX
  8
0
 10
2002.1935
 20
1445.7130
 30
0.0000
  0
VERTEX
  8
0
 10
2001.6236
 20
1445.0924
 30
0.0000
  0
VERTEX
  8
0
 10
2001.1814
 20
1444.4219
 30
0.0000
  0
VERTEX
  8
0
 10
2000.8755
 20
1443.7143
 30
0.0000
  0
VERTEX
  8
0
 10
2000.7118
 20
1442.9836
 30
0.0000
  0
VERTEX
  8
0
 10
2000.6833
 20
1442.5214
 30
0.0000
  0
SEQEND
  0
POLYLINE
  6
continous
  8
BYBLOCK
 70
0
 66
1
  0
VERTEX
  8
0
 10
2015.6833
 20
1442.5214
 30
0.0000
  0
VERTEX
  8
0
 10
2015.6103
 20
1443.2594
 30
0.0000
  0
VERTEX
  8
0
 10
2015.3927
 20
1443.9831
 30
0.0000
  0
VERTEX
  8
0
 10
2015.0348
 20
1444.6784
 30
0.0000
  0
VERTEX
  8
0
 10
2014.5436
 20
1445.3317
 30
0.0000
  0
VERTEX
  8
0
 10
2013.9286
 20
1445.9302
 30
0.0000
  0
VERTEX
  8
0
 10
2013.2017
 20
1446.4625
 30
0.0000
  0
VERTEX
  8
0
 10
2012.3772
 20
1446.9180
 30
0.0000
  0
VERTEX
  8
0
 10
2011.4710
 20
1447.2879
 30
0.0000
  0
VERTEX
  8
0
 10
2010.5009
 20
1447.5651
 30
0.0000
  0
VERTEX
  8
0
 10
2009.3565
 20
1447.7594
 30
0.0000
  0
VERTEX
  8
0
 10
2008.1833
 20
1447.8247
 30
0.0000
  0
VERTEX
  8
0
 10
2007.0100
 20
1447.7594
 30
0.0000
  0
VERTEX
  8
0
 10
2005.8656
 20
1447.5651
 30
0.0000
  0
VERTEX
  8
0
 10
2004.8955
 20
1447.2879
 30
0.0000
  0
VERTEX
  8
0
 10
2003.9893
 20
1446.9180
 30
0.0000
  0
VERTEX
  8
0
 10
2003.1648
 20
1446.4625
 30
0.0000
  0
VERTEX
  8
0
 10
2002.8800
 20
1446.2714
 30
0.0000
  0
SEQEND
  0
POLYLINE
  6
continous
  8
BYBLOCK
 70
0
 66
1
  0
VERTEX
  8
0
 10
2013.4866
 20
1438.7714
 30
0.0000
  0
VERTEX
  8
0
 10
2014.1730
 20
1439.3297
 30
0.0000
  0
VERTEX
  8
0
 10
2014.7429
 20
1439.9503
 30
0.0000
  0
VERTEX
  8
0
 10
2015.1851
 20
1440.6208
 30
0.0000
  0
VERTEX
  8
0
 10
2015.4910
 20
1441.3284
 30
0.0000
  0
VERTEX
  8
0
 10
2015.6547
 20
1442.0591
 30
0.0000
  0
VERTEX
  8
0
 10
2015.6833
 20
1442.5214
 30
0.0000
  0
SEQEND
  0
POLYLINE
  6
continous
  8
BYBLOCK
 70
0
 66
1
  0
VERTEX
  8
0
 10
1944.1147
 20
1402.5214
 30
0.0000
  0
VERTEX
  8
0
 10
1944.1877
 20
1401.7833
 30
0.0000
  0
VERTEX
  8
0
 10
1944.4053
 20
1401.0596
 30
0.0000
  0
VERTEX
  8
0
 10
1944.7631
 20
1400.3643
 30
0.0000
  0
VERTEX
  8
0
 10
1945.2544
 20
1399.7110
 30
0.0000
  0
VERTEX
  8
0
 10
1945.8694
 20
1399.1125
 30
0.0000
  0
VERTEX
  8
0
 10
1946.5962
 20
1398.5802
 30
0.0000
  0
VERTEX
  8
0
 10
1947.4208
 20
1398.1247
 30
0.0000
  0
VERTEX
  8
0
 10
1948.3269
 20
1397.7548
 30
0.0000
  0
VERTEX
  8
0
 10
1949.2971
 20
1397.4776
 30
0.0000
  0
VERTEX
  8
0
 10
1950.4415
 20
1397.2833
 30
0.0000
  0
VERTEX
  8
0
 10
1951.6147
 20
1397.2181
 30
0.0000
  0
VERTEX
  8
0
 10
1952.7880
 20
1397.2833
 30
0.0000
  0
VERTEX
  8
0
 10
1953.9323
 20
1397.4776
 30
0.0000
  0
VERTEX
  8
0
 10
1954.9025
 20
1397.7548
 30
0.0000
  0
VERTEX
  8
0
 10
1955.8087
 20
1398.1247
 30
0.0000
  0
VERTEX
  8
0
 10
1956.6332
 20
1398.5802
 30
0.0000
  0
VERTEX
  8
0
 10
1956.9180
 20
1398.7714
 30
0.0000
  0
SEQEND
  0
POLYLINE
  6
continous
  8
BYBLOCK
 70
0
 66
1
  0
VERTEX
  8
0
 10
1946.3114
 20
1406.2714
 30
0.0000
  0
VERTEX
  8
0
 10
1945.6249
 20
1405.7130
 30
0.0000
  0
VERTEX
  8
0
 10
1945.0551
 20
1405.0924
 30
0.0000
  0
VERTEX
  8
0
 10
1944.6129
 20
1404.4219
 30
0.0000
  0
VERTEX
  8
0
 10
1944.3069
 20
1403.7143
 30
0.0000
  0
VERTEX
  8
0
 10
1944.1433
 20
1402.9836
 30
0.0000
  0
VERTEX
  8
0
 10
1944.1147
 20
1402.5214
 30
0.0000
  0
SEQEND
  0
POLYLINE
  6
continous
  8
BYBLOCK
 70
0
 66
1
  0
VERTEX
  8
0
 10
1959.1147
 20
1402.5214
 30
0.0000
  0
VERTEX
  8
0
 10
1959.0417
 20
1403.2594
 30
0.0000
  0
VERTEX
  8
0
 10
1958.8242
 20
1403.9831
 30
0.0000
  0
VERTEX
  8
0
 10
1958.4663
 20
1404.6784
 30
0.0000
  0
VERTEX
  8
0
 10
1957.9751
 20
1405.3317
 30
0.0000
  0
VERTEX
  8
0
 10
1957.3600
 20
1405.9302
 30
0.0000
  0
VERTEX
  8
0
 10
1956.6332
 20
1406.4625
 30
0.0000
  0
VERTEX
  8
0
 10
1955.8087
 20
1406.9180
 30
0.0000
  0
VERTEX
  8
0
 10
1954.9025
 20
1407.2879
 30
0.0000
  0
VERTEX
  8
0
 10
1953.9323
 20
1407.5651
 30
0.0000
  0
VERTEX
  8
0
 10
1952.7880
 20
1407.7594
 30
0.0000
  0
VERTEX
  8
0
 10
1951.6147
 20
1407.8247
 30
0.0000
  0
VERTEX
  8
0
 10
1950.4415
 20
1407.7594
 30
0.0000
  0
VERTEX
  8
0
 10
1949.2971
 20
1407.5651
 30
0.0000
  0
VERTEX
  8
0
 10
1948.3269
 20
1407.2879
 30
0.0000
  0
VERTEX
  8
0
 10
1947.4208
 20
1406.9180
 30
0.0000
  0
VERTEX
  8
0
 10
1946.5962
 20
1406.4625
 30
0.0000
  0
VERTEX
  8
0
 10
1946.3114
 20
1406.2714
 30
0.0000
  0
SEQEND
  0
POLYLINE
  6
continous
  8
BYBLOCK
 70
0
 66
1
  0
VERTEX
  8
0
 10
1956.9180
 20
1398.7714
 30
0.0000
  0
VERTEX
  8
0
 10
1957.6045
 20
1399.3297
 30
0.0000
  0
VERTEX
  8
0
 10
1958.1744
 20
1399.9503
 30
0.0000
  0
VERTEX
  8
0
 10
1958.6166
 20
1400.6208
 30
0.0000
  0
VERTEX
  8
0
 10
1958.9225
 20
1401.3284
 30
0.0000
  0
VERTEX
  8
0
 10
1959.0862
 20
1402.0591
 30
0.0000
  0
VERTEX
  8
0
 10
1959.1147
 20
1402.5214
 30
0.0000
  0
SEQEND
  0
POLYLINE
  6
continous
  8
BYBLOCK
 70
0
 66
1
  0
VERTEX
  8
0
 10
1887.5462
 20
1362.5214
 30
0.0000
  0
VERTEX
  8
0
 10
1887.6192
 20
1361.7833
 30
0.0000
  0
VERTEX
  8
0
 10
1887.8367
 20
1361.0596
 30
0.0000
  0
VERTEX
  8
0
 10
1888.1946
 20
1360.3643
 30
0.0000
  0
VERTEX
  8
0
 10
1888.6858
 20
1359.7110
 30
0.0000
  0
VERTEX
  8
0
 10
1889.3008
 20
1359.1125
 30
0.0000
  0
VERTEX
  8
0
 10
1890.0277
 20
1358.5802
 30
0.0000
  0
VERTEX
  8
0
 10
1890.8522
 20
1358.1247
 30
0.0000
  0
VERTEX
  8
0
 10
1891.7584
 20
1357.7548
 30
0.0000
  0
VERTEX
  8
0
 10
1892.7285
 20
1357.4776
 30
0.0000
  0
VERTEX
  8
0
 10
1893.8729
 20
1357.2833
 30
0.0000
  0
VERTEX
  8
0
 10
1895.0462
 20
1357.2181
 30
0.0000
  0
VERTEX
  8
0
 10
1896.2194
 20
1357.2833
 30
0.0000
  0
VERTEX
  8
0
 10
1897.3638
 20
1357.4776
 30
0.0000
  0
VERTEX
  8
0
 10
1898.3340
 20
1357.7548
 30
0.0000
  0
VERTEX
  8
0
 10
1899.2401
 20
1358.1247
 30
0.0000
  0
VERTEX
  8
0
 10
1900.0647
 20
1358.5802
 30
0.0000
  0
VERTEX
  8
0
 10
1900.3495
 20
1358.7714
 30
0.0000
  0
SEQEND
  0
POLYLINE
  6
continous
  8
BYBLOCK
 70
0
 66
1
  0
VERTEX
  8
0
 10
1889.7429
 20
1366.2714
 30
0.0000
  0
VERTEX
  8
0
 10
1889.0564
 20
1365.7130
 30
0.0000
  0
VERTEX
  8
0
 10
1888.4865
 20
1365.0924
 30
0.0000
  0
VERTEX
  8
0
 10
1888.0443
 20
1364.4219
 30
0.0000
  0
VERTEX
  8
0
 10
1887.7384
 20
1363.7143
 30
0.0000
  0
VERTEX
  8
0
 10
1887.5747
 20
1362.9836
 30
0.0000
  0
VERTEX
  8
0
 10
1887.5462
 20
1362.5214
 30
0.0000
  0
SEQEND
  0
POLYLINE
  6
continous
  8
BYBLOCK
 70
0
 66
1
  0
VERTEX
  8
0
 10
1902.5462
 20
1362.5214
 30
0.0000
  0
VERTEX
  8
0
 10
1902.4732
 20
1363.2594
 30
0.0000
  0
VERTEX
  8
0
 10
1902.2556
 20
1363.9831
 30
0.0000
  0
VERTEX
  8
0
 10
1901.8978
 20
1364.6784
 30
0.0000
  0
VERTEX
  8
0
 10
1901.4065
 20
1365.3317
 30
0.0000
  0
VERTEX
  8
0
 10
1900.7915
 20
1365.9302
 30
0.0000
  0
VERTEX
  8
0
 10
1900.0647
 20
1366.4625
 30
0.0000
  0
VERTEX
  8
0
 10
1899.2401
 20
1366.9180
 30
0.0000
  0
VERTEX
  8
0
 10
1898.3340
 20
1367.2879
 30
0.0000
  0
VERTEX
  8
0
 10
1897.3638
 20
1367.5651
 30
0.0000
  0
VERTEX
  8
0
 10
1896.2194
 20
1367.7594
 30
0.0000
  0
VERTEX
  8
0
 10
1895.0462
 20
1367.8247
 30
0.0000
  0
VERTEX
  8
0
 10
1893.8729
 20
1367.7594
 30
0.0000
  0
VERTEX
  8
0
 10
1892.7285
 20
1367.5651
 30
0.0000
  0
VERTEX
  8
0
 10
1891.7584
 20
1367.2879
 30
0.0000
  0
VERTEX
  8
0
 10
1890.8522
 20
1366.9180
 30
0.0000
  0
VERTEX
  8
0
 10
1890.0277
 20
1366.4625
 30
0.0000
  0
VERTEX
  8
0
 10
1889.7429
 20
1366.2714
 30
0.0000
  0
SEQEND
  0
POLYLINE
  6
continous
  8
BYBLOCK
 70
0
 66
1
  0
VERTEX
  8
0
 10
1900.3495
 20
1358.7714
 30
0.0000
  0
VERTEX
  8
0
 10
1901.0359
 20
1359.3297
 30
0.0000
  0
VERTEX
  8
0
 10
1901.6058
 20
1359.9503
 30
0.0000
  0
VERTEX
  8
0
 10
1902.0480
 20
1360.6208
 30
0.0000
  0
VERTEX
  8
0
 10
1902.3539
 20
1361.3284
 30
0.0000
  0
VERTEX
  8
0
 10
1902.5176
 20
1362.0591
 30
0.0000
  0
VERTEX
  8
0
 10
1902.5462
 20
1362.5214
 30
0.0000
  0
SEQEND
  0
POLYLINE
  6
continous
  8
BYBLOCK
 70
0
 66
1
  0
VERTEX
  8
0
 10
1830.9776
 20
1322.5214
 30
0.0000
  0
VERTEX
  8
0
 10
1831.0506
 20
1321.7833
 30
0.0000
  0
VERTEX
  8
0
 10
1831.2682
 20
1321.0596
 30
0.0000
  0
VERTEX
  8
0
 10
1831.6260
 20
1320.3643
 30
0.0000
  0
VERTEX
  8
0
 10
1832.1173
 20
1319.7110
 30
0.0000
  0
VERTEX
  8
0
 10
1832.7323
 20
1319.1125
 30
0.0000
  0
VERTEX
  8
0
 10
1833.4592
 20
1318.5802
 30
0.0000
  0
VERTEX
  8
0
 10
1834.2837
 20
1318.1247
 30
0.0000
  0
VERTEX
  8
0
 10
1835.1898
 20
1317.7548
 30
0.0000
  0
VERTEX
  8
0
 10
1836.1600
 20
1317.4776
 30
0.0000
  0
VERTEX
  8
0
 10
1837.3044
 20
1317.2833
 30
0.0000
  0
VERTEX
  8
0
 10
1838.4776
 20
1317.2181
 30
0.0000
  0
VERTEX
  8
0
 10
1839.6509
 20
1317.2833
 30
0.0000
  0
VERTEX
  8
0
 10
1840.7953
 20
1317.4776
 30
0.0000
  0
VERTEX
  8
0
 10
1841.7654
 20
1317.7548
 30
0.0000
  0
VERTEX
  8
0
 10
1842.6716
 20
1318.1247
 30
0.0000
  0
VERTEX
  8
0
 10
1843.4961
 20
1318.5802
 30
0.0000
  0
VERTEX
  8
0
 10
1843.7809
 20
1318.7714
 30
0.0000
  0
SEQEND
  0
POLYLINE
  6
continous
  8
BYBLOCK
 70
0
 66
1
  0
VERTEX
  8
0
 10
1833.1743
 20
1326.2714
 30
0.0000
  0
VERTEX
  8
0
 10
1832.4879
 20
1325.7130
 30
0.0000
  0
VERTEX
  8
0
 10
1831.9180
 20
1325.0924
 30
0.0000
  0
VERTEX
  8
0
 10
1831.4758
 20
1324.4219
 30
0.0000
  0
VERTEX
  8
0
 10
1831.1699
 20
1323.7143
 30
0.0000
  0
VERTEX
  8
0
 10
1831.0062
 20
1322.9836
 30
0.0000
  0
VERTEX
  8
0
 10
1830.9776
 20
1322.5214
 30
0.0000
  0
SEQEND
  0
POLYLINE
  6
continous
  8
BYBLOCK
 70
0
 66
1
  0
VERTEX
  8
0
 10
1845.9776
 20
1322.5214
 30
0.0000
  0
VERTEX
  8
0
 10
1845.9046
 20
1323.2594
 30
0.0000
  0
VERTEX
  8
0
 10
1845.6871
 20
1323.9831
 30
0.0000
  0
VERTEX
  8
0
 10
1845.3292
 20
1324.6784
 30
0.0000
  0
VERTEX
  8
0
 10
1844.8380
 20
1325.3317
 30
0.0000
  0
VERTEX
  8
0
 10
1844.2230
 20
1325.9302
 30
0.0000
  0
VERTEX
  8
0
 10
1843.4961
 20
1326.4625
 30
0.0000
  0
VERTEX
  8
0
 10
1842.6716
 20
1326.9180
 30
0.0000
  0
VERTEX
  8
0
 10
1841.7654
 20
1327.2879
 30
0.0000
  0
VERTEX
  8
0
 10
1840.7953
 20
1327.5651
 30
0.0000
  0
VERTEX
  8
0
 10
1839.6509
 20
1327.7594
 30
0.0000
  0
VERTEX
  8
0
 10
1838.4776
 20
1327.8247
 30
0.0000
  0
VERTEX
  8
0
 10
1837.3044
 20
1327.7594
 30
0.0000
  0
VERTEX
  8
0
 10
1836.1600
 20
1327.5651
 30
0.0000
  0
VERTEX
  8
0
 10
1835.1898
 20
1327.2879
 30
0.0000
  0
VERTEX
  8
0
 10
1834.2837
 20
1326.9180
 30
0.0000
  0
VERTEX
  8
0
 10
1833.4592
 20
1326.4625
 30
0.0000
  0
VERTEX
  8
0
 10
1833.1743
 20
1326.2714
 30
0.0000
  0
SEQEND
  0
POLYLINE
  6
continous
  8
BYBLOCK
 70
0
 66
1
  0
VERTEX
  8
0
 10
1843.7809
 20
1318.7714
 30
0.0000
  0
VERTEX
  8
0
 10
1844.4674
 20
1319.3297
 30
0.0000
  0
VERTEX
  8
0
 10
1845.0373
 20
1319.9503
 30
0.0000
  0
VERTEX
  8
0
 10
1845.4795
 20
1320.6208
 30
0.0000
  0
VERTEX
  8
0
 10
1845.7854
 20
1321.3284
 30
0.0000
  0
VERTEX
  8
0
 10
1845.9491
 20
1322.0591
 30
0.0000
  0
VERTEX
  8
0
 10
1845.9776
 20
1322.5214
 30
0.0000
  0
SEQEND
  0
POLYLINE
  6
continous
  8
BYBLOCK
 70
0
 66
1
  0
VERTEX
  8
0
 10
1774.4091
 20
1282.5214
 30
0.0000
  0
VERTEX
  8
0
 10
1774.4821
 20
1281.7833
 30
0.0000
  0
VERTEX
  8
0
 10
1774.6996
 20
1281.0596
 30
0.0000
  0
VERTEX
  8
0
 10
1775.0575
 20
1280.3643
 30
0.0000
  0
VERTEX
  8
0
 10
1775.5487
 20
1279.7110
 30
0.0000
  0
VERTEX
  8
0
 10
1776.1638
 20
1279.1125
 30
0.0000
  0
VERTEX
  8
0
 10
1776.8906
 20
1278.5802
 30
0.0000
  0
VERTEX
  8
0
 10
1777.7151
 20
1278.1247
 30
0.0000
  0
VERTEX
  8
0
 10
1778.6213
 20
1277.7548
 30
0.0000
  0
VERTEX
  8
0
 10
1779.5915
 20
1277.4776
 30
0.0000
  0
VERTEX
  8
0
 10
1780.7358
 20
1277.2833
 30
0.0000
  0
VERTEX
  8
0
 10
1781.9091
 20
1277.2181
 30
0.0000
  0
VERTEX
  8
0
 10
1783.0823
 20
1277.2833
 30
0.0000
  0
VERTEX
  8
0
 10
1784.2267
 20
1277.4776
 30
0.0000
  0
VERTEX
  8
0
 10
1785.1969
 20
1277.7548
 30
0.0000
  0
VERTEX
  8
0
 10
1786.1030
 20
1278.1247
 30
0.0000
  0
VERTEX
  8
0
 10
1786.9276
 20
1278.5802
 30
0.0000
  0
VERTEX
  8
0
 10
1787.2124
 20
1278.7714
 30
0.0000
  0
SEQEND
  0
POLYLINE
  6
continous
  8
BYBLOCK
 70
0
 66
1
  0
VERTEX
  8
0
 10
1776.6058
 20
1286.2714
 30
0.0000
  0
VERTEX
  8
0
 10
1775.9193
 20
1285.7130
 30
0.0000
  0
VERTEX
  8
0
 10
1775.3494
 20
1285.0924
 30
0.0000
  0
VERTEX
  8
0
 10
1774.9072
 20
1284.4219
 30
0.0000
  0
VERTEX
  8
0
 10
1774.6013
 20
1283.7143
 30
0.0000
  0
VERTEX
  8
0
 10
1774.4376
 20
1282.9836
 30
0.0000
  0
VERTEX
  8
0
 10
1774.4091
 20
1282.5214
 30
0.0000
  0
SEQEND
  0
POLYLINE
  6
continous
  8
BYBLOCK
 70
0
 66
1
  0
VERTEX
  8
0
 10
1789.4091
 20
1282.5214
 30
0.0000
  0
VERTEX
  8
0
 10
1789.3361
 20
1283.2594
 30
0.0000
  0
VERTEX
  8
0
 10
1789.1186
 20
1283.9831
 30
0.0000
  0
VERTEX
  8
0
 10
1788.7607
 20
1284.6784
 30
0.0000
  0
VERTEX
  8
0
 10
1788.2694
 20
1285.3317
 30
0.0000
  0
VERTEX
  8
0
 10
1787.6544
 20
1285.9302
 30
0.0000
  0
VERTEX
  8
0
 10
1786.9276
 20
1286.4625
 30
0.0000
  0
VERTEX
  8
0
 10
1786.1030
 20
1286.9180
 30
0.0000
  0
VERTEX
  8
0
 10
1785.1969
 20
1287.2879
 30
0.0000
  0
VERTEX
  8
0
 10
1784.2267
 20
1287.5651
 30
0.0000
  0
VERTEX
  8
0
 10
1783.0823
 20
1287.7594
 30
0.0000
  0
VERTEX
  8
0
 10
1781.9091
 20
1287.8247
 30
0.0000
  0
VERTEX
  8
0
 10
1780.7358
 20
1287.7594
 30
0.0000
  0
VERTEX
  8
0
 10
1779.5915
 20
1287.5651
 30
0.0000
  0
VERTEX
  8
0
 10
1778.6213
 20
1287.2879
 30
0.0000
  0
VERTEX
  8
0
 10
1777.7151
 20
1286.9180
 30
0.0000
  0
VERTEX
  8
0
 10
1776.8906
 20
1286.4625
 30
0.0000
  0
VERTEX
  8
0
 10
1776.6058
 20
1286.2714
 30
0.0000
  0
SEQEND
  0
POLYLINE
  6
continous
  8
BYBLOCK
 70
0
 66
1
  0
VERTEX
  8
0
 10
1787.2124
 20
1278.7714
 30
0.0000
  0
VERTEX
  8
0
 10
1787.8989
 20
1279.3297
 30
0.0000
  0
VERTEX
  8
0
 10
1788.4687
 20
1279.9503
 30
0.0000
  0
VERTEX
  8
0
 10
1788.9109
 20
1280.6208
 30
0.0000
  0
VERTEX
  8
0
 10
1789.2169
 20
1281.3284
 30
0.0000
  0
VERTEX
  8
0
 10
1789.3805
 20
1282.0591
 30
0.0000
  0
VERTEX
  8
0
 10
1789.4091
 20
1282.5214
 30
0.0000
  0
SEQEND
  0
POLYLINE
  6
continous
  8
BYBLOCK
 70
0
 66
1
  0
VERTEX
  8
0
 10
1717.8405
 20
1242.5214
 30
0.0000
  0
VERTEX
  8
0
 10
1717.9135
 20
1241.7833
 30
0.0000
  0
VERTEX
  8
0
 10
1718.1311
 20
1241.0596
 30
0.0000
  0
VERTEX
  8
0
 10
1718.4890
 20
1240.3643
 30
0.0000
  0
VERTEX
  8
0
 10
1718.9802
 20
1239.7110
 30
0.0000
  0
VERTEX
  8
0
 10
1719.5952
 20
1239.1125
 30
0.0000
  0
VERTEX
  8
0
 10
1720.3221
 20
1238.5802
 30
0.0000
  0
VERTEX
  8
0
 10
1721.1466
 20
1238.1247
 30
0.0000
  0
VERTEX
  8
0
 10
1722.0528
 20
1237.7548
 30
0.0000
  0
VERTEX
  8
0
 10
1723.0229
 20
1237.4776
 30
0.0000
  0
VERTEX
  8
0
 10
1724.1673
 20
1237.2833
 30
0.0000
  0
VERTEX
  8
0
 10
1725.3405
 20
1237.2181
 30
0.0000
  0
VERTEX
  8
0
 10
1726.5138
 20
1237.2833
 30
0.0000
  0
VERTEX
  8
0
 10
1727.6582
 20
1237.4776
 30
0.0000
  0
VERTEX
  8
0
 10
1728.6283
 20
1237.7548
 30
0.0000
  0
VERTEX
  8
0
 10
1729.5345
 20
1238.1247
 30
0.0000
  0
VERTEX
  8
0
 10
1730.3590
 20
1238.5802
 30
0.0000
  0
VERTEX
  8
0
 10
1730.6438
 20
1238.7714
 30
0.0000
  0
SEQEND
  0
POLYLINE
  6
continous
  8
BYBLOCK
 70
0
 66
1
  0
VERTEX
  8
0
 10
1720.0372
 20
1246.2714
 30
0.0000
  0
VERTEX
  8
0
 10
1719.3508
 20
1245.7130
 30
0.0000
  0
VERTEX
  8
0
 10
1718.7809
 20
1245.0924
 30
0.0000
  0
VERTEX
  8
0
 10
1718.3387
 20
1244.4219
 30
0.0000
  0
VERTEX
  8
0
 10
1718.0328
 20
1243.7143
 30
0.0000
  0
VERTEX
  8
0
 10
1717.8691
 20
1242.9836
 30
0.0000
  0
VERTEX
  8
0
 10
1717.8405
 20
1242.5214
 30
0.0000
  0
SEQEND
  0
POLYLINE
  6
continous
  8
BYBLOCK
 70
0
 66
1
  0
VERTEX
  8
0
 10
1732.8405
 20
1242.5214
 30
0.0000
  0
VERTEX
  8
0
 10
1732.7676
 20
1243.2594
 30
0.0000
  0
VERTEX
  8
0
 10
1732.5500
 20
1243.9831
 30
0.0000
  0
VERTEX
  8
0
 10
1732.1921
 20
1244.6784
 30
0.0000
  0
VERTEX
  8
0
 10
1731.7009
 20
1245.3317
 30
0.0000
  0
VERTEX
  8
0
 10
1731.0859
 20
1245.9302
 30
0.0000
  0
VERTEX
  8
0
 10
1730.3590
 20
1246.4625
 30
0.0000
  0
VERTEX
  8
0
 10
1729.5345
 20
1246.9180
 30
0.0000
  0
VERTEX
  8
0
 10
1728.6283
 20
1247.2879
 30
0.0000
  0
VERTEX
  8
0
 10
1727.6582
 20
1247.5651
 30
0.0000
  0
VERTEX
  8
0
 10
1726.5138
 20
1247.7594
 30
0.0000
  0
VERTEX
  8
0
 10
1725.3405
 20
1247.8247
 30
0.0000
  0
VERTEX
  8
0
 10
1724.1673
 20
1247.7594
 30
0.0000
  0
VERTEX
  8
0
 10
1723.0229
 20
1247.5651
 30
0.0000
  0
VERTEX
  8
0
 10
1722.0528
 20
1247.2879
 30
0.0000
  0
VERTEX
  8
0
 10
1721.1466
 20
1246.9180
 30
0.0000
  0
VERTEX
  8
0
 10
1720.3221
 20
1246.4625
 30
0.0000
  0
VERTEX
  8
0
 10
1720.0372
 20
1246.2714
 30
0.0000
  0
SEQEND
  0
POLYLINE
  6
continous
  8
BYBLOCK
 70
0
 66
1
  0
VERTEX
  8
0
 10
1730.6438
 20
1238.7714
 30
0.0000
  0
VERTEX
  8
0
 10
1731.3303
 20
1239.3297
 30
0.0000
  0
VERTEX
  8
0
 10
1731.9002
 20
1239.9503
 30
0.0000
  0
VERTEX
  8
0
 10
1732.3424
 20
1240.6208
 30
0.0000
  0
VERTEX
  8
0
 10
1732.6483
 20
1241.3284
 30
0.0000
  0
VERTEX
  8
0
 10
1732.8120
 20
1242.0591
 30
0.0000
  0
VERTEX
  8
0
 10
1732.8405
 20
1242.5214
 30
0.0000
  0
SEQEND
  0
POLYLINE
  6
continous
  8
BYBLOCK
 70
0
 66
1
  0
VERTEX
  8
0
 10
1661.2720
 20
1202.5214
 30
0.0000
  0
VERTEX
  8
0
 10
1661.3450
 20
1201.7833
 30
0.0000
  0
VERTEX
  8
0
 10
1661.5625
 20
1201.0596
 30
0.0000
  0
VERTEX
  8
0
 10
1661.9204
 20
1200.3643
 30
0.0000
  0
VERTEX
  8
0
 10
1662.4116
 20
1199.7110
 30
0.0000
  0
VERTEX
  8
0
 10
1663.0267
 20
1199.1125
 30
0.0000
  0
VERTEX
  8
0
 10
1663.7535
 20
1198.5802
 30
0.0000
  0
VERTEX
  8
0
 10
1664.5781
 20
1198.1247
 30
0.0000
  0
VERTEX
  8
0
 10
1665.4842
 20
1197.7548
 30
0.0000
  0
VERTEX
  8
0
 10
1666.4544
 20
1197.4776
 30
0.0000
  0
VERTEX
  8
0
 10
1667.5987
 20
1197.2833
 30
0.0000
  0
VERTEX
  8
0
 10
1668.7720
 20
1197.2181
 30
0.0000
  0
VERTEX
  8
0
 10
1669.9453
 20
1197.2833
 30
0.0000
  0
VERTEX
  8
0
 10
1671.0896
 20
1197.4776
 30
0.0000
  0
VERTEX
  8
0
 10
1672.0598
 20
1197.7548
 30
0.0000
  0
VERTEX
  8
0
 10
1672.9660
 20
1198.1247
 30
0.0000
  0
VERTEX
  8
0
 10
1673.7905
 20
1198.5802
 30
0.0000
  0
VERTEX
  8
0
 10
1674.0753
 20
1198.7714
 30
0.0000
  0
SEQEND
  0
POLYLINE
  6
continous
  8
BYBLOCK
 70
0
 66
1
  0
VERTEX
  8
0
 10
1663.4687
 20
1206.2714
 30
0.0000
  0
VERTEX
  8
0
 10
1662.7822
 20
1205.7130
 30
0.0000
  0
VERTEX
  8
0
 10
1662.2124
 20
1205.0924
 30
0.0000
  0
VERTEX
  8
0
 10
1661.7702
 20
1204.4219
 30
0.0000
  0
VERTEX
  8
0
 10
1661.4642
 20
1203.7143
 30
0.0000
  0
VERTEX
  8
0
 10
1661.3005
 20
1202.9836
 30
0.0000
  0
VERTEX
  8
0
 10
1661.2720
 20
1202.5214
 30
0.0000
  0
SEQEND
  0
POLYLINE
  6
continous
  8
BYBLOCK
 70
0
 66
1
  0
VERTEX
  8
0
 10
1676.2720
 20
1202.5214
 30
0.0000
  0
VERTEX
  8
0
 10
1676.1990
 20
1203.2594
 30
0.0000
  0
VERTEX
  8
0
 10
1675.9815
 20
1203.9831
 30
0.0000
  0
VERTEX
  8
0
 10
1675.6236
 20
1204.6784
 30
0.0000
  0
VERTEX
  8
0
 10
1675.1324
 20
1205.3317
 30
0.0000
  0
VERTEX
  8
0
 10
1674.5173
 20
1205.9302
 30
0.0000
  0
VERTEX
  8
0
 10
1673.7905
 20
1206.4625
 30
0.0000
  0
VERTEX
  8
0
 10
1672.9660
 20
1206.9180
 30
0.0000
  0
VERTEX
  8
0
 10
1672.0598
 20
1207.2879
 30
0.0000
  0
VERTEX
  8
0
 10
1671.0896
 20
1207.5651
 30
0.0000
  0
VERTEX
  8
0
 10
1669.9453
 20
1207.7594
 30
0.0000
  0
VERTEX
  8
0
 10
1668.7720
 20
1207.8247
 30
0.0000
  0
VERTEX
  8
0
 10
1667.5987
 20
1207.7594
 30
0.0000
  0
VERTEX
  8
0
 10
1666.4544
 20
1207.5651
 30
0.0000
  0
VERTEX
  8
0
 10
1665.4842
 20
1207.2879
 30
0.0000
  0
VERTEX
  8
0
 10
1664.5781
 20
1206.9180
 30
0.0000
  0
VERTEX
  8
0
 10
1663.7535
 20
1206.4625
 30
0.0000
  0
VERTEX
  8
0
 10
1663.4687
 20
1206.2714
 30
0.0000
  0
SEQEND
  0
POLYLINE
  6
continous
  8
BYBLOCK
 70
0
 66
1
  0
VERTEX
  8
0
 10
1674.0753
 20
1198.7714
 30
0.0000
  0
VERTEX
  8
0
 10
1674.7618
 20
1199.3297
 30
0.0000
  0
VERTEX
  8
0
 10
1675.3317
 20
1199.9503
 30
0.0000
  0
VERTEX
  8
0
 10
1675.7739
 20
1200.6208
 30
0.0000
  0
VERTEX
  8
0
 10
1676.0798
 20
1201.3284
 30
0.0000
  0
VERTEX
  8
0
 10
1676.2435
 20
1202.0591
 30
0.0000
  0
VERTEX
  8
0
 10
1676.2720
 20
1202.5214
 30
0.0000
  0
SEQEND
  0
POLYLINE
  6
continous
  8
BYBLOCK
 70
0
 66
1
  0
VERTEX
  8
0
 10
1604.7035
 20
1162.5214
 30
0.0000
  0
VERTEX
  8
0
 10
1604.7765
 20
1161.7833
 30
0.0000
  0
VERTEX
  8
0
 10
1604.9940
 20
1161.0596
 30
0.0000
  0
VERTEX
  8
0
 10
1605.3519
 20
1160.3643
 30
0.0000
  0
VERTEX
  8
0
 10
1605.8431
 20
1159.7110
 30
0.0000
  0
VERTEX
  8
0
 10
1606.4581
 20
1159.1125
 30
0.0000
  0
VERTEX
  8
0
 10
1607.1850
 20
1158.5802
 30
0.0000
  0
VERTEX
  8
0
 10
1608.0095
 20
1158.1247
 30
0.0000
  0
VERTEX
  8
0
 10
1608.9157
 20
1157.7548
 30
0.0000
  0
VERTEX
  8
0
 10
1609.8858
 20
1157.4776
 30
0.0000
  0
VERTEX
  8
0
 10
1611.0302
 20
1157.2833
 30
0.0000
  0
VERTEX
  8
0
 10
1612.2035
 20
1157.2181
 30
0.0000
  0
VERTEX
  8
0
 10
1613.3767
 20
1157.2833
 30
0.0000
  0
VERTEX
  8
0
 10
1614.5211
 20
1157.4776
 30
0.0000
  0
VERTEX
  8
0
 10
1615.4912
 20
1157.7548
 30
0.0000
  0
VERTEX
  8
0
 10
1616.3974
 20
1158.1247
 30
0.0000
  0
VERTEX
  8
0
 10
1617.2219
 20
1158.5802
 30
0.0000
  0
VERTEX
  8
0
 10
1617.5068
 20
1158.7714
 30
0.0000
  0
SEQEND
  0
POLYLINE
  6
continous
  8
BYBLOCK
 70
0
 66
1
  0
VERTEX
  8
0
 10
1606.9002
 20
1166.2714
 30
0.0000
  0
VERTEX
  8
0
 10
1606.2137
 20
1165.7130
 30
0.0000
  0
VERTEX
  8
0
 10
1605.6438
 20
1165.0924
 30
0.0000
  0
VERTEX
  8
0
 10
1605.2016
 20
1164.4219
 30
0.0000
  0
VERTEX
  8
0
 10
1604.8957
 20
1163.7143
 30
0.0000
  0
VERTEX
  8
0
 10
1604.7320
 20
1162.9836
 30
0.0000
  0
VERTEX
  8
0
 10
1604.7035
 20
1162.5214
 30
0.0000
  0
SEQEND
  0
POLYLINE
  6
continous
  8
BYBLOCK
 70
0
 66
1
  0
VERTEX
  8
0
 10
1619.7035
 20
1162.5214
 30
0.0000
  0
VERTEX
  8
0
 10
1619.6305
 20
1163.2594
 30
0.0000
  0
VERTEX
  8
0
 10
1619.4129
 20
1163.9831
 30
0.0000
  0
VERTEX
  8
0
 10
1619.0551
 20
1164.6784
 30
0.0000
  0
VERTEX
  8
0
 10
1618.5638
 20
1165.3317
 30
0.0000
  0
VERTEX
  8
0
 10
1617.9488
 20
1165.9302
 30
0.0000
  0
VERTEX
  8
0
 10
1617.2219
 20
1166.4625
 30
0.0000
  0
VERTEX
  8
0
 10
1616.3974
 20
1166.9180
 30
0.0000
  0
VERTEX
  8
0
 10
1615.4912
 20
1167.2879
 30
0.0000
  0
VERTEX
  8
0
 10
1614.5211
 20
1167.5651
 30
0.0000
  0
VERTEX
  8
0
 10
1613.3767
 20
1167.7594
 30
0.0000
  0
VERTEX
  8
0
 10
1612.2035
 20
1167.8247
 30
0.0000
  0
VERTEX
  8
0
 10
1611.0302
 20
1167.7594
 30
0.0000
  0
VERTEX
  8
0
 10
1609.8858
 20
1167.5651
 30
0.0000
  0
VERTEX
  8
0
 10
1608.9157
 20
1167.2879
 30
0.0000
  0
VERTEX
  8
0
 10
1608.0095
 20
1166.9180
 30
0.0000
  0
VERTEX
  8
0
 10
1607.1850
 20
1166.4625
 30
0.0000
  0
VERTEX
  8
0
 10
1606.9002
 20
1166.2714
 30
0.0000
  0
SEQEND
  0
POLYLINE
  6
continous
  8
BYBLOCK
 70
0
 66
1
  0
VERTEX
  8
0
 10
1617.5068
 20
1158.7714
 30
0.0000
  0
VERTEX
  8
0
 10
1618.1932
 20
1159.3297
 30
0.0000
  0
VERTEX
  8
0
 10
1618.7631
 20
1159.9503
 30
0.0000
  0
VERTEX
  8
0
 10
1619.2053
 20
1160.6208
 30
0.0000
  0
VERTEX
  8
0
 10
1619.5112
 20
1161.3284
 30
0.0000
  0
VERTEX
  8
0
 10
1619.6749
 20
1162.0591
 30
0.0000
  0
VERTEX
  8
0
 10
1619.7035
 20
1162.5214
 30
0.0000
  0
SEQEND
  0
POLYLINE
  6
continous
  8
BYBLOCK
 70
0
 66
1
  0
VERTEX
  8
0
 10
1548.1349
 20
1122.5214
 30
0.0000
  0
VERTEX
  8
0
 10
1548.2079
 20
1121.7833
 30
0.0000
  0
VERTEX
  8
0
 10
1548.4255
 20
1121.0596
 30
0.0000
  0
VERTEX
  8
0
 10
1548.7833
 20
1120.3643
 30
0.0000
  0
VERTEX
  8
0
 10
1549.2746
 20
1119.7110
 30
0.0000
  0
VERTEX
  8
0
 10
1549.8896
 20
1119.1125
 30
0.0000
  0
VERTEX
  8
0
 10
1550.6164
 20
1118.5802
 30
0.0000
  0
VERTEX
  8
0
 10
1551.4410
 20
1118.1247
 30
0.0000
  0
VERTEX
  8
0
 10
1552.3471
 20
1117.7548
 30
0.0000
  0
VERTEX
  8
0
 10
1553.3173
 20
1117.4776
 30
0.0000
  0
VERTEX
  8
0
 10
1554.4617
 20
1117.2833
 30
0.0000
  0
VERTEX
  8
0
 10
1555.6349
 20
1117.2181
 30
0.0000
  0
VERTEX
  8
0
 10
1556.8082
 20
1117.2833
 30
0.0000
  0
VERTEX
  8
0
 10
1557.9525
 20
1117.4776
 30
0.0000
  0
VERTEX
  8
0
 10
1558.9227
 20
1117.7548
 30
0.0000
  0
VERTEX
  8
0
 10
1559.8289
 20
1118.1247
 30
0.0000
  0
VERTEX
  8
0
 10
1560.6534
 20
1118.5802
 30
0.0000
  0
VERTEX
  8
0
 10
1560.9382
 20
1118.7714
 30
0.0000
  0
SEQEND
  0
POLYLINE
  6
continous
  8
BYBLOCK
 70
0
 66
1
  0
VERTEX
  8
0
 10
1550.3316
 20
1126.2714
 30
0.0000
  0
VERTEX
  8
0
 10
1549.6452
 20
1125.7130
 30
0.0000
  0
VERTEX
  8
0
 10
1549.0753
 20
1125.0924
 30
0.0000
  0
VERTEX
  8
0
 10
1548.6331
 20
1124.4219
 30
0.0000
  0
VERTEX
  8
0
 10
1548.3271
 20
1123.7143
 30
0.0000
  0
VERTEX
  8
0
 10
1548.1635
 20
1122.9836
 30
0.0000
  0
VERTEX
  8
0
 10
1548.1349
 20
1122.5214
 30
0.0000
  0
SEQEND
  0
POLYLINE
  6
continous
  8
BYBLOCK
 70
0
 66
1
  0
VERTEX
  8
0
 10
1563.1349
 20
1122.5214
 30
0.0000
  0
VERTEX
  8
0
 10
1563.0619
 20
1123.2594
 30
0.0000
  0
VERTEX
  8
0
 10
1562.8444
 20
1123.9831
 30
0.0000
  0
VERTEX
  8
0
 10
1562.4865
 20
1124.6784
 30
0.0000
  0
VERTEX
  8
0
 10
1561.9953
 20
1125.3317
 30
0.0000
  0
VERTEX
  8
0
 10
1561.3803
 20
1125.9302
 30
0.0000
  0
VERTEX
  8
0
 10
1560.6534
 20
1126.4625
 30
0.0000
  0
VERTEX
  8
0
 10
1559.8289
 20
1126.9180
 30
0.0000
  0
VERTEX
  8
0
 10
1558.9227
 20
1127.2879
 30
0.0000
  0
VERTEX
  8
0
 10
1557.9525
 20
1127.5651
 30
0.0000
  0
VERTEX
  8
0
 10
1556.8082
 20
1127.7594
 30
0.0000
  0
VERTEX
  8
0
 10
1555.6349
 20
1127.8247
 30
0.0000
  0
VERTEX
  8
0
 10
1554.4617
 20
1127.7594
 30
0.0000
  0
VERTEX
  8
0
 10
1553.3173
 20
1127.5651
 30
0.0000
  0
VERTEX
  8
0
 10
1552.3471
 20
1127.2879
 30
0.0000
  0
VERTEX
  8
0
 10
1551.4410
 20
1126.9180
 30
0.0000
  0
VERTEX
  8
0
 10
1550.6164
 20
1126.4625
 30
0.0000
  0
VERTEX
  8
0
 10
1550.3316
 20
1126.2714
 30
0.0000
  0
SEQEND
  0
POLYLINE
  6
continous
  8
BYBLOCK
 70
0
 66
1
  0
VERTEX
  8
0
 10
1560.9382
 20
1118.7714
 30
0.0000
  0
VERTEX
  8
0
 10
1561.6247
 20
1119.3297
 30
0.0000
  0
VERTEX
  8
0
 10
1562.1946
 20
1119.9503
 30
0.0000
  0
VERTEX
  8
0
 10
1562.6368
 20
1120.6208
 30
0.0000
  0
VERTEX
  8
0
 10
1562.9427
 20
1121.3284
 30
0.0000
  0
VERTEX
  8
0
 10
1563.1064
 20
1122.0591
 30
0.0000
  0
VERTEX
  8
0
 10
1563.1349
 20
1122.5214
 30
0.0000
  0
SEQEND
  0
POLYLINE
  6
continous
  8
BYBLOCK
 70
0
 66
1
  0
VERTEX
  8
0
 10
1491.5664
 20
1082.5214
 30
0.0000
  0
VERTEX
  8
0
 10
1491.6394
 20
1081.7833
 30
0.0000
  0
VERTEX
  8
0
 10
1491.8569
 20
1081.0596
 30
0.0000
  0
VERTEX
  8
0
 10
1492.2148
 20
1080.3643
 30
0.0000
  0
VERTEX
  8
0
 10
1492.7060
 20
1079.7110
 30
0.0000
  0
VERTEX
  8
0
 10
1493.3210
 20
1079.1125
 30
0.0000
  0
VERTEX
  8
0
 10
1494.0479
 20
1078.5802
 30
0.0000
  0
VERTEX
  8
0
 10
1494.8724
 20
1078.1247
 30
0.0000
  0
VERTEX
  8
0
 10
1495.7786
 20
1077.7548
 30
0.0000
  0
VERTEX
  8
0
 10
1496.7487
 20
1077.4776
 30
0.0000
  0
VERTEX
  8
0
 10
1497.8931
 20
1077.2833
 30
0.0000
  0
VERTEX
  8
0
 10
1499.0664
 20
1077.2181
 30
0.0000
  0
VERTEX
  8
0
 10
1500.2396
 20
1077.2833
 30
0.0000
  0
VERTEX
  8
0
 10
1501.3840
 20
1077.4776
 30
0.0000
  0
VERTEX
  8
0
 10
1502.3542
 20
1077.7548
 30
0.0000
  0
VERTEX
  8
0
 10
1503.2603
 20
1078.1247
 30
0.0000
  0
VERTEX
  8
0
 10
1504.0849
 20
1078.5802
 30
0.0000
  0
VERTEX
  8
0
 10
1504.3697
 20
1078.7714
 30
0.0000
  0
SEQEND
  0
POLYLINE
  6
continous
  8
BYBLOCK
 70
0
 66
1
  0
VERTEX
  8
0
 10
1493.7631
 20
1086.2714
 30
0.0000
  0
VERTEX
  8
0
 10
1493.0766
 20
1085.7130
 30
0.0000
  0
VERTEX
  8
0
 10
1492.5067
 20
1085.0924
 30
0.0000
  0
VERTEX
  8
0
 10
1492.0645
 20
1084.4219
 30
0.0000
  0
VERTEX
  8
0
 10
1491.7586
 20
1083.7143
 30
0.0000
  0
VERTEX
  8
0
 10
1491.5949
 20
1082.9836
 30
0.0000
  0
VERTEX
  8
0
 10
1491.5664
 20
1082.5214
 30
0.0000
  0
SEQEND
  0
POLYLINE
  6
continous
  8
BYBLOCK
 70
0
 66
1
  0
VERTEX
  8
0
 10
1506.5664
 20
1082.5214
 30
0.0000
  0
VERTEX
  8
0
 10
1506.4934
 20
1083.2594
 30
0.0000
  0
VERTEX
  8
0
 10
1506.2758
 20
1083.9831
 30
0.0000
  0
VERTEX
  8
0
 10
1505.9180
 20
1084.6784
 30
0.0000
  0
VERTEX
  8
0
 10
1505.4267
 20
1085.3317
 30
0.0000
  0
VERTEX
  8
0
 10
1504.8117
 20
1085.9302
 30
0.0000
  0
VERTEX
  8
0
 10
1504.0849
 20
1086.4625
 30
0.0000
  0
VERTEX
  8
0
 10
1503.2603
 20
1086.9180
 30
0.0000
  0
VERTEX
  8
0
 10
1502.3542
 20
1087.2879
 30
0.0000
  0
VERTEX
  8
0
 10
1501.3840
 20
1087.5651
 30
0.0000
  0
VERTEX
  8
0
 10
1500.2396
 20
1087.7594
 30
0.0000
  0
VERTEX
  8
0
 10
1499.0664
 20
1087.8247
 30
0.0000
  0
VERTEX
  8
0
 10
1497.8931
 20
1087.7594
 30
0.0000
  0
VERTEX
  8
0
 10
1496.7487
 20
1087.5651
 30
0.0000
  0
VERTEX
  8
0
 10
1495.7786
 20
1087.2879
 30
0.0000
  0
VERTEX
  8
0
 10
1494.8724
 20
1086.9180
 30
0.0000
  0
VERTEX
  8
0
 10
1494.0479
 20
1086.4625
 30
0.0000
  0
VERTEX
  8
0
 10
1493.7631
 20
1086.2714
 30
0.0000
  0
SEQEND
  0
POLYLINE
  6
continous
  8
BYBLOCK
 70
0
 66
1
  0
VERTEX
  8
0
 10
1504.3697
 20
1078.7714
 30
0.0000
  0
VERTEX
  8
0
 10
1505.0561
 20
1079.3297
 30
0.0000
  0
VERTEX
  8
0
 10
1505.6260
 20
1079.9503
 30
0.0000
  0
VERTEX
  8
0
 10
1506.0682
 20
1080.6208
 30
0.0000
  0
VERTEX
  8
0
 10
1506.3742
 20
1081.3284
 30
0.0000
  0
VERTEX
  8
0
 10
1506.5378
 20
1082.0591
 30
0.0000
  0
VERTEX
  8
0
 10
1506.5664
 20
1082.5214
 30
0.0000
  0
SEQEND
  0
POLYLINE
  6
continous
  8
BYBLOCK
 70
0
 66
1
  0
VERTEX
  8
0
 10
1434.9978
 20
1042.5214
 30
0.0000
  0
VERTEX
  8
0
 10
1435.0708
 20
1041.7833
 30
0.0000
  0
VERTEX
  8
0
 10
1435.2884
 20
1041.0596
 30
0.0000
  0
VERTEX
  8
0
 10
1435.6462
 20
1040.3643
 30
0.0000
  0
VERTEX
  8
0
 10
1436.1375
 20
1039.7110
 30
0.0000
  0
VERTEX
  8
0
 10
1436.7525
 20
1039.1125
 30
0.0000
  0
VERTEX
  8
0
 10
1437.4794
 20
1038.5802
 30
0.0000
  0
VERTEX
  8
0
 10
1438.3039
 20
1038.1247
 30
0.0000
  0
VERTEX
  8
0
 10
1439.2101
 20
1037.7548
 30
0.0000
  0
VERTEX
  8
0
 10
1440.1802
 20
1037.4776
 30
0.0000
  0
VERTEX
  8
0
 10
1441.3246
 20
1037.2833
 30
0.0000
  0
VERTEX
  8
0
 10
1442.4978
 20
1037.2181
 30
0.0000
  0
VERTEX
  8
0
 10
1443.6711
 20
1037.2833
 30
0.0000
  0
VERTEX
  8
0
 10
1444.8155
 20
1037.4776
 30
0.0000
  0
VERTEX
  8
0
 10
1445.7856
 20
1037.7548
 30
0.0000
  0
VERTEX
  8
0
 10
1446.6918
 20
1038.1247
 30
0.0000
  0
VERTEX
  8
0
 10
1447.5163
 20
1038.5802
 30
0.0000
  0
VERTEX
  8
0
 10
1447.8011
 20
1038.7714
 30
0.0000
  0
SEQEND
  0
POLYLINE
  6
continous
  8
BYBLOCK
 70
0
 66
1
  0
VERTEX
  8
0
 10
1437.1945
 20
1046.2714
 30
0.0000
  0
VERTEX
  8
0
 10
1436.5081
 20
1045.7130
 30
0.0000
  0
VERTEX
  8
0
 10
1435.9382
 20
1045.0924
 30
0.0000
  0
VERTEX
  8
0
 10
1435.4960
 20
1044.4219
 30
0.0000
  0
VERTEX
  8
0
 10
1435.1901
 20
1043.7143
 30
0.0000
  0
VERTEX
  8
0
 10
1435.0264
 20
1042.9836
 30
0.0000
  0
VERTEX
  8
0
 10
1434.9978
 20
1042.5214
 30
0.0000
  0
SEQEND
  0
POLYLINE
  6
continous
  8
BYBLOCK
 70
0
 66
1
  0
VERTEX
  8
0
 10
1449.9978
 20
1042.5214
 30
0.0000
  0
VERTEX
  8
0
 10
1449.9248
 20
1043.2594
 30
0.0000
  0
VERTEX
  8
0
 10
1449.7073
 20
1043.9831
 30
0.0000
  0
VERTEX
  8
0
 10
1449.3494
 20
1044.6784
 30
0.0000
  0
VERTEX
  8
0
 10
1448.8582
 20
1045.3317
 30
0.0000
  0
VERTEX
  8
0
 10
1448.2432
 20
1045.9302
 30
0.0000
  0
VERTEX
  8
0
 10
1447.5163
 20
1046.4625
 30
0.0000
  0
VERTEX
  8
0
 10
1446.6918
 20
1046.9180
 30
0.0000
  0
VERTEX
  8
0
 10
1445.7856
 20
1047.2879
 30
0.0000
  0
VERTEX
  8
0
 10
1444.8155
 20
1047.5651
 30
0.0000
  0
VERTEX
  8
0
 10
1443.6711
 20
1047.7594
 30
0.0000
  0
VERTEX
  8
0
 10
1442.4978
 20
1047.8247
 30
0.0000
  0
VERTEX
  8
0
 10
1441.3246
 20
1047.7594
 30
0.0000
  0
VERTEX
  8
0
 10
1440.1802
 20
1047.5651
 30
0.0000
  0
VERTEX
  8
0
 10
1439.2101
 20
1047.2879
 30
0.0000
  0
VERTEX
  8
0
 10
1438.3039
 20
1046.9180
 30
0.0000
  0
VERTEX
  8
0
 10
1437.4794
 20
1046.4625
 30
0.0000
  0
VERTEX
  8
0
 10
1437.1945
 20
1046.2714
 30
0.0000
  0
SEQEND
  0
POLYLINE
  6
continous
  8
BYBLOCK
 70
0
 66
1
  0
VERTEX
  8
0
 10
1447.8011
 20
1038.7714
 30
0.0000
  0
VERTEX
  8
0
 10
1448.4876
 20
1039.3297
 30
0.0000
  0
VERTEX
  8
0
 10
1449.0575
 20
1039.9503
 30
0.0000
  0
VERTEX
  8
0
 10
1449.4997
 20
1040.6208
 30
0.0000
  0
VERTEX
  8
0
 10
1449.8056
 20
1041.3284
 30
0.0000
  0
VERTEX
  8
0
 10
1449.9693
 20
1042.0591
 30
0.0000
  0
VERTEX
  8
0
 10
1449.9978
 20
1042.5214
 30
0.0000
  0
SEQEND
  0
POLYLINE
  6
continous
  8
BYBLOCK
 70
0
 66
1
  0
VERTEX
  8
0
 10
1378.4293
 20
1002.5214
 30
0.0000
  0
VERTEX
  8
0
 10
1378.5023
 20
1001.7833
 30
0.0000
  0
VERTEX
  8
0
 10
1378.7198
 20
1001.0596
 30
0.0000
  0
VERTEX
  8
0
 10
1379.0777
 20
1000.3643
 30
0.0000
  0
VERTEX
  8
0
 10
1379.5689
 20
999.7110
 30
0.0000
  0
VERTEX
  8
0
 10
1380.1840
 20
999.1125
 30
0.0000
  0
VERTEX
  8
0
 10
1380.9108
 20
998.5802
 30
0.0000
  0
VERTEX
  8
0
 10
1381.7353
 20
998.1247
 30
0.0000
  0
VERTEX
  8
0
 10
1382.6415
 20
997.7548
 30
0.0000
  0
VERTEX
  8
0
 10
1383.6117
 20
997.4776
 30
0.0000
  0
VERTEX
  8
0
 10
1384.7560
 20
997.2833
 30
0.0000
  0
VERTEX
  8
0
 10
1385.9293
 20
997.2181
 30
0.0000
  0
VERTEX
  8
0
 10
1387.1025
 20
997.2833
 30
0.0000
  0
VERTEX
  8
0
 10
1388.2469
 20
997.4776
 30
0.0000
  0
VERTEX
  8
0
 10
1389.2171
 20
997.7548
 30
0.0000
  0
VERTEX
  8
0
 10
1390.1232
 20
998.1247
 30
0.0000
  0
VERTEX
  8
0
 10
1390.9478
 20
998.5802
 30
0.0000
  0
VERTEX
  8
0
 10
1391.2326
 20
998.7714
 30
0.0000
  0
SEQEND
  0
POLYLINE
  6
continous
  8
BYBLOCK
 70
0
 66
1
  0
VERTEX
  8
0
 10
1380.6260
 20
1006.2714
 30
0.0000
  0
VERTEX
  8
0
 10
1379.9395
 20
1005.7130
 30
0.0000
  0
VERTEX
  8
0
 10
1379.3696
 20
1005.0924
 30
0.0000
  0
VERTEX
  8
0
 10
1378.9274
 20
1004.4219
 30
0.0000
  0
VERTEX
  8
0
 10
1378.6215
 20
1003.7143
 30
0.0000
  0
VERTEX
  8
0
 10
1378.4578
 20
1002.9836
 30
0.0000
  0
VERTEX
  8
0
 10
1378.4293
 20
1002.5214
 30
0.0000
  0
SEQEND
  0
POLYLINE
  6
continous
  8
BYBLOCK
 70
0
 66
1
  0
VERTEX
  8
0
 10
1393.4293
 20
1002.5214
 30
0.0000
  0
VERTEX
  8
0
 10
1393.3563
 20
1003.2594
 30
0.0000
  0
VERTEX
  8
0
 10
1393.1388
 20
1003.9831
 30
0.0000
  0
VERTEX
  8
0
 10
1392.7809
 20
1004.6784
 30
0.0000
  0
VERTEX
  8
0
 10
1392.2897
 20
1005.3317
 30
0.0000
  0
VERTEX
  8
0
 10
1391.6746
 20
1005.9302
 30
0.0000
  0
VERTEX
  8
0
 10
1390.9478
 20
1006.4625
 30
0.0000
  0
VERTEX
  8
0
 10
1390.1232
 20
1006.9180
 30
0.0000
  0
VERTEX
  8
0
 10
1389.2171
 20
1007.2879
 30
0.0000
  0
VERTEX
  8
0
 10
1388.2469
 20
1007.5651
 30
0.0000
  0
VERTEX
  8
0
 10
1387.1025
 20
1007.7594
 30
0.0000
  0
VERTEX
  8
0
 10
1385.9293
 20
1007.8247
 30
0.0000
  0
VERTEX
  8
0
 10
1384.7560
 20
1007.7594
 30
0.0000
  0
VERTEX
  8
0
 10
1383.6117
 20
1007.5651
 30
0.0000
  0
VERTEX
  8
0
 10
1382.6415
 20
1007.2879
 30
0.0000
  0
VERTEX
  8
0
 10
1381.7353
 20
1006.9180
 30
0.0000
  0
VERTEX
  8
0
 10
1380.9108
 20
1006.4625
 30
0.0000
  0
VERTEX
  8
0
 10
1380.6260
 20
1006.2714
 30
0.0000
  0
SEQEND
  0
POLYLINE
  6
continous
  8
BYBLOCK
 70
0
 66
1
  0
VERTEX
  8
0
 10
1391.2326
 20
998.7714
 30
0.0000
  0
VERTEX
  8
0
 10
1391.9191
 20
999.3297
 30
0.0000
  0
VERTEX
  8
0
 10
1392.4889
 20
999.9503
 30
0.0000
  0
VERTEX
  8
0
 10
1392.9311
 20
1000.6208
 30
0.0000
  0
VERTEX
  8
0
 10
1393.2371
 20
1001.3284
 30
0.0000
  0
VERTEX
  8
0
 10
1393.4008
 20
1002.0591
 30
0.0000
  0
VERTEX
  8
0
 10
1393.4293
 20
1002.5214
 30
0.0000
  0
SEQEND
  0
POLYLINE
  6
continous
  8
BYBLOCK
 70
0
 66
1
  0
VERTEX
  8
0
 10
1321.8607
 20
962.5214
 30
0.0000
  0
VERTEX
  8
0
 10
1321.9337
 20
961.7833
 30
0.0000
  0
VERTEX
  8
0
 10
1322.1513
 20
961.0596
 30
0.0000
  0
VERTEX
  8
0
 10
1322.5092
 20
960.3643
 30
0.0000
  0
VERTEX
  8
0
 10
1323.0004
 20
959.7110
 30
0.0000
  0
VERTEX
  8
0
 10
1323.6154
 20
959.1125
 30
0.0000
  0
VERTEX
  8
0
 10
1324.3423
 20
958.5802
 30
0.0000
  0
VERTEX
  8
0
 10
1325.1668
 20
958.1247
 30
0.0000
  0
VERTEX
  8
0
 10
1326.0730
 20
957.7548
 30
0.0000
  0
VERTEX
  8
0
 10
1327.0431
 20
957.4776
 30
0.0000
  0
VERTEX
  8
0
 10
1328.1875
 20
957.2833
 30
0.0000
  0
VERTEX
  8
0
 10
1329.3607
 20
957.2181
 30
0.0000
  0
VERTEX
  8
0
 10
1330.5340
 20
957.2833
 30
0.0000
  0
VERTEX
  8
0
 10
1331.6784
 20
957.4776
 30
0.0000
  0
VERTEX
  8
0
 10
1332.6485
 20
957.7548
 30
0.0000
  0
VERTEX
  8
0
 10
1333.5547
 20
958.1247
 30
0.0000
  0
VERTEX
  8
0
 10
1334.3792
 20
958.5802
 30
0.0000
  0
VERTEX
  8
0
 10
1334.6640
 20
958.7714
 30
0.0000
  0
SEQEND
  0
POLYLINE
  6
continous
  8
BYBLOCK
 70
0
 66
1
  0
VERTEX
  8
0
 10
1324.0574
 20
966.2714
 30
0.0000
  0
VERTEX
  8
0
 10
1323.3710
 20
965.7130
 30
0.0000
  0
VERTEX
  8
0
 10
1322.8011
 20
965.0924
 30
0.0000
  0
VERTEX
  8
0
 10
1322.3589
 20
964.4219
 30
0.0000
  0
VERTEX
  8
0
 10
1322.0530
 20
963.7143
 30
0.0000
  0
VERTEX
  8
0
 10
1321.8893
 20
962.9836
 30
0.0000
  0
VERTEX
  8
0
 10
1321.8607
 20
962.5214
 30
0.0000
  0
SEQEND
  0
POLYLINE
  6
continous
  8
BYBLOCK
 70
0
 66
1
  0
VERTEX
  8
0
 10
1336.8607
 20
962.5214
 30
0.0000
  0
VERTEX
  8
0
 10
1336.7878
 20
963.2594
 30
0.0000
  0
VERTEX
  8
0
 10
1336.5702
 20
963.9831
 30
0.0000
  0
VERTEX
  8
0
 10
1336.2123
 20
964.6784
 30
0.0000
  0
VERTEX
  8
0
 10
1335.7211
 20
965.3317
 30
0.0000
  0
VERTEX
  8
0
 10
1335.1061
 20
965.9302
 30
0.0000
  0
VERTEX
  8
0
 10
1334.3792
 20
966.4625
 30
0.0000
  0
VERTEX
  8
0
 10
1333.5547
 20
966.9180
 30
0.0000
  0
VERTEX
  8
0
 10
1332.6485
 20
967.2879
 30
0.0000
  0
VERTEX
  8
0
 10
1331.6784
 20
967.5651
 30
0.0000
  0
VERTEX
  8
0
 10
1330.5340
 20
967.7594
 30
0.0000
  0
VERTEX
  8
0
 10
1329.3607
 20
967.8247
 30
0.0000
  0
VERTEX
  8
0
 10
1328.1875
 20
967.7594
 30
0.0000
  0
VERTEX
  8
0
 10
1327.0431
 20
967.5651
 30
0.0000
  0
VERTEX
  8
0
 10
1326.0730
 20
967.2879
 30
0.0000
  0
VERTEX
  8
0
 10
1325.1668
 20
966.9180
 30
0.0000
  0
VERTEX
  8
0
 10
1324.3423
 20
966.4625
 30
0.0000
  0
VERTEX
  8
0
 10
1324.0574
 20
966.2714
 30
0.0000
  0
SEQEND
  0
POLYLINE
  6
continous
  8
BYBLOCK
 70
0
 66
1
  0
VERTEX
  8
0
 10
1334.6640
 20
958.7714
 30
0.0000
  0
VERTEX
  8
0
 10
1335.3505
 20
959.3297
 30
0.0000
  0
VERTEX
  8
0
 10
1335.9204
 20
959.9503
 30
0.0000
  0
VERTEX
  8
0
 10
1336.3626
 20
960.6208
 30
0.0000
  0
VERTEX
  8
0
 10
1336.6685
 20
961.3284
 30
0.0000
  0
VERTEX
  8
0
 10
1336.8322
 20
962.0591
 30
0.0000
  0
VERTEX
  8
0
 10
1336.8607
 20
962.5214
 30
0.0000
  0
SEQEND
  0
POLYLINE
  6
continous
  8
BYBLOCK
 70
0
 66
1
  0
VERTEX
  8
0
 10
1265.2922
 20
922.5214
 30
0.0000
  0
VERTEX
  8
0
 10
1265.3652
 20
921.7833
 30
0.0000
  0
VERTEX
  8
0
 10
1265.5827
 20
921.0596
 30
0.0000
  0
VERTEX
  8
0
 10
1265.9406
 20
920.3643
 30
0.0000
  0
VERTEX
  8
0
 10
1266.4318
 20
919.7110
 30
0.0000
  0
VERTEX
  8
0
 10
1267.0469
 20
919.1125
 30
0.0000
  0
VERTEX
  8
0
 10
1267.7737
 20
918.5802
 30
0.0000
  0
VERTEX
  8
0
 10
1268.5983
 20
918.1247
 30
0.0000
  0
VERTEX
  8
0
 10
1269.5044
 20
917.7548
 30
0.0000
  0
VERTEX
  8
0
 10
1270.4746
 20
917.4776
 30
0.0000
  0
VERTEX
  8
0
 10
1271.6189
 20
917.2833
 30
0.0000
  0
VERTEX
  8
0
 10
1272.7922
 20
917.2181
 30
0.0000
  0
VERTEX
  8
0
 10
1273.9655
 20
917.2833
 30
0.0000
  0
VERTEX
  8
0
 10
1275.1098
 20
917.4776
 30
0.0000
  0
VERTEX
  8
0
 10
1276.0800
 20
917.7548
 30
0.0000
  0
VERTEX
  8
0
 10
1276.9862
 20
918.1247
 30
0.0000
  0
VERTEX
  8
0
 10
1277.8107
 20
918.5802
 30
0.0000
  0
VERTEX
  8
0
 10
1278.0955
 20
918.7714
 30
0.0000
  0
SEQEND
  0
POLYLINE
  6
continous
  8
BYBLOCK
 70
0
 66
1
  0
VERTEX
  8
0
 10
1267.4889
 20
926.2714
 30
0.0000
  0
VERTEX
  8
0
 10
1266.8024
 20
925.7130
 30
0.0000
  0
VERTEX
  8
0
 10
1266.2326
 20
925.0924
 30
0.0000
  0
VERTEX
  8
0
 10
1265.7904
 20
924.4219
 30
0.0000
  0
VERTEX
  8
0
 10
1265.4844
 20
923.7143
 30
0.0000
  0
VERTEX
  8
0
 10
1265.3207
 20
922.9836
 30
0.0000
  0
VERTEX
  8
0
 10
1265.2922
 20
922.5214
 30
0.0000
  0
SEQEND
  0
POLYLINE
  6
continous
  8
BYBLOCK
 70
0
 66
1
  0
VERTEX
  8
0
 10
1280.2922
 20
922.5214
 30
0.0000
  0
VERTEX
  8
0
 10
1280.2192
 20
923.2594
 30
0.0000
  0
VERTEX
  8
0
 10
1280.0017
 20
923.9831
 30
0.0000
  0
VERTEX
  8
0
 10
1279.6438
 20
924.6784
 30
0.0000
  0
VERTEX
  8
0
 10
1279.1526
 20
925.3317
 30
0.0000
  0
VERTEX
  8
0
 10
1278.5375
 20
925.9302
 30
0.0000
  0
VERTEX
  8
0
 10
1277.8107
 20
926.4625
 30
0.0000
  0
VERTEX
  8
0
 10
1276.9862
 20
926.9180
 30
0.0000
  0
VERTEX
  8
0
 10
1276.0800
 20
927.2879
 30
0.0000
  0
VERTEX
  8
0
 10
1275.1098
 20
927.5651
 30
0.0000
  0
VERTEX
  8
0
 10
1273.9655
 20
927.7594
 30
0.0000
  0
VERTEX
  8
0
 10
1272.7922
 20
927.8247
 30
0.0000
  0
VERTEX
  8
0
 10
1271.6189
 20
927.7594
 30
0.0000
  0
VERTEX
  8
0
 10
1270.4746
 20
927.5651
 30
0.0000
  0
VERTEX
  8
0
 10
1269.5044
 20
927.2879
 30
0.0000
  0
VERTEX
  8
0
 10
1268.5983
 20
926.9180
 30
0.0000
  0
VERTEX
  8
0
 10
1267.7737
 20
926.4625
 30
0.0000
  0
VERTEX
  8
0
 10
1267.4889
 20
926.2714
 30
0.0000
  0
SEQEND
  0
POLYLINE
  6
continous
  8
BYBLOCK
 70
0
 66
1
  0
VERTEX
  8
0
 10
1278.0955
 20
918.7714
 30
0.0000
  0
VERTEX
  8
0
 10
1278.7820
 20
919.3297
 30
0.0000
  0
VERTEX
  8
0
 10
1279.3519
 20
919.9503
 30
0.0000
  0
VERTEX
  8
0
 10
1279.7941
 20
920.6208
 30
0.0000
  0
VERTEX
  8
0
 10
1280.1000
 20
921.3284
 30
0.0000
  0
VERTEX
  8
0
 10
1280.2637
 20
922.0591
 30
0.0000
  0
VERTEX
  8
0
 10
1280.2922
 20
922.5214
 30
0.0000
  0
SEQEND
  0
POLYLINE
  6
continous
  8
BYBLOCK
 70
0
 66
1
  0
VERTEX
  8
0
 10
1208.7237
 20
882.5214
 30
0.0000
  0
VERTEX
  8
0
 10
1208.7967
 20
881.7833
 30
0.0000
  0
VERTEX
  8
0
 10
1209.0142
 20
881.0596
 30
0.0000
  0
VERTEX
  8
0
 10
1209.3721
 20
880.3643
 30
0.0000
  0
VERTEX
  8
0
 10
1209.8633
 20
879.7110
 30
0.0000
  0
VERTEX
  8
0
 10
1210.4783
 20
879.1125
 30
0.0000
  0
VERTEX
  8
0
 10
1211.2052
 20
878.5802
 30
0.0000
  0
VERTEX
  8
0
 10
1212.0297
 20
878.1247
 30
0.0000
  0
VERTEX
  8
0
 10
1212.9359
 20
877.7548
 30
0.0000
  0
VERTEX
  8
0
 10
1213.9060
 20
877.4776
 30
0.0000
  0
VERTEX
  8
0
 10
1215.0504
 20
877.2833
 30
0.0000
  0
VERTEX
  8
0
 10
1216.2237
 20
877.2181
 30
0.0000
  0
VERTEX
  8
0
 10
1217.3969
 20
877.2833
 30
0.0000
  0
VERTEX
  8
0
 10
1218.5413
 20
877.4776
 30
0.0000
  0
VERTEX
  8
0
 10
1219.5114
 20
877.7548
 30
0.0000
  0
VERTEX
  8
0
 10
1220.4176
 20
878.1247
 30
0.0000
  0
VERTEX
  8
0
 10
1221.2421
 20
878.5802
 30
0.0000
  0
VERTEX
  8
0
 10
1221.5270
 20
878.7714
 30
0.0000
  0
SEQEND
  0
POLYLINE
  6
continous
  8
BYBLOCK
 70
0
 66
1
  0
VERTEX
  8
0
 10
1210.9204
 20
886.2714
 30
0.0000
  0
VERTEX
  8
0
 10
1210.2339
 20
885.7130
 30
0.0000
  0
VERTEX
  8
0
 10
1209.6640
 20
885.0924
 30
0.0000
  0
VERTEX
  8
0
 10
1209.2218
 20
884.4219
 30
0.0000
  0
VERTEX
  8
0
 10
1208.9159
 20
883.7143
 30
0.0000
  0
VERTEX
  8
0
 10
1208.7522
 20
882.9836
 30
0.0000
  0
VERTEX
  8
0
 10
1208.7237
 20
882.5214
 30
0.0000
  0
SEQEND
  0
POLYLINE
  6
continous
  8
BYBLOCK
 70
0
 66
1
  0
VERTEX
  8
0
 10
1223.7237
 20
882.5214
 30
0.0000
  0
VERTEX
  8
0
 10
1223.6507
 20
883.2594
 30
0.0000
  0
VERTEX
  8
0
 10
1223.4331
 20
883.9831
 30
0.0000
  0
VERTEX
  8
0
 10
1223.0753
 20
884.6784
 30
0.0000
  0
VERTEX
  8
0
 10
1222.5840
 20
885.3317
 30
0.0000
  0
VERTEX
  8
0
 10
1221.9690
 20
885.9302
 30
0.0000
  0
VERTEX
  8
0
 10
1221.2421
 20
886.4625
 30
0.0000
  0
VERTEX
  8
0
 10
1220.4176
 20
886.9180
 30
0.0000
  0
VERTEX
  8
0
 10
1219.5114
 20
887.2879
 30
0.0000
  0
VERTEX
  8
0
 10
1218.5413
 20
887.5651
 30
0.0000
  0
VERTEX
  8
0
 10
1217.3969
 20
887.7594
 30
0.0000
  0
VERTEX
  8
0
 10
1216.2237
 20
887.8247
 30
0.0000
  0
VERTEX
  8
0
 10
1215.0504
 20
887.7594
 30
0.0000
  0
VERTEX
  8
0
 10
1213.9060
 20
887.5651
 30
0.0000
  0
VERTEX
  8
0
 10
1212.9359
 20
887.2879
 30
0.0000
  0
VERTEX
  8
0
 10
1212.0297
 20
886.9180
 30
0.0000
  0
VERTEX
  8
0
 10
1211.2052
 20
886.4625
 30
0.0000
  0
VERTEX
  8
0
 10
1210.9204
 20
886.2714
 30
0.0000
  0
SEQEND
  0
POLYLINE
  6
continous
  8
BYBLOCK
 70
0
 66
1
  0
VERTEX
  8
0
 10
1221.5270
 20
878.7714
 30
0.0000
  0
VERTEX
  8
0
 10
1222.2134
 20
879.3297
 30
0.0000
  0
VERTEX
  8
0
 10
1222.7833
 20
879.9503
 30
0.0000
  0
VERTEX
  8
0
 10
1223.2255
 20
880.6208
 30
0.0000
  0
VERTEX
  8
0
 10
1223.5314
 20
881.3284
 30
0.0000
  0
VERTEX
  8
0
 10
1223.6951
 20
882.0591
 30
0.0000
  0
VERTEX
  8
0
 10
1223.7237
 20
882.5214
 30
0.0000
  0
SEQEND
  0
POLYLINE
  6
continous
  8
BYBLOCK
 70
0
 66
1
  0
VERTEX
  8
0
 10
1152.1551
 20
842.5214
 30
0.0000
  0
VERTEX
  8
0
 10
1152.2281
 20
841.7833
 30
0.0000
  0
VERTEX
  8
0
 10
1152.4457
 20
841.0596
 30
0.0000
  0
VERTEX
  8
0
 10
1152.8035
 20
840.3643
 30
0.0000
  0
VERTEX
  8
0
 10
1153.2948
 20
839.7110
 30
0.0000
  0
VERTEX
  8
0
 10
1153.9098
 20
839.1125
 30
0.0000
  0
VERTEX
  8
0
 10
1154.6366
 20
838.5802
 30
0.0000
  0
VERTEX
  8
0
 10
1155.4612
 20
838.1247
 30
0.0000
  0
VERTEX
  8
0
 10
1156.3673
 20
837.7548
 30
0.0000
  0
VERTEX
  8
0
 10
1157.3375
 20
837.4776
 30
0.0000
  0
VERTEX
  8
0
 10
1158.4819
 20
837.2833
 30
0.0000
  0
VERTEX
  8
0
 10
1159.6551
 20
837.2181
 30
0.0000
  0
VERTEX
  8
0
 10
1160.8284
 20
837.2833
 30
0.0000
  0
VERTEX
  8
0
 10
1161.9727
 20
837.4776
 30
0.0000
  0
VERTEX
  8
0
 10
1162.9429
 20
837.7548
 30
0.0000
  0
VERTEX
  8
0
 10
1163.8491
 20
838.1247
 30
0.0000
  0
VERTEX
  8
0
 10
1164.6736
 20
838.5802
 30
0.0000
  0
VERTEX
  8
0
 10
1164.9584
 20
838.7714
 30
0.0000
  0
SEQEND
  0
POLYLINE
  6
continous
  8
BYBLOCK
 70
0
 66
1
  0
VERTEX
  8
0
 10
1154.3518
 20
846.2714
 30
0.0000
  0
VERTEX
  8
0
 10
1153.6654
 20
845.7130
 30
0.0000
  0
VERTEX
  8
0
 10
1153.0955
 20
845.0924
 30
0.0000
  0
VERTEX
  8
0
 10
1152.6533
 20
844.4219
 30
0.0000
  0
VERTEX
  8
0
 10
1152.3473
 20
843.7143
 30
0.0000
  0
VERTEX
  8
0
 10
1152.1837
 20
842.9836
 30
0.0000
  0
VERTEX
  8
0
 10
1152.1551
 20
842.5214
 30
0.0000
  0
SEQEND
  0
POLYLINE
  6
continous
  8
BYBLOCK
 70
0
 66
1
  0
VERTEX
  8
0
 10
1167.1551
 20
842.5214
 30
0.0000
  0
VERTEX
  8
0
 10
1167.0821
 20
843.2594
 30
0.0000
  0
VERTEX
  8
0
 10
1166.8646
 20
843.9831
 30
0.0000
  0
VERTEX
  8
0
 10
1166.5067
 20
844.6784
 30
0.0000
  0
VERTEX
  8
0
 10
1166.0155
 20
845.3317
 30
0.0000
  0
VERTEX
  8
0
 10
1165.4005
 20
845.9302
 30
0.0000
  0
VERTEX
  8
0
 10
1164.6736
 20
846.4625
 30
0.0000
  0
VERTEX
  8
0
 10
1163.8491
 20
846.9180
 30
0.0000
  0
VERTEX
  8
0
 10
1162.9429
 20
847.2879
 30
0.0000
  0
VERTEX
  8
0
 10
1161.9727
 20
847.5651
 30
0.0000
  0
VERTEX
  8
0
 10
1160.8284
 20
847.7594
 30
0.0000
  0
VERTEX
  8
0
 10
1159.6551
 20
847.8247
 30
0.0000
  0
VERTEX
  8
0
 10
1158.4819
 20
847.7594
 30
0.0000
  0
VERTEX
  8
0
 10
1157.3375
 20
847.5651
 30
0.0000
  0
VERTEX
  8
0
 10
1156.3673
 20
847.2879
 30
0.0000
  0
VERTEX
  8
0
 10
1155.4612
 20
846.9180
 30
0.0000
  0
VERTEX
  8
0
 10
1154.6366
 20
846.4625
 30
0.0000
  0
VERTEX
  8
0
 10
1154.3518
 20
846.2714
 30
0.0000
  0
SEQEND
  0
POLYLINE
  6
continous
  8
BYBLOCK
 70
0
 66
1
  0
VERTEX
  8
0
 10
1164.9584
 20
838.7714
 30
0.0000
  0
VERTEX
  8
0
 10
1165.6449
 20
839.3297
 30
0.0000
  0
VERTEX
  8
0
 10
1166.2148
 20
839.9503
 30
0.0000
  0
VERTEX
  8
0
 10
1166.6570
 20
840.6208
 30
0.0000
  0
VERTEX
  8
0
 10
1166.9629
 20
841.3284
 30
0.0000
  0
VERTEX
  8
0
 10
1167.1266
 20
842.0591
 30
0.0000
  0
VERTEX
  8
0
 10
1167.1551
 20
842.5214
 30
0.0000
  0
SEQEND
  0
POLYLINE
  6
continous
  8
BYBLOCK
 70
0
 66
1
  0
VERTEX
  8
0
 10
1095.5866
 20
802.5214
 30
0.0000
  0
VERTEX
  8
0
 10
1095.6596
 20
801.7833
 30
0.0000
  0
VERTEX
  8
0
 10
1095.8771
 20
801.0596
 30
0.0000
  0
VERTEX
  8
0
 10
1096.2350
 20
800.3643
 30
0.0000
  0
VERTEX
  8
0
 10
1096.7262
 20
799.7110
 30
0.0000
  0
VERTEX
  8
0
 10
1097.3412
 20
799.1125
 30
0.0000
  0
VERTEX
  8
0
 10
1098.0681
 20
798.5802
 30
0.0000
  0
VERTEX
  8
0
 10
1098.8926
 20
798.1247
 30
0.0000
  0
VERTEX
  8
0
 10
1099.7988
 20
797.7548
 30
0.0000
  0
VERTEX
  8
0
 10
1100.7690
 20
797.4776
 30
0.0000
  0
VERTEX
  8
0
 10
1101.9133
 20
797.2833
 30
0.0000
  0
VERTEX
  8
0
 10
1103.0866
 20
797.2181
 30
0.0000
  0
VERTEX
  8
0
 10
1104.2598
 20
797.2833
 30
0.0000
  0
VERTEX
  8
0
 10
1105.4042
 20
797.4776
 30
0.0000
  0
VERTEX
  8
0
 10
1106.3744
 20
797.7548
 30
0.0000
  0
VERTEX
  8
0
 10
1107.2805
 20
798.1247
 30
0.0000
  0
VERTEX
  8
0
 10
1108.1051
 20
798.5802
 30
0.0000
  0
VERTEX
  8
0
 10
1108.3899
 20
798.7714
 30
0.0000
  0
SEQEND
  0
POLYLINE
  6
continous
  8
BYBLOCK
 70
0
 66
1
  0
VERTEX
  8
0
 10
1097.7833
 20
806.2714
 30
0.0000
  0
VERTEX
  8
0
 10
1097.0968
 20
805.7130
 30
0.0000
  0
VERTEX
  8
0
 10
1096.5269
 20
805.0924
 30
0.0000
  0
VERTEX
  8
0
 10
1096.0847
 20
804.4219
 30
0.0000
  0
VERTEX
  8
0
 10
1095.7788
 20
803.7143
 30
0.0000
  0
VERTEX
  8
0
 10
1095.6151
 20
802.9836
 30
0.0000
  0
VERTEX
  8
0
 10
1095.5866
 20
802.5214
 30
0.0000
  0
SEQEND
  0
POLYLINE
  6
continous
  8
BYBLOCK
 70
0
 66
1
  0
VERTEX
  8
0
 10
1110.5866
 20
802.5214
 30
0.0000
  0
VERTEX
  8
0
 10
1110.5136
 20
803.2594
 30
0.0000
  0
VERTEX
  8
0
 10
1110.2960
 20
803.9831
 30
0.0000
  0
VERTEX
  8
0
 10
1109.9382
 20
804.6784
 30
0.0000
  0
VERTEX
  8
0
 10
1109.4469
 20
805.3317
 30
0.0000
  0
VERTEX
  8
0
 10
1108.8319
 20
805.9302
 30
0.0000
  0
VERTEX
  8
0
 10
1108.1051
 20
806.4625
 30
0.0000
  0
VERTEX
  8
0
 10
1107.2805
 20
806.9180
 30
0.0000
  0
VERTEX
  8
0
 10
1106.3744
 20
807.2879
 30
0.0000
  0
VERTEX
  8
0
 10
1105.4042
 20
807.5651
 30
0.0000
  0
VERTEX
  8
0
 10
1104.2598
 20
807.7594
 30
0.0000
  0
VERTEX
  8
0
 10
1103.0866
 20
807.8247
 30
0.0000
  0
VERTEX
  8
0
 10
1101.9133
 20
807.7594
 30
0.0000
  0
VERTEX
  8
0
 10
1100.7690
 20
807.5651
 30
0.0000
  0
VERTEX
  8
0
 10
1099.7988
 20
807.2879
 30
0.0000
  0
VERTEX
  8
0
 10
1098.8926
 20
806.9180
 30
0.0000
  0
VERTEX
  8
0
 10
1098.0681
 20
806.4625
 30
0.0000
  0
VERTEX
  8
0
 10
1097.7833
 20
806.2714
 30
0.0000
  0
SEQEND
  0
POLYLINE
  6
continous
  8
BYBLOCK
 70
0
 66
1
  0
VERTEX
  8
0
 10
1108.3899
 20
798.7714
 30
0.0000
  0
VERTEX
  8
0
 10
1109.0763
 20
799.3297
 30
0.0000
  0
VERTEX
  8
0
 10
1109.6462
 20
799.9503
 30
0.0000
  0
VERTEX
  8
0
 10
1110.0884
 20
800.6208
 30
0.0000
  0
VERTEX
  8
0
 10
1110.3944
 20
801.3284
 30
0.0000
  0
VERTEX
  8
0
 10
1110.5580
 20
802.0591
 30
0.0000
  0
VERTEX
  8
0
 10
1110.5866
 20
802.5214
 30
0.0000
  0
SEQEND
  0
POLYLINE
  6
continous
  8
BYBLOCK
 70
0
 66
1
  0
VERTEX
  8
0
 10
1039.0180
 20
762.5214
 30
0.0000
  0
VERTEX
  8
0
 10
1039.0910
 20
761.7833
 30
0.0000
  0
VERTEX
  8
0
 10
1039.3086
 20
761.0596
 30
0.0000
  0
VERTEX
  8
0
 10
1039.6664
 20
760.3643
 30
0.0000
  0
VERTEX
  8
0
 10
1040.1577
 20
759.7110
 30
0.0000
  0
VERTEX
  8
0
 10
1040.7727
 20
759.1125
 30
0.0000
  0
VERTEX
  8
0
 10
1041.4996
 20
758.5802
 30
0.0000
  0
VERTEX
  8
0
 10
1042.3241
 20
758.1247
 30
0.0000
  0
VERTEX
  8
0
 10
1043.2303
 20
757.7548
 30
0.0000
  0
VERTEX
  8
0
 10
1044.2004
 20
757.4776
 30
0.0000
  0
VERTEX
  8
0
 10
1045.3448
 20
757.2833
 30
0.0000
  0
VERTEX
  8
0
 10
1046.5180
 20
757.2181
 30
0.0000
  0
VERTEX
  8
0
 10
1047.6913
 20
757.2833
 30
0.0000
  0
VERTEX
  8
0
 10
1048.8357
 20
757.4776
 30
0.0000
  0
VERTEX
  8
0
 10
1049.8058
 20
757.7548
 30
0.0000
  0
VERTEX
  8
0
 10
1050.7120
 20
758.1247
 30
0.0000
  0
VERTEX
  8
0
 10
1051.5365
 20
758.5802
 30
0.0000
  0
VERTEX
  8
0
 10
1051.8213
 20
758.7714
 30
0.0000
  0
SEQEND
  0
POLYLINE
  6
continous
  8
BYBLOCK
 70
0
 66
1
  0
VERTEX
  8
0
 10
1041.2147
 20
766.2714
 30
0.0000
  0
VERTEX
  8
0
 10
1040.5283
 20
765.7130
 30
0.0000
  0
VERTEX
  8
0
 10
1039.9584
 20
765.0924
 30
0.0000
  0
VERTEX
  8
0
 10
1039.5162
 20
764.4219
 30
0.0000
  0
VERTEX
  8
0
 10
1039.2103
 20
763.7143
 30
0.0000
  0
VERTEX
  8
0
 10
1039.0466
 20
762.9836
 30
0.0000
  0
VERTEX
  8
0
 10
1039.0180
 20
762.5214
 30
0.0000
  0
SEQEND
  0
POLYLINE
  6
continous
  8
BYBLOCK
 70
0
 66
1
  0
VERTEX
  8
0
 10
1054.0180
 20
762.5214
 30
0.0000
  0
VERTEX
  8
0
 10
1053.9450
 20
763.2594
 30
0.0000
  0
VERTEX
  8
0
 10
1053.7275
 20
763.9831
 30
0.0000
  0
VERTEX
  8
0
 10
1053.3696
 20
764.6784
 30
0.0000
  0
VERTEX
  8
0
 10
1052.8784
 20
765.3317
 30
0.0000
  0
VERTEX
  8
0
 10
1052.2634
 20
765.9302
 30
0.0000
  0
VERTEX
  8
0
 10
1051.5365
 20
766.4625
 30
0.0000
  0
VERTEX
  8
0
 10
1050.7120
 20
766.9180
 30
0.0000
  0
VERTEX
  8
0
 10
1049.8058
 20
767.2879
 30
0.0000
  0
VERTEX
  8
0
 10
1048.8357
 20
767.5651
 30
0.0000
  0
VERTEX
  8
0
 10
1047.6913
 20
767.7594
 30
0.0000
  0
VERTEX
  8
0
 10
1046.5180
 20
767.8247
 30
0.0000
  0
VERTEX
  8
0
 10
1045.3448
 20
767.7594
 30
0.0000
  0
VERTEX
  8
0
 10
1044.2004
 20
767.5651
 30
0.0000
  0
VERTEX
  8
0
 10
1043.2303
 20
767.2879
 30
0.0000
  0
VERTEX
  8
0
 10
1042.3241
 20
766.9180
 30
0.0000
  0
VERTEX
  8
0
 10
1041.4996
 20
766.4625
 30
0.0000
  0
VERTEX
  8
0
 10
1041.2147
 20
766.2714
 30
0.0000
  0
SEQEND
  0
POLYLINE
  6
continous
  8
BYBLOCK
 70
0
 66
1
  0
VERTEX
  8
0
 10
1051.8213
 20
758.7714
 30
0.0000
  0
VERTEX
  8
0
 10
1052.5078
 20
759.3297
 30
0.0000
  0
VERTEX
  8
0
 10
1053.0777
 20
759.9503
 30
0.0000
  0
VERTEX
  8
0
 10
1053.5199
 20
760.6208
 30
0.0000
  0
VERTEX
  8
0
 10
1053.8258
 20
761.3284
 30
0.0000
  0
VERTEX
  8
0
 10
1053.9895
 20
762.0591
 30
0.0000
  0
VERTEX
  8
0
 10
1054.0180
 20
762.5214
 30
0.0000
  0
SEQEND
  0
POLYLINE
  6
continous
  8
BYBLOCK
 70
0
 66
1
  0
VERTEX
  8
0
 10
982.4495
 20
722.5214
 30
0.0000
  0
VERTEX
  8
0
 10
982.5225
 20
721.7833
 30
0.0000
  0
VERTEX
  8
0
 10
982.7400
 20
721.0596
 30
0.0000
  0
VERTEX
  8
0
 10
983.0979
 20
720.3643
 30
0.0000
  0
VERTEX
  8
0
 10
983.5891
 20
719.7110
 30
0.0000
  0
VERTEX
  8
0
 10
984.2042
 20
719.1125
 30
0.0000
  0
VERTEX
  8
0
 10
984.9310
 20
718.5802
 30
0.0000
  0
VERTEX
  8
0
 10
985.7555
 20
718.1247
 30
0.0000
  0
VERTEX
  8
0
 10
986.6617
 20
717.7548
 30
0.0000
  0
VERTEX
  8
0
 10
987.6319
 20
717.4776
 30
0.0000
  0
VERTEX
  8
0
 10
988.7762
 20
717.2833
 30
0.0000
  0
VERTEX
  8
0
 10
989.9495
 20
717.2181
 30
0.0000
  0
VERTEX
  8
0
 10
991.1228
 20
717.2833
 30
0.0000
  0
VERTEX
  8
0
 10
992.2671
 20
717.4776
 30
0.0000
  0
VERTEX
  8
0
 10
993.2373
 20
717.7548
 30
0.0000
  0
VERTEX
  8
0
 10
994.1434
 20
718.1247
 30
0.0000
  0
VERTEX
  8
0
 10
994.9680
 20
718.5802
 30
0.0000
  0
VERTEX
  8
0
 10
995.2528
 20
718.7714
 30
0.0000
  0
SEQEND
  0
POLYLINE
  6
continous
  8
BYBLOCK
 70
0
 66
1
  0
VERTEX
  8
0
 10
984.6462
 20
726.2714
 30
0.0000
  0
VERTEX
  8
0
 10
983.9597
 20
725.7130
 30
0.0000
  0
VERTEX
  8
0
 10
983.3898
 20
725.0924
 30
0.0000
  0
VERTEX
  8
0
 10
982.9476
 20
724.4219
 30
0.0000
  0
VERTEX
  8
0
 10
982.6417
 20
723.7143
 30
0.0000
  0
VERTEX
  8
0
 10
982.4780
 20
722.9836
 30
0.0000
  0
VERTEX
  8
0
 10
982.4495
 20
722.5214
 30
0.0000
  0
SEQEND
  0
POLYLINE
  6
continous
  8
BYBLOCK
 70
0
 66
1
  0
VERTEX
  8
0
 10
997.4495
 20
722.5214
 30
0.0000
  0
VERTEX
  8
0
 10
997.3765
 20
723.2594
 30
0.0000
  0
VERTEX
  8
0
 10
997.1590
 20
723.9831
 30
0.0000
  0
VERTEX
  8
0
 10
996.8011
 20
724.6784
 30
0.0000
  0
VERTEX
  8
0
 10
996.3099
 20
725.3317
 30
0.0000
  0
VERTEX
  8
0
 10
995.6948
 20
725.9302
 30
0.0000
  0
VERTEX
  8
0
 10
994.9680
 20
726.4625
 30
0.0000
  0
VERTEX
  8
0
 10
994.1434
 20
726.9180
 30
0.0000
  0
VERTEX
  8
0
 10
993.2373
 20
727.2879
 30
0.0000
  0
VERTEX
  8
0
 10
992.2671
 20
727.5651
 30
0.0000
  0
VERTEX
  8
0
 10
991.1228
 20
727.7594
 30
0.0000
  0
VERTEX
  8
0
 10
989.9495
 20
727.8247
 30
0.0000
  0
VERTEX
  8
0
 10
988.7762
 20
727.7594
 30
0.0000
  0
VERTEX
  8
0
 10
987.6319
 20
727.5651
 30
0.0000
  0
VERTEX
  8
0
 10
986.6617
 20
727.2879
 30
0.0000
  0
VERTEX
  8
0
 10
985.7555
 20
726.9180
 30
0.0000
  0
VERTEX
  8
0
 10
984.9310
 20
726.4625
 30
0.0000
  0
VERTEX
  8
0
 10
984.6462
 20
726.2714
 30
0.0000
  0
SEQEND
  0
POLYLINE
  6
continous
  8
BYBLOCK
 70
0
 66
1
  0
VERTEX
  8
0
 10
995.2528
 20
718.7714
 30
0.0000
  0
VERTEX
  8
0
 10
995.9393
 20
719.3297
 30
0.0000
  0
VERTEX
  8
0
 10
996.5091
 20
719.9503
 30
0.0000
  0
VERTEX
  8
0
 10
996.9513
 20
720.6208
 30
0.0000
  0
VERTEX
  8
0
 10
997.2573
 20
721.3284
 30
0.0000
  0
VERTEX
  8
0
 10
997.4210
 20
722.0591
 30
0.0000
  0
VERTEX
  8
0
 10
997.4495
 20
722.5214
 30
0.0000
  0
SEQEND
  0
POLYLINE
  6
continous
  8
BYBLOCK
 70
0
 66
1
  0
VERTEX
  8
0
 10
925.8810
 20
682.5214
 30
0.0000
  0
VERTEX
  8
0
 10
925.9539
 20
681.7833
 30
0.0000
  0
VERTEX
  8
0
 10
926.1715
 20
681.0596
 30
0.0000
  0
VERTEX
  8
0
 10
926.5294
 20
680.3643
 30
0.0000
  0
VERTEX
  8
0
 10
927.0206
 20
679.7110
 30
0.0000
  0
VERTEX
  8
0
 10
927.6356
 20
679.1125
 30
0.0000
  0
VERTEX
  8
0
 10
928.3625
 20
678.5802
 30
0.0000
  0
VERTEX
  8
0
 10
929.1870
 20
678.1247
 30
0.0000
  0
VERTEX
  8
0
 10
930.0932
 20
677.7548
 30
0.0000
  0
VERTEX
  8
0
 10
931.0633
 20
677.4776
 30
0.0000
  0
VERTEX
  8
0
 10
932.2077
 20
677.2833
 30
0.0000
  0
VERTEX
  8
0
 10
933.3810
 20
677.2181
 30
0.0000
  0
VERTEX
  8
0
 10
934.5542
 20
677.2833
 30
0.0000
  0
VERTEX
  8
0
 10
935.6986
 20
677.4776
 30
0.0000
  0
VERTEX
  8
0
 10
936.6687
 20
677.7548
 30
0.0000
  0
VERTEX
  8
0
 10
937.5749
 20
678.1247
 30
0.0000
  0
VERTEX
  8
0
 10
938.3994
 20
678.5802
 30
0.0000
  0
VERTEX
  8
0
 10
938.6843
 20
678.7714
 30
0.0000
  0
SEQEND
  0
POLYLINE
  6
continous
  8
BYBLOCK
 70
0
 66
1
  0
VERTEX
  8
0
 10
928.0777
 20
686.2714
 30
0.0000
  0
VERTEX
  8
0
 10
927.3912
 20
685.7130
 30
0.0000
  0
VERTEX
  8
0
 10
926.8213
 20
685.0924
 30
0.0000
  0
VERTEX
  8
0
 10
926.3791
 20
684.4219
 30
0.0000
  0
VERTEX
  8
0
 10
926.0732
 20
683.7143
 30
0.0000
  0
VERTEX
  8
0
 10
925.9095
 20
682.9836
 30
0.0000
  0
VERTEX
  8
0
 10
925.8810
 20
682.5214
 30
0.0000
  0
SEQEND
  0
POLYLINE
  6
continous
  8
BYBLOCK
 70
0
 66
1
  0
VERTEX
  8
0
 10
940.8810
 20
682.5214
 30
0.0000
  0
VERTEX
  8
0
 10
940.8080
 20
683.2594
 30
0.0000
  0
VERTEX
  8
0
 10
940.5904
 20
683.9831
 30
0.0000
  0
VERTEX
  8
0
 10
940.2325
 20
684.6784
 30
0.0000
  0
VERTEX
  8
0
 10
939.7413
 20
685.3317
 30
0.0000
  0
VERTEX
  8
0
 10
939.1263
 20
685.9302
 30
0.0000
  0
VERTEX
  8
0
 10
938.3994
 20
686.4625
 30
0.0000
  0
VERTEX
  8
0
 10
937.5749
 20
686.9180
 30
0.0000
  0
VERTEX
  8
0
 10
936.6687
 20
687.2879
 30
0.0000
  0
VERTEX
  8
0
 10
935.6986
 20
687.5651
 30
0.0000
  0
VERTEX
  8
0
 10
934.5542
 20
687.7594
 30
0.0000
  0
VERTEX
  8
0
 10
933.3810
 20
687.8247
 30
0.0000
  0
VERTEX
  8
0
 10
932.2077
 20
687.7594
 30
0.0000
  0
VERTEX
  8
0
 10
931.0633
 20
687.5651
 30
0.0000
  0
VERTEX
  8
0
 10
930.0932
 20
687.2879
 30
0.0000
  0
VERTEX
  8
0
 10
929.1870
 20
686.9180
 30
0.0000
  0
VERTEX
  8
0
 10
928.3625
 20
686.4625
 30
0.0000
  0
VERTEX
  8
0
 10
928.0777
 20
686.2714
 30
0.0000
  0
SEQEND
  0
POLYLINE
  6
continous
  8
BYBLOCK
 70
0
 66
1
  0
VERTEX
  8
0
 10
938.6843
 20
678.7714
 30
0.0000
  0
VERTEX
  8
0
 10
939.3707
 20
679.3297
 30
0.0000
  0
VERTEX
  8
0
 10
939.9406
 20
679.9503
 30
0.0000
  0
VERTEX
  8
0
 10
940.3828
 20
680.6208
 30
0.0000
  0
VERTEX
  8
0
 10
940.6887
 20
681.3284
 30
0.0000
  0
VERTEX
  8
0
 10
940.8524
 20
682.0591
 30
0.0000
  0
VERTEX
  8
0
 10
940.8810
 20
682.5214
 30
0.0000
  0
SEQEND
  0
POLYLINE
  6
continous
  8
BYBLOCK
 70
0
 66
1
  0
VERTEX
  8
0
 10
869.3124
 20
642.5214
 30
0.0000
  0
VERTEX
  8
0
 10
869.3854
 20
641.7833
 30
0.0000
  0
VERTEX
  8
0
 10
869.6029
 20
641.0596
 30
0.0000
  0
VERTEX
  8
0
 10
869.9608
 20
640.3643
 30
0.0000
  0
VERTEX
  8
0
 10
870.4520
 20
639.7110
 30
0.0000
  0
VERTEX
  8
0
 10
871.0671
 20
639.1125
 30
0.0000
  0
VERTEX
  8
0
 10
871.7939
 20
638.5802
 30
0.0000
  0
VERTEX
  8
0
 10
872.6185
 20
638.1247
 30
0.0000
  0
VERTEX
  8
0
 10
873.5246
 20
637.7548
 30
0.0000
  0
VERTEX
  8
0
 10
874.4948
 20
637.4776
 30
0.0000
  0
VERTEX
  8
0
 10
875.6392
 20
637.2833
 30
0.0000
  0
VERTEX
  8
0
 10
876.8124
 20
637.2181
 30
0.0000
  0
VERTEX
  8
0
 10
877.9857
 20
637.2833
 30
0.0000
  0
VERTEX
  8
0
 10
879.1300
 20
637.4776
 30
0.0000
  0
VERTEX
  8
0
 10
880.1002
 20
637.7548
 30
0.0000
  0
VERTEX
  8
0
 10
881.0064
 20
638.1247
 30
0.0000
  0
VERTEX
  8
0
 10
881.8309
 20
638.5802
 30
0.0000
  0
VERTEX
  8
0
 10
882.1157
 20
638.7714
 30
0.0000
  0
SEQEND
  0
POLYLINE
  6
continous
  8
BYBLOCK
 70
0
 66
1
  0
VERTEX
  8
0
 10
871.5091
 20
646.2714
 30
0.0000
  0
VERTEX
  8
0
 10
870.8226
 20
645.7130
 30
0.0000
  0
VERTEX
  8
0
 10
870.2528
 20
645.0924
 30
0.0000
  0
VERTEX
  8
0
 10
869.8106
 20
644.4219
 30
0.0000
  0
VERTEX
  8
0
 10
869.5046
 20
643.7143
 30
0.0000
  0
VERTEX
  8
0
 10
869.3409
 20
642.9836
 30
0.0000
  0
VERTEX
  8
0
 10
869.3124
 20
642.5214
 30
0.0000
  0
SEQEND
  0
POLYLINE
  6
continous
  8
BYBLOCK
 70
0
 66
1
  0
VERTEX
  8
0
 10
884.3124
 20
642.5214
 30
0.0000
  0
VERTEX
  8
0
 10
884.2394
 20
643.2594
 30
0.0000
  0
VERTEX
  8
0
 10
884.0219
 20
643.9831
 30
0.0000
  0
VERTEX
  8
0
 10
883.6640
 20
644.6784
 30
0.0000
  0
VERTEX
  8
0
 10
883.1728
 20
645.3317
 30
0.0000
  0
VERTEX
  8
0
 10
882.5577
 20
645.9302
 30
0.0000
  0
VERTEX
  8
0
 10
881.8309
 20
646.4625
 30
0.0000
  0
VERTEX
  8
0
 10
881.0064
 20
646.9180
 30
0.0000
  0
VERTEX
  8
0
 10
880.1002
 20
647.2879
 30
0.0000
  0
VERTEX
  8
0
 10
879.1300
 20
647.5651
 30
0.0000
  0
VERTEX
  8
0
 10
877.9857
 20
647.7594
 30
0.0000
  0
VERTEX
  8
0
 10
876.8124
 20
647.8247
 30
0.0000
  0
VERTEX
  8
0
 10
875.6392
 20
647.7594
 30
0.0000
  0
VERTEX
  8
0
 10
874.4948
 20
647.5651
 30
0.0000
  0
VERTEX
  8
0
 10
873.5246
 20
647.2879
 30
0.0000
  0
VERTEX
  8
0
 10
872.6185
 20
646.9180
 30
0.0000
  0
VERTEX
  8
0
 10
871.7939
 20
646.4625
 30
0.0000
  0
VERTEX
  8
0
 10
871.5091
 20
646.2714
 30
0.0000
  0
SEQEND
  0
POLYLINE
  6
continous
  8
BYBLOCK
 70
0
 66
1
  0
VERTEX
  8
0
 10
882.1157
 20
638.7714
 30
0.0000
  0
VERTEX
  8
0
 10
882.8022
 20
639.3297
 30
0.0000
  0
VERTEX
  8
0
 10
883.3721
 20
639.9503
 30
0.0000
  0
VERTEX
  8
0
 10
883.8143
 20
640.6208
 30
0.0000
  0
VERTEX
  8
0
 10
884.1202
 20
641.3284
 30
0.0000
  0
VERTEX
  8
0
 10
884.2839
 20
642.0591
 30
0.0000
  0
VERTEX
  8
0
 10
884.3124
 20
642.5214
 30
0.0000
  0
SEQEND
  0
POLYLINE
  6
continous
  8
BYBLOCK
 70
0
 66
1
  0
VERTEX
  8
0
 10
812.7439
 20
602.5214
 30
0.0000
  0
VERTEX
  8
0
 10
812.8169
 20
601.7833
 30
0.0000
  0
VERTEX
  8
0
 10
813.0344
 20
601.0596
 30
0.0000
  0
VERTEX
  8
0
 10
813.3923
 20
600.3643
 30
0.0000
  0
VERTEX
  8
0
 10
813.8835
 20
599.7110
 30
0.0000
  0
VERTEX
  8
0
 10
814.4985
 20
599.1125
 30
0.0000
  0
VERTEX
  8
0
 10
815.2254
 20
598.5802
 30
0.0000
  0
VERTEX
  8
0
 10
816.0499
 20
598.1247
 30
0.0000
  0
VERTEX
  8
0
 10
816.9561
 20
597.7548
 30
0.0000
  0
VERTEX
  8
0
 10
817.9262
 20
597.4776
 30
0.0000
  0
VERTEX
  8
0
 10
819.0706
 20
597.2833
 30
0.0000
  0
VERTEX
  8
0
 10
820.2439
 20
597.2181
 30
0.0000
  0
VERTEX
  8
0
 10
821.4171
 20
597.2833
 30
0.0000
  0
VERTEX
  8
0
 10
822.5615
 20
597.4776
 30
0.0000
  0
VERTEX
  8
0
 10
823.5316
 20
597.7548
 30
0.0000
  0
VERTEX
  8
0
 10
824.4378
 20
598.1247
 30
0.0000
  0
VERTEX
  8
0
 10
825.2623
 20
598.5802
 30
0.0000
  0
VERTEX
  8
0
 10
825.5472
 20
598.7714
 30
0.0000
  0
SEQEND
  0
POLYLINE
  6
continous
  8
BYBLOCK
 70
0
 66
1
  0
VERTEX
  8
0
 10
814.9406
 20
606.2714
 30
0.0000
  0
VERTEX
  8
0
 10
814.2541
 20
605.7130
 30
0.0000
  0
VERTEX
  8
0
 10
813.6842
 20
605.0924
 30
0.0000
  0
VERTEX
  8
0
 10
813.2420
 20
604.4219
 30
0.0000
  0
VERTEX
  8
0
 10
812.9361
 20
603.7143
 30
0.0000
  0
VERTEX
  8
0
 10
812.7724
 20
602.9836
 30
0.0000
  0
VERTEX
  8
0
 10
812.7439
 20
602.5214
 30
0.0000
  0
SEQEND
  0
POLYLINE
  6
continous
  8
BYBLOCK
 70
0
 66
1
  0
VERTEX
  8
0
 10
827.7439
 20
602.5214
 30
0.0000
  0
VERTEX
  8
0
 10
827.6709
 20
603.2594
 30
0.0000
  0
VERTEX
  8
0
 10
827.4533
 20
603.9831
 30
0.0000
  0
VERTEX
  8
0
 10
827.0955
 20
604.6784
 30
0.0000
  0
VERTEX
  8
0
 10
826.6042
 20
605.3317
 30
0.0000
  0
VERTEX
  8
0
 10
825.9892
 20
605.9302
 30
0.0000
  0
VERTEX
  8
0
 10
825.2623
 20
606.4625
 30
0.0000
  0
VERTEX
  8
0
 10
824.4378
 20
606.9180
 30
0.0000
  0
VERTEX
  8
0
 10
823.5316
 20
607.2879
 30
0.0000
  0
VERTEX
  8
0
 10
822.5615
 20
607.5651
 30
0.0000
  0
VERTEX
  8
0
 10
821.4171
 20
607.7594
 30
0.0000
  0
VERTEX
  8
0
 10
820.2439
 20
607.8247
 30
0.0000
  0
VERTEX
  8
0
 10
819.0706
 20
607.7594
 30
0.0000
  0
VERTEX
  8
0
 10
817.9262
 20
607.5651
 30
0.0000
  0
VERTEX
  8
0
 10
816.9561
 20
607.2879
 30
0.0000
  0
VERTEX
  8
0
 10
816.0499
 20
606.9180
 30
0.0000
  0
VERTEX
  8
0
 10
815.2254
 20
606.4625
 30
0.0000
  0
VERTEX
  8
0
 10
814.9406
 20
606.2714
 30
0.0000
  0
SEQEND
  0
POLYLINE
  6
continous
  8
BYBLOCK
 70
0
 66
1
  0
VERTEX
  8
0
 10
825.5472
 20
598.7714
 30
0.0000
  0
VERTEX
  8
0
 10
826.2336
 20
599.3297
 30
0.0000
  0
VERTEX
  8
0
 10
826.8035
 20
599.9503
 30
0.0000
  0
VERTEX
  8
0
 10
827.2457
 20
600.6208
 30
0.0000
  0
VERTEX
  8
0
 10
827.5516
 20
601.3284
 30
0.0000
  0
VERTEX
  8
0
 10
827.7153
 20
602.0591
 30
0.0000
  0
VERTEX
  8
0
 10
827.7439
 20
602.5214
 30
0.0000
  0
SEQEND
  0
POLYLINE
  6
continous
  8
BYBLOCK
 70
0
 66
1
  0
VERTEX
  8
0
 10
756.1753
 20
562.5214
 30
0.0000
  0
VERTEX
  8
0
 10
756.2483
 20
561.7833
 30
0.0000
  0
VERTEX
  8
0
 10
756.4659
 20
561.0596
 30
0.0000
  0
VERTEX
  8
0
 10
756.8237
 20
560.3643
 30
0.0000
  0
VERTEX
  8
0
 10
757.3150
 20
559.7110
 30
0.0000
  0
VERTEX
  8
0
 10
757.9300
 20
559.1125
 30
0.0000
  0
VERTEX
  8
0
 10
758.6568
 20
558.5802
 30
0.0000
  0
VERTEX
  8
0
 10
759.4814
 20
558.1247
 30
0.0000
  0
VERTEX
  8
0
 10
760.3875
 20
557.7548
 30
0.0000
  0
VERTEX
  8
0
 10
761.3577
 20
557.4776
 30
0.0000
  0
VERTEX
  8
0
 10
762.5021
 20
557.2833
 30
0.0000
  0
VERTEX
  8
0
 10
763.6753
 20
557.2181
 30
0.0000
  0
VERTEX
  8
0
 10
764.8486
 20
557.2833
 30
0.0000
  0
VERTEX
  8
0
 10
765.9930
 20
557.4776
 30
0.0000
  0
VERTEX
  8
0
 10
766.9631
 20
557.7548
 30
0.0000
  0
VERTEX
  8
0
 10
767.8693
 20
558.1247
 30
0.0000
  0
VERTEX
  8
0
 10
768.6938
 20
558.5802
 30
0.0000
  0
VERTEX
  8
0
 10
768.9786
 20
558.7714
 30
0.0000
  0
SEQEND
  0
POLYLINE
  6
continous
  8
BYBLOCK
 70
0
 66
1
  0
VERTEX
  8
0
 10
758.3720
 20
566.2714
 30
0.0000
  0
VERTEX
  8
0
 10
757.6856
 20
565.7130
 30
0.0000
  0
VERTEX
  8
0
 10
757.1157
 20
565.0924
 30
0.0000
  0
VERTEX
  8
0
 10
756.6735
 20
564.4219
 30
0.0000
  0
VERTEX
  8
0
 10
756.3675
 20
563.7143
 30
0.0000
  0
VERTEX
  8
0
 10
756.2039
 20
562.9836
 30
0.0000
  0
VERTEX
  8
0
 10
756.1753
 20
562.5214
 30
0.0000
  0
SEQEND
  0
POLYLINE
  6
continous
  8
BYBLOCK
 70
0
 66
1
  0
VERTEX
  8
0
 10
771.1753
 20
562.5214
 30
0.0000
  0
VERTEX
  8
0
 10
771.1023
 20
563.2594
 30
0.0000
  0
VERTEX
  8
0
 10
770.8848
 20
563.9831
 30
0.0000
  0
VERTEX
  8
0
 10
770.5269
 20
564.6784
 30
0.0000
  0
VERTEX
  8
0
 10
770.0357
 20
565.3317
 30
0.0000
  0
VERTEX
  8
0
 10
769.4207
 20
565.9302
 30
0.0000
  0
VERTEX
  8
0
 10
768.6938
 20
566.4625
 30
0.0000
  0
VERTEX
  8
0
 10
767.8693
 20
566.9180
 30
0.0000
  0
VERTEX
  8
0
 10
766.9631
 20
567.2879
 30
0.0000
  0
VERTEX
  8
0
 10
765.9930
 20
567.5651
 30
0.0000
  0
VERTEX
  8
0
 10
764.8486
 20
567.7594
 30
0.0000
  0
VERTEX
  8
0
 10
763.6753
 20
567.8247
 30
0.0000
  0
VERTEX
  8
0
 10
762.5021
 20
567.7594
 30
0.0000
  0
VERTEX
  8
0
 10
761.3577
 20
567.5651
 30
0.0000
  0
VERTEX
  8
0
 10
760.3875
 20
567.2879
 30
0.0000
  0
VERTEX
  8
0
 10
759.4814
 20
566.9180
 30
0.0000
  0
VERTEX
  8
0
 10
758.6568
 20
566.4625
 30
0.0000
  0
VERTEX
  8
0
 10
758.3720
 20
566.2714
 30
0.0000
  0
SEQEND
  0
POLYLINE
  6
continous
  8
BYBLOCK
 70
0
 66
1
  0
VERTEX
  8
0
 10
768.9786
 20
558.7714
 30
0.0000
  0
VERTEX
  8
0
 10
769.6651
 20
559.3297
 30
0.0000
  0
VERTEX
  8
0
 10
770.2350
 20
559.9503
 30
0.0000
  0
VERTEX
  8
0
 10
770.6772
 20
560.6208
 30
0.0000
  0
VERTEX
  8
0
 10
770.9831
 20
561.3284
 30
0.0000
  0
VERTEX
  8
0
 10
771.1468
 20
562.0591
 30
0.0000
  0
VERTEX
  8
0
 10
771.1753
 20
562.5214
 30
0.0000
  0
SEQEND
  0
POLYLINE
  6
continous
  8
BYBLOCK
 70
0
 66
1
  0
VERTEX
  8
0
 10
699.6068
 20
522.5214
 30
0.0000
  0
VERTEX
  8
0
 10
699.6798
 20
521.7833
 30
0.0000
  0
VERTEX
  8
0
 10
699.8973
 20
521.0596
 30
0.0000
  0
VERTEX
  8
0
 10
700.2552
 20
520.3643
 30
0.0000
  0
VERTEX
  8
0
 10
700.7464
 20
519.7110
 30
0.0000
  0
VERTEX
  8
0
 10
701.3614
 20
519.1125
 30
0.0000
  0
VERTEX
  8
0
 10
702.0883
 20
518.5802
 30
0.0000
  0
VERTEX
  8
0
 10
702.9128
 20
518.1247
 30
0.0000
  0
VERTEX
  8
0
 10
703.8190
 20
517.7548
 30
0.0000
  0
VERTEX
  8
0
 10
704.7892
 20
517.4776
 30
0.0000
  0
VERTEX
  8
0
 10
705.9335
 20
517.2833
 30
0.0000
  0
VERTEX
  8
0
 10
707.1068
 20
517.2181
 30
0.0000
  0
VERTEX
  8
0
 10
708.2800
 20
517.2833
 30
0.0000
  0
VERTEX
  8
0
 10
709.4244
 20
517.4776
 30
0.0000
  0
VERTEX
  8
0
 10
710.3946
 20
517.7548
 30
0.0000
  0
VERTEX
  8
0
 10
711.3007
 20
518.1247
 30
0.0000
  0
VERTEX
  8
0
 10
712.1253
 20
518.5802
 30
0.0000
  0
VERTEX
  8
0
 10
712.4101
 20
518.7714
 30
0.0000
  0
SEQEND
  0
POLYLINE
  6
continous
  8
BYBLOCK
 70
0
 66
1
  0
VERTEX
  8
0
 10
701.8035
 20
526.2714
 30
0.0000
  0
VERTEX
  8
0
 10
701.1170
 20
525.7130
 30
0.0000
  0
VERTEX
  8
0
 10
700.5471
 20
525.0924
 30
0.0000
  0
VERTEX
  8
0
 10
700.1049
 20
524.4219
 30
0.0000
  0
VERTEX
  8
0
 10
699.7990
 20
523.7143
 30
0.0000
  0
VERTEX
  8
0
 10
699.6353
 20
522.9836
 30
0.0000
  0
VERTEX
  8
0
 10
699.6068
 20
522.5214
 30
0.0000
  0
SEQEND
  0
POLYLINE
  6
continous
  8
BYBLOCK
 70
0
 66
1
  0
VERTEX
  8
0
 10
714.6068
 20
522.5214
 30
0.0000
  0
VERTEX
  8
0
 10
714.5338
 20
523.2594
 30
0.0000
  0
VERTEX
  8
0
 10
714.3162
 20
523.9831
 30
0.0000
  0
VERTEX
  8
0
 10
713.9584
 20
524.6784
 30
0.0000
  0
VERTEX
  8
0
 10
713.4671
 20
525.3317
 30
0.0000
  0
VERTEX
  8
0
 10
712.8521
 20
525.9302
 30
0.0000
  0
VERTEX
  8
0
 10
712.1253
 20
526.4625
 30
0.0000
  0
VERTEX
  8
0
 10
711.3007
 20
526.9180
 30
0.0000
  0
VERTEX
  8
0
 10
710.3946
 20
527.2879
 30
0.0000
  0
VERTEX
  8
0
 10
709.4244
 20
527.5651
 30
0.0000
  0
VERTEX
  8
0
 10
708.2800
 20
527.7594
 30
0.0000
  0
VERTEX
  8
0
 10
707.1068
 20
527.8247
 30
0.0000
  0
VERTEX
  8
0
 10
705.9335
 20
527.7594
 30
0.0000
  0
VERTEX
  8
0
 10
704.7892
 20
527.5651
 30
0.0000
  0
VERTEX
  8
0
 10
703.8190
 20
527.2879
 30
0.0000
  0
VERTEX
  8
0
 10
702.9128
 20
526.9180
 30
0.0000
  0
VERTEX
  8
0
 10
702.0883
 20
526.4625
 30
0.0000
  0
VERTEX
  8
0
 10
701.8035
 20
526.2714
 30
0.0000
  0
SEQEND
  0
POLYLINE
  6
continous
  8
BYBLOCK
 70
0
 66
1
  0
VERTEX
  8
0
 10
712.4101
 20
518.7714
 30
0.0000
  0
VERTEX
  8
0
 10
713.0965
 20
519.3297
 30
0.0000
  0
VERTEX
  8
0
 10
713.6664
 20
519.9503
 30
0.0000
  0
VERTEX
  8
0
 10
714.1086
 20
520.6208
 30
0.0000
  0
VERTEX
  8
0
 10
714.4146
 20
521.3284
 30
0.0000
  0
VERTEX
  8
0
 10
714.5782
 20
522.0591
 30
0.0000
  0
VERTEX
  8
0
 10
714.6068
 20
522.5214
 30
0.0000
  0
SEQEND
  0
POLYLINE
  6
continous
  8
BYBLOCK
 70
0
 66
1
  0
VERTEX
  8
0
 10
643.0382
 20
482.5214
 30
0.0000
  0
VERTEX
  8
0
 10
643.1112
 20
481.7833
 30
0.0000
  0
VERTEX
  8
0
 10
643.3288
 20
481.0596
 30
0.0000
  0
VERTEX
  8
0
 10
643.6866
 20
480.3643
 30
0.0000
  0
VERTEX
  8
0
 10
644.1779
 20
479.7110
 30
0.0000
  0
VERTEX
  8
0
 10
644.7929
 20
479.1125
 30
0.0000
  0
VERTEX
  8
0
 10
645.5198
 20
478.5802
 30
0.0000
  0
VERTEX
  8
0
 10
646.3443
 20
478.1247
 30
0.0000
  0
VERTEX
  8
0
 10
647.2505
 20
477.7548
 30
0.0000
  0
VERTEX
  8
0
 10
648.2206
 20
477.4776
 30
0.0000
  0
VERTEX
  8
0
 10
649.3650
 20
477.2833
 30
0.0000
  0
VERTEX
  8
0
 10
650.5382
 20
477.2181
 30
0.0000
  0
VERTEX
  8
0
 10
651.7115
 20
477.2833
 30
0.0000
  0
VERTEX
  8
0
 10
652.8559
 20
477.4776
 30
0.0000
  0
VERTEX
  8
0
 10
653.8260
 20
477.7548
 30
0.0000
  0
VERTEX
  8
0
 10
654.7322
 20
478.1247
 30
0.0000
  0
VERTEX
  8
0
 10
655.5567
 20
478.5802
 30
0.0000
  0
VERTEX
  8
0
 10
655.8415
 20
478.7714
 30
0.0000
  0
SEQEND
  0
POLYLINE
  6
continous
  8
BYBLOCK
 70
0
 66
1
  0
VERTEX
  8
0
 10
645.2349
 20
486.2714
 30
0.0000
  0
VERTEX
  8
0
 10
644.5485
 20
485.7130
 30
0.0000
  0
VERTEX
  8
0
 10
643.9786
 20
485.0924
 30
0.0000
  0
VERTEX
  8
0
 10
643.5364
 20
484.4219
 30
0.0000
  0
VERTEX
  8
0
 10
643.2305
 20
483.7143
 30
0.0000
  0
VERTEX
  8
0
 10
643.0668
 20
482.9836
 30
0.0000
  0
VERTEX
  8
0
 10
643.0382
 20
482.5214
 30
0.0000
  0
SEQEND
  0
POLYLINE
  6
continous
  8
BYBLOCK
 70
0
 66
1
  0
VERTEX
  8
0
 10
658.0382
 20
482.5214
 30
0.0000
  0
VERTEX
  8
0
 10
657.9652
 20
483.2594
 30
0.0000
  0
VERTEX
  8
0
 10
657.7477
 20
483.9831
 30
0.0000
  0
VERTEX
  8
0
 10
657.3898
 20
484.6784
 30
0.0000
  0
VERTEX
  8
0
 10
656.8986
 20
485.3317
 30
0.0000
  0
VERTEX
  8
0
 10
656.2836
 20
485.9302
 30
0.0000
  0
VERTEX
  8
0
 10
655.5567
 20
486.4625
 30
0.0000
  0
VERTEX
  8
0
 10
654.7322
 20
486.9180
 30
0.0000
  0
VERTEX
  8
0
 10
653.8260
 20
487.2879
 30
0.0000
  0
VERTEX
  8
0
 10
652.8559
 20
487.5651
 30
0.0000
  0
VERTEX
  8
0
 10
651.7115
 20
487.7594
 30
0.0000
  0
VERTEX
  8
0
 10
650.5382
 20
487.8247
 30
0.0000
  0
VERTEX
  8
0
 10
649.3650
 20
487.7594
 30
0.0000
  0
VERTEX
  8
0
 10
648.2206
 20
487.5651
 30
0.0000
  0
VERTEX
  8
0
 10
647.2505
 20
487.2879
 30
0.0000
  0
VERTEX
  8
0
 10
646.3443
 20
486.9180
 30
0.0000
  0
VERTEX
  8
0
 10
645.5198
 20
486.4625
 30
0.0000
  0
VERTEX
  8
0
 10
645.2349
 20
486.2714
 30
0.0000
  0
SEQEND
  0
POLYLINE
  6
continous
  8
BYBLOCK
 70
0
 66
1
  0
VERTEX
  8
0
 10
655.8415
 20
478.7714
 30
0.0000
  0
VERTEX
  8
0
 10
656.5280
 20
479.3297
 30
0.0000
  0
VERTEX
  8
0
 10
657.0979
 20
479.9503
 30
0.0000
  0
VERTEX
  8
0
 10
657.5401
 20
480.6208
 30
0.0000
  0
VERTEX
  8
0
 10
657.8460
 20
481.3284
 30
0.0000
  0
VERTEX
  8
0
 10
658.0097
 20
482.0591
 30
0.0000
  0
VERTEX
  8
0
 10
658.0382
 20
482.5214
 30
0.0000
  0
SEQEND
  0
POLYLINE
  6
continous
  8
BYBLOCK
 70
0
 66
1
  0
VERTEX
  8
0
 10
586.4697
 20
442.5214
 30
0.0000
  0
VERTEX
  8
0
 10
586.5427
 20
441.7833
 30
0.0000
  0
VERTEX
  8
0
 10
586.7602
 20
441.0596
 30
0.0000
  0
VERTEX
  8
0
 10
587.1181
 20
440.3643
 30
0.0000
  0
VERTEX
  8
0
 10
587.6093
 20
439.7110
 30
0.0000
  0
VERTEX
  8
0
 10
588.2244
 20
439.1125
 30
0.0000
  0
VERTEX
  8
0
 10
588.9512
 20
438.5802
 30
0.0000
  0
VERTEX
  8
0
 10
589.7757
 20
438.1247
 30
0.0000
  0
VERTEX
  8
0
 10
590.6819
 20
437.7548
 30
0.0000
  0
VERTEX
  8
0
 10
591.6521
 20
437.4776
 30
0.0000
  0
VERTEX
  8
0
 10
592.7964
 20
437.2833
 30
0.0000
  0
VERTEX
  8
0
 10
593.9697
 20
437.2181
 30
0.0000
  0
VERTEX
  8
0
 10
595.1430
 20
437.2833
 30
0.0000
  0
VERTEX
  8
0
 10
596.2873
 20
437.4776
 30
0.0000
  0
VERTEX
  8
0
 10
597.2575
 20
437.7548
 30
0.0000
  0
VERTEX
  8
0
 10
598.1636
 20
438.1247
 30
0.0000
  0
VERTEX
  8
0
 10
598.9882
 20
438.5802
 30
0.0000
  0
VERTEX
  8
0
 10
599.2730
 20
438.7714
 30
0.0000
  0
SEQEND
  0
POLYLINE
  6
continous
  8
BYBLOCK
 70
0
 66
1
  0
VERTEX
  8
0
 10
588.6664
 20
446.2714
 30
0.0000
  0
VERTEX
  8
0
 10
587.9799
 20
445.7130
 30
0.0000
  0
VERTEX
  8
0
 10
587.4100
 20
445.0924
 30
0.0000
  0
VERTEX
  8
0
 10
586.9678
 20
444.4219
 30
0.0000
  0
VERTEX
  8
0
 10
586.6619
 20
443.7143
 30
0.0000
  0
VERTEX
  8
0
 10
586.4982
 20
442.9836
 30
0.0000
  0
VERTEX
  8
0
 10
586.4697
 20
442.5214
 30
0.0000
  0
SEQEND
  0
POLYLINE
  6
continous
  8
BYBLOCK
 70
0
 66
1
  0
VERTEX
  8
0
 10
601.4697
 20
442.5214
 30
0.0000
  0
VERTEX
  8
0
 10
601.3967
 20
443.2594
 30
0.0000
  0
VERTEX
  8
0
 10
601.1792
 20
443.9831
 30
0.0000
  0
VERTEX
  8
0
 10
600.8213
 20
444.6784
 30
0.0000
  0
VERTEX
  8
0
 10
600.3301
 20
445.3317
 30
0.0000
  0
VERTEX
  8
0
 10
599.7150
 20
445.9302
 30
0.0000
  0
VERTEX
  8
0
 10
598.9882
 20
446.4625
 30
0.0000
  0
VERTEX
  8
0
 10
598.1636
 20
446.9180
 30
0.0000
  0
VERTEX
  8
0
 10
597.2575
 20
447.2879
 30
0.0000
  0
VERTEX
  8
0
 10
596.2873
 20
447.5651
 30
0.0000
  0
VERTEX
  8
0
 10
595.1430
 20
447.7594
 30
0.0000
  0
VERTEX
  8
0
 10
593.9697
 20
447.8247
 30
0.0000
  0
VERTEX
  8
0
 10
592.7964
 20
447.7594
 30
0.0000
  0
VERTEX
  8
0
 10
591.6521
 20
447.5651
 30
0.0000
  0
VERTEX
  8
0
 10
590.6819
 20
447.2879
 30
0.0000
  0
VERTEX
  8
0
 10
589.7757
 20
446.9180
 30
0.0000
  0
VERTEX
  8
0
 10
588.9512
 20
446.4625
 30
0.0000
  0
VERTEX
  8
0
 10
588.6664
 20
446.2714
 30
0.0000
  0
SEQEND
  0
POLYLINE
  6
continous
  8
BYBLOCK
 70
0
 66
1
  0
VERTEX
  8
0
 10
599.2730
 20
438.7714
 30
0.0000
  0
VERTEX
  8
0
 10
599.9595
 20
439.3297
 30
0.0000
  0
VERTEX
  8
0
 10
600.5293
 20
439.9503
 30
0.0000
  0
VERTEX
  8
0
 10
600.9715
 20
440.6208
 30
0.0000
  0
VERTEX
  8
0
 10
601.2775
 20
441.3284
 30
0.0000
  0
VERTEX
  8
0
 10
601.4412
 20
442.0591
 30
0.0000
  0
VERTEX
  8
0
 10
601.4697
 20
442.5214
 30
0.0000
  0
SEQEND
  0
POLYLINE
  6
continous
  8
BYBLOCK
 70
0
 66
1
  0
VERTEX
  8
0
 10
529.9012
 20
402.5214
 30
0.0000
  0
VERTEX
  8
0
 10
529.9741
 20
401.7833
 30
0.0000
  0
VERTEX
  8
0
 10
530.1917
 20
401.0596
 30
0.0000
  0
VERTEX
  8
0
 10
530.5496
 20
400.3643
 30
0.0000
  0
VERTEX
  8
0
 10
531.0408
 20
399.7110
 30
0.0000
  0
VERTEX
  8
0
 10
531.6558
 20
399.1125
 30
0.0000
  0
VERTEX
  8
0
 10
532.3827
 20
398.5802
 30
0.0000
  0
VERTEX
  8
0
 10
533.2072
 20
398.1247
 30
0.0000
  0
VERTEX
  8
0
 10
534.1134
 20
397.7548
 30
0.0000
  0
VERTEX
  8
0
 10
535.0835
 20
397.4776
 30
0.0000
  0
VERTEX
  8
0
 10
536.2279
 20
397.2833
 30
0.0000
  0
VERTEX
  8
0
 10
537.4012
 20
397.2181
 30
0.0000
  0
VERTEX
  8
0
 10
538.5744
 20
397.2833
 30
0.0000
  0
VERTEX
  8
0
 10
539.7188
 20
397.4776
 30
0.0000
  0
VERTEX
  8
0
 10
540.6889
 20
397.7548
 30
0.0000
  0
VERTEX
  8
0
 10
541.5951
 20
398.1247
 30
0.0000
  0
VERTEX
  8
0
 10
542.4196
 20
398.5802
 30
0.0000
  0
VERTEX
  8
0
 10
542.7045
 20
398.7714
 30
0.0000
  0
SEQEND
  0
POLYLINE
  6
continous
  8
BYBLOCK
 70
0
 66
1
  0
VERTEX
  8
0
 10
532.0979
 20
406.2714
 30
0.0000
  0
VERTEX
  8
0
 10
531.4114
 20
405.7130
 30
0.0000
  0
VERTEX
  8
0
 10
530.8415
 20
405.0924
 30
0.0000
  0
VERTEX
  8
0
 10
530.3993
 20
404.4219
 30
0.0000
  0
VERTEX
  8
0
 10
530.0934
 20
403.7143
 30
0.0000
  0
VERTEX
  8
0
 10
529.9297
 20
402.9836
 30
0.0000
  0
VERTEX
  8
0
 10
529.9012
 20
402.5214
 30
0.0000
  0
SEQEND
  0
POLYLINE
  6
continous
  8
BYBLOCK
 70
0
 66
1
  0
VERTEX
  8
0
 10
544.9012
 20
402.5214
 30
0.0000
  0
VERTEX
  8
0
 10
544.8282
 20
403.2594
 30
0.0000
  0
VERTEX
  8
0
 10
544.6106
 20
403.9831
 30
0.0000
  0
VERTEX
  8
0
 10
544.2527
 20
404.6784
 30
0.0000
  0
VERTEX
  8
0
 10
543.7615
 20
405.3317
 30
0.0000
  0
VERTEX
  8
0
 10
543.1465
 20
405.9302
 30
0.0000
  0
VERTEX
  8
0
 10
542.4196
 20
406.4625
 30
0.0000
  0
VERTEX
  8
0
 10
541.5951
 20
406.9180
 30
0.0000
  0
VERTEX
  8
0
 10
540.6889
 20
407.2879
 30
0.0000
  0
VERTEX
  8
0
 10
539.7188
 20
407.5651
 30
0.0000
  0
VERTEX
  8
0
 10
538.5744
 20
407.7594
 30
0.0000
  0
VERTEX
  8
0
 10
537.4012
 20
407.8247
 30
0.0000
  0
VERTEX
  8
0
 10
536.2279
 20
407.7594
 30
0.0000
  0
VERTEX
  8
0
 10
535.0835
 20
407.5651
 30
0.0000
  0
VERTEX
  8
0
 10
534.1134
 20
407.2879
 30
0.0000
  0
VERTEX
  8
0
 10
533.2072
 20
406.9180
 30
0.0000
  0
VERTEX
  8
0
 10
532.3827
 20
406.4625
 30
0.0000
  0
VERTEX
  8
0
 10
532.0979
 20
406.2714
 30
0.0000
  0
SEQEND
  0
POLYLINE
  6
continous
  8
BYBLOCK
 70
0
 66
1
  0
VERTEX
  8
0
 10
542.7045
 20
398.7714
 30
0.0000
  0
VERTEX
  8
0
 10
543.3909
 20
399.3297
 30
0.0000
  0
VERTEX
  8
0
 10
543.9608
 20
399.9503
 30
0.0000
  0
VERTEX
  8
0
 10
544.4030
 20
400.6208
 30
0.0000
  0
VERTEX
  8
0
 10
544.7089
 20
401.3284
 30
0.0000
  0
VERTEX
  8
0
 10
544.8726
 20
402.0591
 30
0.0000
  0
VERTEX
  8
0
 10
544.9012
 20
402.5214
 30
0.0000
  0
SEQEND
  0
POLYLINE
  6
continous
  8
BYBLOCK
 70
0
 66
1
  0
VERTEX
  8
0
 10
473.3326
 20
362.5214
 30
0.0000
  0
VERTEX
  8
0
 10
473.4056
 20
361.7833
 30
0.0000
  0
VERTEX
  8
0
 10
473.6231
 20
361.0596
 30
0.0000
  0
VERTEX
  8
0
 10
473.9810
 20
360.3643
 30
0.0000
  0
VERTEX
  8
0
 10
474.4723
 20
359.7110
 30
0.0000
  0
VERTEX
  8
0
 10
475.0873
 20
359.1125
 30
0.0000
  0
VERTEX
  8
0
 10
475.8141
 20
358.5802
 30
0.0000
  0
VERTEX
  8
0
 10
476.6387
 20
358.1247
 30
0.0000
  0
VERTEX
  8
0
 10
477.5448
 20
357.7548
 30
0.0000
  0
VERTEX
  8
0
 10
478.5150
 20
357.4776
 30
0.0000
  0
VERTEX
  8
0
 10
479.6594
 20
357.2833
 30
0.0000
  0
VERTEX
  8
0
 10
480.8326
 20
357.2181
 30
0.0000
  0
VERTEX
  8
0
 10
482.0059
 20
357.2833
 30
0.0000
  0
VERTEX
  8
0
 10
483.1502
 20
357.4776
 30
0.0000
  0
VERTEX
  8
0
 10
484.1204
 20
357.7548
 30
0.0000
  0
VERTEX
  8
0
 10
485.0266
 20
358.1247
 30
0.0000
  0
VERTEX
  8
0
 10
485.8511
 20
358.5802
 30
0.0000
  0
VERTEX
  8
0
 10
486.1359
 20
358.7714
 30
0.0000
  0
SEQEND
  0
POLYLINE
  6
continous
  8
BYBLOCK
 70
0
 66
1
  0
VERTEX
  8
0
 10
475.5293
 20
366.2714
 30
0.0000
  0
VERTEX
  8
0
 10
474.8428
 20
365.7130
 30
0.0000
  0
VERTEX
  8
0
 10
474.2730
 20
365.0924
 30
0.0000
  0
VERTEX
  8
0
 10
473.8308
 20
364.4219
 30
0.0000
  0
VERTEX
  8
0
 10
473.5248
 20
363.7143
 30
0.0000
  0
VERTEX
  8
0
 10
473.3612
 20
362.9836
 30
0.0000
  0
VERTEX
  8
0
 10
473.3326
 20
362.5214
 30
0.0000
  0
SEQEND
  0
POLYLINE
  6
continous
  8
BYBLOCK
 70
0
 66
1
  0
VERTEX
  8
0
 10
488.3326
 20
362.5214
 30
0.0000
  0
VERTEX
  8
0
 10
488.2596
 20
363.2594
 30
0.0000
  0
VERTEX
  8
0
 10
488.0421
 20
363.9831
 30
0.0000
  0
VERTEX
  8
0
 10
487.6842
 20
364.6784
 30
0.0000
  0
VERTEX
  8
0
 10
487.1930
 20
365.3317
 30
0.0000
  0
VERTEX
  8
0
 10
486.5779
 20
365.9302
 30
0.0000
  0
VERTEX
  8
0
 10
485.8511
 20
366.4625
 30
0.0000
  0
VERTEX
  8
0
 10
485.0266
 20
366.9180
 30
0.0000
  0
VERTEX
  8
0
 10
484.1204
 20
367.2879
 30
0.0000
  0
VERTEX
  8
0
 10
483.1502
 20
367.5651
 30
0.0000
  0
VERTEX
  8
0
 10
482.0059
 20
367.7594
 30
0.0000
  0
VERTEX
  8
0
 10
480.8326
 20
367.8247
 30
0.0000
  0
VERTEX
  8
0
 10
479.6594
 20
367.7594
 30
0.0000
  0
VERTEX
  8
0
 10
478.5150
 20
367.5651
 30
0.0000
  0
VERTEX
  8
0
 10
477.5448
 20
367.2879
 30
0.0000
  0
VERTEX
  8
0
 10
476.6387
 20
366.9180
 30
0.0000
  0
VERTEX
  8
0
 10
475.8141
 20
366.4625
 30
0.0000
  0
VERTEX
  8
0
 10
475.5293
 20
366.2714
 30
0.0000
  0
SEQEND
  0
POLYLINE
  6
continous
  8
BYBLOCK
 70
0
 66
1
  0
VERTEX
  8
0
 10
486.1359
 20
358.7714
 30
0.0000
  0
VERTEX
  8
0
 10
486.8224
 20
359.3297
 30
0.0000
  0
VERTEX
  8
0
 10
487.3923
 20
359.9503
 30
0.0000
  0
VERTEX
  8
0
 10
487.8345
 20
360.6208
 30
0.0000
  0
VERTEX
  8
0
 10
488.1404
 20
361.3284
 30
0.0000
  0
VERTEX
  8
0
 10
488.3041
 20
362.0591
 30
0.0000
  0
VERTEX
  8
0
 10
488.3326
 20
362.5214
 30
0.0000
  0
SEQEND
  0
POLYLINE
  6
continous
  8
BYBLOCK
 70
0
 66
1
  0
VERTEX
  8
0
 10
416.7641
 20
322.5214
 30
0.0000
  0
VERTEX
  8
0
 10
416.8371
 20
321.7833
 30
0.0000
  0
VERTEX
  8
0
 10
417.0546
 20
321.0596
 30
0.0000
  0
VERTEX
  8
0
 10
417.4125
 20
320.3643
 30
0.0000
  0
VERTEX
  8
0
 10
417.9037
 20
319.7110
 30
0.0000
  0
VERTEX
  8
0
 10
418.5187
 20
319.1125
 30
0.0000
  0
VERTEX
  8
0
 10
419.2456
 20
318.5802
 30
0.0000
  0
VERTEX
  8
0
 10
420.0701
 20
318.1247
 30
0.0000
  0
VERTEX
  8
0
 10
420.9763
 20
317.7548
 30
0.0000
  0
VERTEX
  8
0
 10
421.9464
 20
317.4776
 30
0.0000
  0
VERTEX
  8
0
 10
423.0908
 20
317.2833
 30
0.0000
  0
VERTEX
  8
0
 10
424.2641
 20
317.2181
 30
0.0000
  0
VERTEX
  8
0
 10
425.4373
 20
317.2833
 30
0.0000
  0
VERTEX
  8
0
 10
426.5817
 20
317.4776
 30
0.0000
  0
VERTEX
  8
0
 10
427.5519
 20
317.7548
 30
0.0000
  0
VERTEX
  8
0
 10
428.4580
 20
318.1247
 30
0.0000
  0
VERTEX
  8
0
 10
429.2825
 20
318.5802
 30
0.0000
  0
VERTEX
  8
0
 10
429.5674
 20
318.7714
 30
0.0000
  0
SEQEND
  0
POLYLINE
  6
continous
  8
BYBLOCK
 70
0
 66
1
  0
VERTEX
  8
0
 10
418.9608
 20
326.2714
 30
0.0000
  0
VERTEX
  8
0
 10
418.2743
 20
325.7130
 30
0.0000
  0
VERTEX
  8
0
 10
417.7044
 20
325.0924
 30
0.0000
  0
VERTEX
  8
0
 10
417.2622
 20
324.4219
 30
0.0000
  0
VERTEX
  8
0
 10
416.9563
 20
323.7143
 30
0.0000
  0
VERTEX
  8
0
 10
416.7926
 20
322.9836
 30
0.0000
  0
VERTEX
  8
0
 10
416.7641
 20
322.5214
 30
0.0000
  0
SEQEND
  0
POLYLINE
  6
continous
  8
BYBLOCK
 70
0
 66
1
  0
VERTEX
  8
0
 10
431.7641
 20
322.5214
 30
0.0000
  0
VERTEX
  8
0
 10
431.6911
 20
323.2594
 30
0.0000
  0
VERTEX
  8
0
 10
431.4735
 20
323.9831
 30
0.0000
  0
VERTEX
  8
0
 10
431.1157
 20
324.6784
 30
0.0000
  0
VERTEX
  8
0
 10
430.6244
 20
325.3317
 30
0.0000
  0
VERTEX
  8
0
 10
430.0094
 20
325.9302
 30
0.0000
  0
VERTEX
  8
0
 10
429.2825
 20
326.4625
 30
0.0000
  0
VERTEX
  8
0
 10
428.4580
 20
326.9180
 30
0.0000
  0
VERTEX
  8
0
 10
427.5519
 20
327.2879
 30
0.0000
  0
VERTEX
  8
0
 10
426.5817
 20
327.5651
 30
0.0000
  0
VERTEX
  8
0
 10
425.4373
 20
327.7594
 30
0.0000
  0
VERTEX
  8
0
 10
424.2641
 20
327.8247
 30
0.0000
  0
VERTEX
  8
0
 10
423.0908
 20
327.7594
 30
0.0000
  0
VERTEX
  8
0
 10
421.9464
 20
327.5651
 30
0.0000
  0
VERTEX
  8
0
 10
420.9763
 20
327.2879
 30
0.0000
  0
VERTEX
  8
0
 10
420.0701
 20
326.9180
 30
0.0000
  0
VERTEX
  8
0
 10
419.2456
 20
326.4625
 30
0.0000
  0
VERTEX
  8
0
 10
418.9608
 20
326.2714
 30
0.0000
  0
SEQEND
  0
POLYLINE
  6
continous
  8
BYBLOCK
 70
0
 66
1
  0
VERTEX
  8
0
 10
429.5674
 20
318.7714
 30
0.0000
  0
VERTEX
  8
0
 10
430.2538
 20
319.3297
 30
0.0000
  0
VERTEX
  8
0
 10
430.8237
 20
319.9503
 30
0.0000
  0
VERTEX
  8
0
 10
431.2659
 20
320.6208
 30
0.0000
  0
VERTEX
  8
0
 10
431.5718
 20
321.3284
 30
0.0000
  0
VERTEX
  8
0
 10
431.7355
 20
322.0591
 30
0.0000
  0
VERTEX
  8
0
 10
431.7641
 20
322.5214
 30
0.0000
  0
SEQEND
  0
POLYLINE
  6
continous
  8
BYBLOCK
 70
0
 66
1
  0
VERTEX
  8
0
 10
360.1955
 20
282.5214
 30
0.0000
  0
VERTEX
  8
0
 10
360.2685
 20
281.7833
 30
0.0000
  0
VERTEX
  8
0
 10
360.4861
 20
281.0596
 30
0.0000
  0
VERTEX
  8
0
 10
360.8439
 20
280.3643
 30
0.0000
  0
VERTEX
  8
0
 10
361.3352
 20
279.7110
 30
0.0000
  0
VERTEX
  8
0
 10
361.9502
 20
279.1125
 30
0.0000
  0
VERTEX
  8
0
 10
362.6770
 20
278.5802
 30
0.0000
  0
VERTEX
  8
0
 10
363.5016
 20
278.1247
 30
0.0000
  0
VERTEX
  8
0
 10
364.4077
 20
277.7548
 30
0.0000
  0
VERTEX
  8
0
 10
365.3779
 20
277.4776
 30
0.0000
  0
VERTEX
  8
0
 10
366.5223
 20
277.2833
 30
0.0000
  0
VERTEX
  8
0
 10
367.6955
 20
277.2181
 30
0.0000
  0
VERTEX
  8
0
 10
368.8688
 20
277.2833
 30
0.0000
  0
VERTEX
  8
0
 10
370.0132
 20
277.4776
 30
0.0000
  0
VERTEX
  8
0
 10
370.9833
 20
277.7548
 30
0.0000
  0
VERTEX
  8
0
 10
371.8895
 20
278.1247
 30
0.0000
  0
VERTEX
  8
0
 10
372.7140
 20
278.5802
 30
0.0000
  0
VERTEX
  8
0
 10
372.9988
 20
278.7714
 30
0.0000
  0
SEQEND
  0
POLYLINE
  6
continous
  8
BYBLOCK
 70
0
 66
1
  0
VERTEX
  8
0
 10
362.3922
 20
286.2714
 30
0.0000
  0
VERTEX
  8
0
 10
361.7058
 20
285.7130
 30
0.0000
  0
VERTEX
  8
0
 10
361.1359
 20
285.0924
 30
0.0000
  0
VERTEX
  8
0
 10
360.6937
 20
284.4219
 30
0.0000
  0
VERTEX
  8
0
 10
360.3878
 20
283.7143
 30
0.0000
  0
VERTEX
  8
0
 10
360.2241
 20
282.9836
 30
0.0000
  0
VERTEX
  8
0
 10
360.1955
 20
282.5214
 30
0.0000
  0
SEQEND
  0
POLYLINE
  6
continous
  8
BYBLOCK
 70
0
 66
1
  0
VERTEX
  8
0
 10
375.1955
 20
282.5214
 30
0.0000
  0
VERTEX
  8
0
 10
375.1225
 20
283.2594
 30
0.0000
  0
VERTEX
  8
0
 10
374.9050
 20
283.9831
 30
0.0000
  0
VERTEX
  8
0
 10
374.5471
 20
284.6784
 30
0.0000
  0
VERTEX
  8
0
 10
374.0559
 20
285.3317
 30
0.0000
  0
VERTEX
  8
0
 10
373.4409
 20
285.9302
 30
0.0000
  0
VERTEX
  8
0
 10
372.7140
 20
286.4625
 30
0.0000
  0
VERTEX
  8
0
 10
371.8895
 20
286.9180
 30
0.0000
  0
VERTEX
  8
0
 10
370.9833
 20
287.2879
 30
0.0000
  0
VERTEX
  8
0
 10
370.0132
 20
287.5651
 30
0.0000
  0
VERTEX
  8
0
 10
368.8688
 20
287.7594
 30
0.0000
  0
VERTEX
  8
0
 10
367.6955
 20
287.8247
 30
0.0000
  0
VERTEX
  8
0
 10
366.5223
 20
287.7594
 30
0.0000
  0
VERTEX
  8
0
 10
365.3779
 20
287.5651
 30
0.0000
  0
VERTEX
  8
0
 10
364.4077
 20
287.2879
 30
0.0000
  0
VERTEX
  8
0
 10
363.5016
 20
286.9180
 30
0.0000
  0
VERTEX
  8
0
 10
362.6770
 20
286.4625
 30
0.0000
  0
VERTEX
  8
0
 10
362.3922
 20
286.2714
 30
0.0000
  0
SEQEND
  0
POLYLINE
  6
continous
  8
BYBLOCK
 70
0
 66
1
  0
VERTEX
  8
0
 10
372.9988
 20
278.7714
 30
0.0000
  0
VERTEX
  8
0
 10
373.6853
 20
279.3297
 30
0.0000
  0
VERTEX
  8
0
 10
374.2552
 20
279.9503
 30
0.0000
  0
VERTEX
  8
0
 10
374.6974
 20
280.6208
 30
0.0000
  0
VERTEX
  8
0
 10
375.0033
 20
281.3284
 30
0.0000
  0
VERTEX
  8
0
 10
375.1670
 20
282.0591
 30
0.0000
  0
VERTEX
  8
0
 10
375.1955
 20
282.5214
 30
0.0000
  0
SEQEND
  0
POLYLINE
  6
continous
  8
BYBLOCK
 70
0
 66
1
  0
VERTEX
  8
0
 10
303.6270
 20
242.5214
 30
0.0000
  0
VERTEX
  8
0
 10
303.7000
 20
241.7833
 30
0.0000
  0
VERTEX
  8
0
 10
303.9175
 20
241.0596
 30
0.0000
  0
VERTEX
  8
0
 10
304.2754
 20
240.3643
 30
0.0000
  0
VERTEX
  8
0
 10
304.7666
 20
239.7110
 30
0.0000
  0
VERTEX
  8
0
 10
305.3817
 20
239.1125
 30
0.0000
  0
VERTEX
  8
0
 10
306.1085
 20
238.5802
 30
0.0000
  0
VERTEX
  8
0
 10
306.9330
 20
238.1247
 30
0.0000
  0
VERTEX
  8
0
 10
307.8392
 20
237.7548
 30
0.0000
  0
VERTEX
  8
0
 10
308.8094
 20
237.4776
 30
0.0000
  0
VERTEX
  8
0
 10
309.9537
 20
237.2833
 30
0.0000
  0
VERTEX
  8
0
 10
311.1270
 20
237.2181
 30
0.0000
  0
VERTEX
  8
0
 10
312.3002
 20
237.2833
 30
0.0000
  0
VERTEX
  8
0
 10
313.4446
 20
237.4776
 30
0.0000
  0
VERTEX
  8
0
 10
314.4148
 20
237.7548
 30
0.0000
  0
VERTEX
  8
0
 10
315.3209
 20
238.1247
 30
0.0000
  0
VERTEX
  8
0
 10
316.1455
 20
238.5802
 30
0.0000
  0
VERTEX
  8
0
 10
316.4303
 20
238.7714
 30
0.0000
  0
SEQEND
  0
POLYLINE
  6
continous
  8
BYBLOCK
 70
0
 66
1
  0
VERTEX
  8
0
 10
305.8237
 20
246.2714
 30
0.0000
  0
VERTEX
  8
0
 10
305.1372
 20
245.7130
 30
0.0000
  0
VERTEX
  8
0
 10
304.5673
 20
245.0924
 30
0.0000
  0
VERTEX
  8
0
 10
304.1251
 20
244.4219
 30
0.0000
  0
VERTEX
  8
0
 10
303.8192
 20
243.7143
 30
0.0000
  0
VERTEX
  8
0
 10
303.6555
 20
242.9836
 30
0.0000
  0
VERTEX
  8
0
 10
303.6270
 20
242.5214
 30
0.0000
  0
SEQEND
  0
POLYLINE
  6
continous
  8
BYBLOCK
 70
0
 66
1
  0
VERTEX
  8
0
 10
318.6270
 20
242.5214
 30
0.0000
  0
VERTEX
  8
0
 10
318.5540
 20
243.2594
 30
0.0000
  0
VERTEX
  8
0
 10
318.3364
 20
243.9831
 30
0.0000
  0
VERTEX
  8
0
 10
317.9786
 20
244.6784
 30
0.0000
  0
VERTEX
  8
0
 10
317.4873
 20
245.3317
 30
0.0000
  0
VERTEX
  8
0
 10
316.8723
 20
245.9302
 30
0.0000
  0
VERTEX
  8
0
 10
316.1455
 20
246.4625
 30
0.0000
  0
VERTEX
  8
0
 10
315.3209
 20
246.9180
 30
0.0000
  0
VERTEX
  8
0
 10
314.4148
 20
247.2879
 30
0.0000
  0
VERTEX
  8
0
 10
313.4446
 20
247.5651
 30
0.0000
  0
VERTEX
  8
0
 10
312.3002
 20
247.7594
 30
0.0000
  0
VERTEX
  8
0
 10
311.1270
 20
247.8247
 30
0.0000
  0
VERTEX
  8
0
 10
309.9537
 20
247.7594
 30
0.0000
  0
VERTEX
  8
0
 10
308.8094
 20
247.5651
 30
0.0000
  0
VERTEX
  8
0
 10
307.8392
 20
247.2879
 30
0.0000
  0
VERTEX
  8
0
 10
306.9330
 20
246.9180
 30
0.0000
  0
VERTEX
  8
0
 10
306.1085
 20
246.4625
 30
0.0000
  0
VERTEX
  8
0
 10
305.8237
 20
246.2714
 30
0.0000
  0
SEQEND
  0
POLYLINE
  6
continous
  8
BYBLOCK
 70
0
 66
1
  0
VERTEX
  8
0
 10
316.4303
 20
238.7714
 30
0.0000
  0
VERTEX
  8
0
 10
317.1168
 20
239.3297
 30
0.0000
  0
VERTEX
  8
0
 10
317.6866
 20
239.9503
 30
0.0000
  0
VERTEX
  8
0
 10
318.1288
 20
240.6208
 30
0.0000
  0
VERTEX
  8
0
 10
318.4348
 20
241.3284
 30
0.0000
  0
VERTEX
  8
0
 10
318.5984
 20
242.0591
 30
0.0000
  0
VERTEX
  8
0
 10
318.6270
 20
242.5214
 30
0.0000
  0
SEQEND
  0
POLYLINE
  6
continous
  8
BYBLOCK
 70
0
 66
1
  0
VERTEX
  8
0
 10
247.0584
 20
202.5214
 30
0.0000
  0
VERTEX
  8
0
 10
247.1314
 20
201.7833
 30
0.0000
  0
VERTEX
  8
0
 10
247.3490
 20
201.0596
 30
0.0000
  0
VERTEX
  8
0
 10
247.7069
 20
200.3643
 30
0.0000
  0
VERTEX
  8
0
 10
248.1981
 20
199.7110
 30
0.0000
  0
VERTEX
  8
0
 10
248.8131
 20
199.1125
 30
0.0000
  0
VERTEX
  8
0
 10
249.5400
 20
198.5802
 30
0.0000
  0
VERTEX
  8
0
 10
250.3645
 20
198.1247
 30
0.0000
  0
VERTEX
  8
0
 10
251.2707
 20
197.7548
 30
0.0000
  0
VERTEX
  8
0
 10
252.2408
 20
197.4776
 30
0.0000
  0
VERTEX
  8
0
 10
253.3852
 20
197.2833
 30
0.0000
  0
VERTEX
  8
0
 10
254.5584
 20
197.2181
 30
0.0000
  0
VERTEX
  8
0
 10
255.7317
 20
197.2833
 30
0.0000
  0
VERTEX
  8
0
 10
256.8761
 20
197.4776
 30
0.0000
  0
VERTEX
  8
0
 10
257.8462
 20
197.7548
 30
0.0000
  0
VERTEX
  8
0
 10
258.7524
 20
198.1247
 30
0.0000
  0
VERTEX
  8
0
 10
259.5769
 20
198.5802
 30
0.0000
  0
VERTEX
  8
0
 10
259.8617
 20
198.7714
 30
0.0000
  0
SEQEND
  0
POLYLINE
  6
continous
  8
BYBLOCK
 70
0
 66
1
  0
VERTEX
  8
0
 10
249.2551
 20
206.2714
 30
0.0000
  0
VERTEX
  8
0
 10
248.5687
 20
205.7130
 30
0.0000
  0
VERTEX
  8
0
 10
247.9988
 20
205.0924
 30
0.0000
  0
VERTEX
  8
0
 10
247.5566
 20
204.4219
 30
0.0000
  0
VERTEX
  8
0
 10
247.2507
 20
203.7143
 30
0.0000
  0
VERTEX
  8
0
 10
247.0870
 20
202.9836
 30
0.0000
  0
VERTEX
  8
0
 10
247.0584
 20
202.5214
 30
0.0000
  0
SEQEND
  0
POLYLINE
  6
continous
  8
BYBLOCK
 70
0
 66
1
  0
VERTEX
  8
0
 10
262.0584
 20
202.5214
 30
0.0000
  0
VERTEX
  8
0
 10
261.9855
 20
203.2594
 30
0.0000
  0
VERTEX
  8
0
 10
261.7679
 20
203.9831
 30
0.0000
  0
VERTEX
  8
0
 10
261.4100
 20
204.6784
 30
0.0000
  0
VERTEX
  8
0
 10
260.9188
 20
205.3317
 30
0.0000
  0
VERTEX
  8
0
 10
260.3038
 20
205.9302
 30
0.0000
  0
VERTEX
  8
0
 10
259.5769
 20
206.4625
 30
0.0000
  0
VERTEX
  8
0
 10
258.7524
 20
206.9180
 30
0.0000
  0
VERTEX
  8
0
 10
257.8462
 20
207.2879
 30
0.0000
  0
VERTEX
  8
0
 10
256.8761
 20
207.5651
 30
0.0000
  0
VERTEX
  8
0
 10
255.7317
 20
207.7594
 30
0.0000
  0
VERTEX
  8
0
 10
254.5584
 20
207.8247
 30
0.0000
  0
VERTEX
  8
0
 10
253.3852
 20
207.7594
 30
0.0000
  0
VERTEX
  8
0
 10
252.2408
 20
207.5651
 30
0.0000
  0
VERTEX
  8
0
 10
251.2707
 20
207.2879
 30
0.0000
  0
VERTEX
  8
0
 10
250.3645
 20
206.9180
 30
0.0000
  0
VERTEX
  8
0
 10
249.5400
 20
206.4625
 30
0.0000
  0
VERTEX
  8
0
 10
249.2551
 20
206.2714
 30
0.0000
  0
SEQEND
  0
POLYLINE
  6
continous
  8
BYBLOCK
 70
0
 66
1
  0
VERTEX
  8
0
 10
259.8617
 20
198.7714
 30
0.0000
  0
VERTEX
  8
0
 10
260.5482
 20
199.3297
 30
0.0000
  0
VERTEX
  8
0
 10
261.1181
 20
199.9503
 30
0.0000
  0
VERTEX
  8
0
 10
261.5603
 20
200.6208
 30
0.0000
  0
VERTEX
  8
0
 10
261.8662
 20
201.3284
 30
0.0000
  0
VERTEX
  8
0
 10
262.0299
 20
202.0591
 30
0.0000
  0
VERTEX
  8
0
 10
262.0584
 20
202.5214
 30
0.0000
  0
SEQEND
  0
POLYLINE
  6
continous
  8
BYBLOCK
 70
0
 66
1
  0
VERTEX
  8
0
 10
190.4899
 20
162.5214
 30
0.0000
  0
VERTEX
  8
0
 10
190.5629
 20
161.7833
 30
0.0000
  0
VERTEX
  8
0
 10
190.7804
 20
161.0596
 30
0.0000
  0
VERTEX
  8
0
 10
191.1383
 20
160.3643
 30
0.0000
  0
VERTEX
  8
0
 10
191.6295
 20
159.7110
 30
0.0000
  0
VERTEX
  8
0
 10
192.2446
 20
159.1125
 30
0.0000
  0
VERTEX
  8
0
 10
192.9714
 20
158.5802
 30
0.0000
  0
VERTEX
  8
0
 10
193.7960
 20
158.1247
 30
0.0000
  0
VERTEX
  8
0
 10
194.7021
 20
157.7548
 30
0.0000
  0
VERTEX
  8
0
 10
195.6723
 20
157.4776
 30
0.0000
  0
VERTEX
  8
0
 10
196.8166
 20
157.2833
 30
0.0000
  0
VERTEX
  8
0
 10
197.9899
 20
157.2181
 30
0.0000
  0
VERTEX
  8
0
 10
199.1632
 20
157.2833
 30
0.0000
  0
VERTEX
  8
0
 10
200.3075
 20
157.4776
 30
0.0000
  0
VERTEX
  8
0
 10
201.2777
 20
157.7548
 30
0.0000
  0
VERTEX
  8
0
 10
202.1838
 20
158.1247
 30
0.0000
  0
VERTEX
  8
0
 10
203.0084
 20
158.5802
 30
0.0000
  0
VERTEX
  8
0
 10
203.2932
 20
158.7714
 30
0.0000
  0
SEQEND
  0
POLYLINE
  6
continous
  8
BYBLOCK
 70
0
 66
1
  0
VERTEX
  8
0
 10
192.6866
 20
166.2714
 30
0.0000
  0
VERTEX
  8
0
 10
192.0001
 20
165.7130
 30
0.0000
  0
VERTEX
  8
0
 10
191.4303
 20
165.0924
 30
0.0000
  0
VERTEX
  8
0
 10
190.9880
 20
164.4219
 30
0.0000
  0
VERTEX
  8
0
 10
190.6821
 20
163.7143
 30
0.0000
  0
VERTEX
  8
0
 10
190.5184
 20
162.9836
 30
0.0000
  0
VERTEX
  8
0
 10
190.4899
 20
162.5214
 30
0.0000
  0
SEQEND
  0
POLYLINE
  6
continous
  8
BYBLOCK
 70
0
 66
1
  0
VERTEX
  8
0
 10
205.4899
 20
162.5214
 30
0.0000
  0
VERTEX
  8
0
 10
205.4169
 20
163.2594
 30
0.0000
  0
VERTEX
  8
0
 10
205.1994
 20
163.9831
 30
0.0000
  0
VERTEX
  8
0
 10
204.8415
 20
164.6784
 30
0.0000
  0
VERTEX
  8
0
 10
204.3503
 20
165.3317
 30
0.0000
  0
VERTEX
  8
0
 10
203.7352
 20
165.9302
 30
0.0000
  0
VERTEX
  8
0
 10
203.0084
 20
166.4625
 30
0.0000
  0
VERTEX
  8
0
 10
202.1838
 20
166.9180
 30
0.0000
  0
VERTEX
  8
0
 10
201.2777
 20
167.2879
 30
0.0000
  0
VERTEX
  8
0
 10
200.3075
 20
167.5651
 30
0.0000
  0
VERTEX
  8
0
 10
199.1632
 20
167.7594
 30
0.0000
  0
VERTEX
  8
0
 10
197.9899
 20
167.8247
 30
0.0000
  0
VERTEX
  8
0
 10
196.8166
 20
167.7594
 30
0.0000
  0
VERTEX
  8
0
 10
195.6723
 20
167.5651
 30
0.0000
  0
VERTEX
  8
0
 10
194.7021
 20
167.2879
 30
0.0000
  0
VERTEX
  8
0
 10
193.7960
 20
166.9180
 30
0.0000
  0
VERTEX
  8
0
 10
192.9714
 20
166.4625
 30
0.0000
  0
VERTEX
  8
0
 10
192.6866
 20
166.2714
 30
0.0000
  0
SEQEND
  0
POLYLINE
  6
continous
  8
BYBLOCK
 70
0
 66
1
  0
VERTEX
  8
0
 10
203.2932
 20
158.7714
 30
0.0000
  0
VERTEX
  8
0
 10
203.9797
 20
159.3297
 30
0.0000
  0
VERTEX
  8
0
 10
204.5495
 20
159.9503
 30
0.0000
  0
VERTEX
  8
0
 10
204.9918
 20
160.6208
 30
0.0000
  0
VERTEX
  8
0
 10
205.2977
 20
161.3284
 30
0.0000
  0
VERTEX
  8
0
 10
205.4614
 20
162.0591
 30
0.0000
  0
VERTEX
  8
0
 10
205.4899
 20
162.5214
 30
0.0000
  0
SEQEND
  0
POLYLINE
  6
continous
  8
BYBLOCK
 70
0
 66
1
  0
VERTEX
  8
0
 10
133.9214
 20
122.5214
 30
0.0000
  0
VERTEX
  8
0
 10
133.9943
 20
121.7833
 30
0.0000
  0
VERTEX
  8
0
 10
134.2119
 20
121.0596
 30
0.0000
  0
VERTEX
  8
0
 10
134.5698
 20
120.3643
 30
0.0000
  0
VERTEX
  8
0
 10
135.0610
 20
119.7110
 30
0.0000
  0
VERTEX
  8
0
 10
135.6760
 20
119.1125
 30
0.0000
  0
VERTEX
  8
0
 10
136.4029
 20
118.5802
 30
0.0000
  0
VERTEX
  8
0
 10
137.2274
 20
118.1247
 30
0.0000
  0
VERTEX
  8
0
 10
138.1336
 20
117.7548
 30
0.0000
  0
VERTEX
  8
0
 10
139.1037
 20
117.4776
 30
0.0000
  0
VERTEX
  8
0
 10
140.2481
 20
117.2833
 30
0.0000
  0
VERTEX
  8
0
 10
141.4214
 20
117.2181
 30
0.0000
  0
VERTEX
  8
0
 10
142.5946
 20
117.2833
 30
0.0000
  0
VERTEX
  8
0
 10
143.7390
 20
117.4776
 30
0.0000
  0
VERTEX
  8
0
 10
144.7091
 20
117.7548
 30
0.0000
  0
VERTEX
  8
0
 10
145.6153
 20
118.1247
 30
0.0000
  0
VERTEX
  8
0
 10
146.4398
 20
118.5802
 30
0.0000
  0
VERTEX
  8
0
 10
146.7247
 20
118.7714
 30
0.0000
  0
SEQEND
  0
POLYLINE
  6
continous
  8
BYBLOCK
 70
0
 66
1
  0
VERTEX
  8
0
 10
136.1181
 20
126.2714
 30
0.0000
  0
VERTEX
  8
0
 10
135.4316
 20
125.7130
 30
0.0000
  0
VERTEX
  8
0
 10
134.8617
 20
125.0924
 30
0.0000
  0
VERTEX
  8
0
 10
134.4195
 20
124.4219
 30
0.0000
  0
VERTEX
  8
0
 10
134.1136
 20
123.7143
 30
0.0000
  0
VERTEX
  8
0
 10
133.9499
 20
122.9836
 30
0.0000
  0
VERTEX
  8
0
 10
133.9214
 20
122.5214
 30
0.0000
  0
SEQEND
  0
POLYLINE
  6
continous
  8
BYBLOCK
 70
0
 66
1
  0
VERTEX
  8
0
 10
148.9214
 20
122.5214
 30
0.0000
  0
VERTEX
  8
0
 10
148.8484
 20
123.2594
 30
0.0000
  0
VERTEX
  8
0
 10
148.6308
 20
123.9831
 30
0.0000
  0
VERTEX
  8
0
 10
148.2729
 20
124.6784
 30
0.0000
  0
VERTEX
  8
0
 10
147.7817
 20
125.3317
 30
0.0000
  0
VERTEX
  8
0
 10
147.1667
 20
125.9302
 30
0.0000
  0
VERTEX
  8
0
 10
146.4398
 20
126.4625
 30
0.0000
  0
VERTEX
  8
0
 10
145.6153
 20
126.9180
 30
0.0000
  0
VERTEX
  8
0
 10
144.7091
 20
127.2879
 30
0.0000
  0
VERTEX
  8
0
 10
143.7390
 20
127.5651
 30
0.0000
  0
VERTEX
  8
0
 10
142.5946
 20
127.7594
 30
0.0000
  0
VERTEX
  8
0
 10
141.4214
 20
127.8247
 30
0.0000
  0
VERTEX
  8
0
 10
140.2481
 20
127.7594
 30
0.0000
  0
VERTEX
  8
0
 10
139.1037
 20
127.5651
 30
0.0000
  0
VERTEX
  8
0
 10
138.1336
 20
127.2879
 30
0.0000
  0
VERTEX
  8
0
 10
137.2274
 20
126.9180
 30
0.0000
  0
VERTEX
  8
0
 10
136.4029
 20
126.4625
 30
0.0000
  0
VERTEX
  8
0
 10
136.1181
 20
126.2714
 30
0.0000
  0
SEQEND
  0
POLYLINE
  6
continous
  8
BYBLOCK
 70
0
 66
1
  0
VERTEX
  8
0
 10
146.7247
 20
118.7714
 30
0.0000
  0
VERTEX
  8
0
 10
147.4111
 20
119.3297
 30
0.0000
  0
VERTEX
  8
0
 10
147.9810
 20
119.9503
 30
0.0000
  0
VERTEX
  8
0
 10
148.4232
 20
120.6208
 30
0.0000
  0
VERTEX
  8
0
 10
148.7291
 20
121.3284
 30
0.0000
  0
VERTEX
  8
0
 10
148.8928
 20
122.0591
 30
0.0000
  0
VERTEX
  8
0
 10
148.9214
 20
122.5214
 30
0.0000
  0
SEQEND
  0
POLYLINE
  6
continous
  8
BYBLOCK
 70
0
 66
1
  0
VERTEX
  8
0
 10
77.3528
 20
82.5214
 30
0.0000
  0
VERTEX
  8
0
 10
77.4258
 20
81.7833
 30
0.0000
  0
VERTEX
  8
0
 10
77.6434
 20
81.0596
 30
0.0000
  0
VERTEX
  8
0
 10
78.0012
 20
80.3643
 30
0.0000
  0
VERTEX
  8
0
 10
78.4925
 20
79.7110
 30
0.0000
  0
VERTEX
  8
0
 10
79.1075
 20
79.1125
 30
0.0000
  0
VERTEX
  8
0
 10
79.8343
 20
78.5802
 30
0.0000
  0
VERTEX
  8
0
 10
80.6589
 20
78.1247
 30
0.0000
  0
VERTEX
  8
0
 10
81.5650
 20
77.7548
 30
0.0000
  0
VERTEX
  8
0
 10
82.5352
 20
77.4776
 30
0.0000
  0
VERTEX
  8
0
 10
83.6796
 20
77.2833
 30
0.0000
  0
VERTEX
  8
0
 10
84.8528
 20
77.2181
 30
0.0000
  0
VERTEX
  8
0
 10
86.0261
 20
77.2833
 30
0.0000
  0
VERTEX
  8
0
 10
87.1704
 20
77.4776
 30
0.0000
  0
VERTEX
  8
0
 10
88.1406
 20
77.7548
 30
0.0000
  0
VERTEX
  8
0
 10
89.0468
 20
78.1247
 30
0.0000
  0
VERTEX
  8
0
 10
89.8713
 20
78.5802
 30
0.0000
  0
VERTEX
  8
0
 10
90.1561
 20
78.7714
 30
0.0000
  0
SEQEND
  0
POLYLINE
  6
continous
  8
BYBLOCK
 70
0
 66
1
  0
VERTEX
  8
0
 10
79.5495
 20
86.2714
 30
0.0000
  0
VERTEX
  8
0
 10
78.8630
 20
85.7130
 30
0.0000
  0
VERTEX
  8
0
 10
78.2932
 20
85.0924
 30
0.0000
  0
VERTEX
  8
0
 10
77.8510
 20
84.4219
 30
0.0000
  0
VERTEX
  8
0
 10
77.5450
 20
83.7143
 30
0.0000
  0
VERTEX
  8
0
 10
77.3814
 20
82.9836
 30
0.0000
  0
VERTEX
  8
0
 10
77.3528
 20
82.5214
 30
0.0000
  0
SEQEND
  0
POLYLINE
  6
continous
  8
BYBLOCK
 70
0
 66
1
  0
VERTEX
  8
0
 10
92.3528
 20
82.5214
 30
0.0000
  0
VERTEX
  8
0
 10
92.2798
 20
83.2594
 30
0.0000
  0
VERTEX
  8
0
 10
92.0623
 20
83.9831
 30
0.0000
  0
VERTEX
  8
0
 10
91.7044
 20
84.6784
 30
0.0000
  0
VERTEX
  8
0
 10
91.2132
 20
85.3317
 30
0.0000
  0
VERTEX
  8
0
 10
90.5981
 20
85.9302
 30
0.0000
  0
VERTEX
  8
0
 10
89.8713
 20
86.4625
 30
0.0000
  0
VERTEX
  8
0
 10
89.0468
 20
86.9180
 30
0.0000
  0
VERTEX
  8
0
 10
88.1406
 20
87.2879
 30
0.0000
  0
VERTEX
  8
0
 10
87.1704
 20
87.5651
 30
0.0000
  0
VERTEX
  8
0
 10
86.0261
 20
87.7594
 30
0.0000
  0
VERTEX
  8
0
 10
84.8528
 20
87.8247
 30
0.0000
  0
VERTEX
  8
0
 10
83.6796
 20
87.7594
 30
0.0000
  0
VERTEX
  8
0
 10
82.5352
 20
87.5651
 30
0.0000
  0
VERTEX
  8
0
 10
81.5650
 20
87.2879
 30
0.0000
  0
VERTEX
  8
0
 10
80.6589
 20
86.9180
 30
0.0000
  0
VERTEX
  8
0
 10
79.8343
 20
86.4625
 30
0.0000
  0
VERTEX
  8
0
 10
79.5495
 20
86.2714
 30
0.0000
  0
SEQEND
  0
POLYLINE
  6
continous
  8
BYBLOCK
 70
0
 66
1
  0
VERTEX
  8
0
 10
90.1561
 20
78.7714
 30
0.0000
  0
VERTEX
  8
0
 10
90.8426
 20
79.3297
 30
0.0000
  0
VERTEX
  8
0
 10
91.4125
 20
79.9503
 30
0.0000
  0
VERTEX
  8
0
 10
91.8547
 20
80.6208
 30
0.0000
  0
VERTEX
  8
0
 10
92.1606
 20
81.3284
 30
0.0000
  0
VERTEX
  8
0
 10
92.3243
 20
82.0591
 30
0.0000
  0
VERTEX
  8
0
 10
92.3528
 20
82.5214
 30
0.0000
  0
SEQEND
  0
LINE
  6
continous
  8
BYBLOCK
 10
13.4386
 20
17.0188
 30
0.0000
 11
-7.7817
 21
32.0239
 31
0.0000
  0
LINE
  6
continous
  8
BYBLOCK
 10
13.4386
 20
17.0188
 30
0.0000
 11
2836.2089
 21
2013.0188
 31
0.0000
  0
LINE
  6
continous
  8
BYBLOCK
 10
-7.7817
 20
32.0239
 30
0.0000
 11
-8.1317
 21
31.9214
 31
0.0000
  0
LINE
  6
continous
  8
BYBLOCK
 10
-8.1317
 20
31.9214
 30
0.0000
 11
2814.6385
 21
2027.9214
 31
0.0000
  0
LINE
  6
continous
  8
BYBLOCK
 10
-7.7817
 20
32.0239
 30
0.0000
 11
2814.9885
 21
2028.0239
 31
0.0000
  0
LINE
  6
continous
  8
BYBLOCK
 10
2814.9885
 20
2028.0239
 30
0.0000
 11
2814.6385
 21
2027.9214
 31
0.0000
  0
LINE
  6
continous
  8
BYBLOCK
 10
2818.0654
 20
2029.2457
 30
0.0000
 11
2814.6385
 21
2027.9214
 31
0.0000
  0
LINE
  6
continous
  8
BYBLOCK
 10
2837.6195
 20
1990.3485
 30
0.0000
 11
2837.6195
 21
1994.1202
 31
0.0000
  0
LINE
  6
continous
  8
BYBLOCK
 10
2839.8467
 20
1993.0227
 30
0.0000
 11
2837.6195
 21
1990.3485
 31
0.0000
  0
LINE
  6
continous
  8
BYBLOCK
 10
2837.6195
 20
1994.1202
 30
0.0000
 11
2836.5589
 21
1995.4826
 31
0.0000
  0
LINE
  6
continous
  8
BYBLOCK
 10
2839.8467
 20
1996.1982
 30
0.0000
 11
2837.6195
 21
1994.1202
 31
0.0000
  0
LINE
  6
continous
  8
BYBLOCK
 10
2836.5589
 20
1995.4826
 30
0.0000
 11
2836.5589
 21
1997.2167
 31
0.0000
  0
LINE
  6
continous
  8
BYBLOCK
 10
2838.7861
 20
1997.5606
 30
0.0000
 11
2836.5589
 21
1995.4826
 31
0.0000
  0
POLYLINE
  6
continous
  8
BYBLOCK
 70
0
 66
1
  0
VERTEX
  8
0
 10
2834.6542
 20
2000.7821
 30
0.0000
  0
VERTEX
  8
0
 10
2834.7116
 20
2000.2702
 30
0.0000
  0
VERTEX
  8
0
 10
2834.8649
 20
1999.7124
 30
0.0000
  0
VERTEX
  8
0
 10
2835.1315
 20
1999.0841
 30
0.0000
  0
VERTEX
  8
0
 10
2835.4894
 20
1998.4618
 30
0.0000
  0
VERTEX
  8
0
 10
2835.9207
 20
1997.8768
 30
0.0000
  0
VERTEX
  8
0
 10
2836.4036
 20
1997.3585
 30
0.0000
  0
VERTEX
  8
0
 10
2836.5589
 20
1997.2167
 30
0.0000
  0
SEQEND
  0
POLYLINE
  6
continous
  8
BYBLOCK
 70
0
 66
1
  0
VERTEX
  8
0
 10
2838.7861
 20
1999.1815
 30
0.0000
  0
VERTEX
  8
0
 10
2836.5589
 20
1997.2167
 30
0.0000
  0
SEQEND
  0
LINE
  6
continous
  8
BYBLOCK
 10
2834.6542
 20
2000.7821
 30
0.0000
 11
2833.9072
 21
2001.7417
 31
0.0000
  0
POLYLINE
  6
continous
  8
BYBLOCK
 70
0
 66
1
  0
VERTEX
  8
0
 10
2836.9093
 20
2002.8244
 30
0.0000
  0
VERTEX
  8
0
 10
2834.6542
 20
2000.7821
 30
0.0000
  0
SEQEND
  0
LINE
  6
continous
  8
BYBLOCK
 10
2833.9072
 20
2001.7417
 30
0.0000
 11
2833.9072
 21
2007.5713
 31
0.0000
  0
LINE
  6
continous
  8
BYBLOCK
 10
2836.1344
 20
2003.8197
 30
0.0000
 11
2833.9072
 21
2001.7417
 31
0.0000
  0
LINE
  6
continous
  8
BYBLOCK
 10
2836.5589
 20
2009.4463
 30
0.0000
 11
2836.5589
 21
2012.4214
 31
0.0000
  0
POLYLINE
  6
continous
  8
BYBLOCK
 70
0
 66
1
  0
VERTEX
  8
0
 10
2838.7861
 20
2012.3317
 30
0.0000
  0
VERTEX
  8
0
 10
2836.5589
 20
2009.4463
 30
0.0000
  0
SEQEND
  0
LINE
  6
continous
  8
BYBLOCK
 10
2838.7855
 20
2014.5944
 30
0.0000
 11
2836.5589
 21
2012.4214
 31
0.0000
  0
LINE
  6
continous
  8
BYBLOCK
 10
2836.5589
 20
2012.4214
 30
0.0000
 11
2836.2089
 21
2013.0188
 31
0.0000
  0
LINE
  6
continous
  8
BYBLOCK
 10
2836.2089
 20
2013.0188
 30
0.0000
 11
2814.9885
 21
2028.0239
 31
0.0000
  0
LINE
  6
continous
  8
BYBLOCK
 10
2818.0654
 20
2029.2457
 30
0.0000
 11
2814.9885
 21
2028.0239
 31
0.0000
  0
LINE
  6
continous
  8
BYBLOCK
 10
2838.7855
 20
2014.5944
 30
0.0000
 11
2836.2089
 21
2013.0188
 31
0.0000
  0
LINE
  6
continous
  8
BYBLOCK
 10
2839.8467
 20
1993.0227
 30
0.0000
 11
2839.8467
 21
1996.1982
 31
0.0000
  0
LINE
  6
continous
  8
BYBLOCK
 10
2839.8467
 20
1996.1982
 30
0.0000
 11
2838.7861
 21
1997.5606
 31
0.0000
  0
LINE
  6
continous
  8
BYBLOCK
 10
2838.7861
 20
1997.5606
 30
0.0000
 11
2838.7861
 21
1999.1815
 31
0.0000
  0
POLYLINE
  6
continous
  8
BYBLOCK
 70
0
 66
1
  0
VERTEX
  8
0
 10
2838.7861
 20
1999.1815
 30
0.0000
  0
VERTEX
  8
0
 10
2838.2503
 20
1999.8201
 30
0.0000
  0
VERTEX
  8
0
 10
2837.7791
 20
2000.5173
 30
0.0000
  0
VERTEX
  8
0
 10
2837.3924
 20
2001.2435
 30
0.0000
  0
VERTEX
  8
0
 10
2837.1066
 20
2001.9680
 30
0.0000
  0
VERTEX
  8
0
 10
2836.9437
 20
2002.6042
 30
0.0000
  0
VERTEX
  8
0
 10
2836.9093
 20
2002.8244
 30
0.0000
  0
SEQEND
  0
LINE
  6
continous
  8
BYBLOCK
 10
2836.9093
 20
2002.8244
 30
0.0000
 11
2836.1344
 21
2003.8197
 31
0.0000
  0
LINE
  6
continous
  8
BYBLOCK
 10
2836.1344
 20
2003.8197
 30
0.0000
 11
2836.1344
 21
2009.1462
 31
0.0000
  0
LINE
  6
continous
  8
BYBLOCK
 10
2838.7861
 20
2012.3317
 30
0.0000
 11
2838.7855
 21
2014.5944
 31
0.0000
  0
LINE
  6
continous
  8
BYBLOCK
 10
2838.7855
 20
2014.5944
 30
0.0000
 11
2818.0654
 21
2029.2457
 31
0.0000
  0
POLYLINE
  6
continous
  8
BYBLOCK
 70
0
 66
1
  0
VERTEX
  8
0
 10
22.9810
 20
46.2006
 30
0.0000
  0
VERTEX
  8
0
 10
22.3001
 20
45.6475
 30
0.0000
  0
VERTEX
  8
0
 10
21.7336
 20
45.0331
 30
0.0000
  0
VERTEX
  8
0
 10
21.2924
 20
44.3694
 30
0.0000
  0
VERTEX
  8
0
 10
20.9849
 20
43.6691
 30
0.0000
  0
VERTEX
  8
0
 10
20.8170
 20
42.9454
 30
0.0000
  0
VERTEX
  8
0
 10
20.7845
 20
42.4874
 30
0.0000
  0
SEQEND
  0
POLYLINE
  6
continous
  8
BYBLOCK
 70
0
 66
1
  0
VERTEX
  8
0
 10
35.7841
 20
42.4843
 30
0.0000
  0
VERTEX
  8
0
 10
35.7049
 20
43.2201
 30
0.0000
  0
VERTEX
  8
0
 10
35.4820
 20
43.9410
 30
0.0000
  0
VERTEX
  8
0
 10
35.1198
 20
44.6330
 30
0.0000
  0
VERTEX
  8
0
 10
34.6253
 20
45.2827
 30
0.0000
  0
VERTEX
  8
0
 10
34.0080
 20
45.8777
 30
0.0000
  0
VERTEX
  8
0
 10
33.2799
 20
46.4063
 30
0.0000
  0
VERTEX
  8
0
 10
32.4551
 20
46.8583
 30
0.0000
  0
VERTEX
  8
0
 10
31.5495
 20
47.2250
 30
0.0000
  0
VERTEX
  8
0
 10
30.4561
 20
47.5267
 30
0.0000
  0
VERTEX
  8
0
 10
29.3095
 20
47.7042
 30
0.0000
  0
VERTEX
  8
0
 10
28.1378
 20
47.7529
 30
0.0000
  0
VERTEX
  8
0
 10
26.9697
 20
47.6718
 30
0.0000
  0
VERTEX
  8
0
 10
25.8338
 20
47.4629
 30
0.0000
  0
VERTEX
  8
0
 10
24.8737
 20
47.1739
 30
0.0000
  0
VERTEX
  8
0
 10
23.9796
 20
46.7934
 30
0.0000
  0
VERTEX
  8
0
 10
23.1688
 20
46.3289
 30
0.0000
  0
VERTEX
  8
0
 10
22.9810
 20
46.2006
 30
0.0000
  0
SEQEND
  0
ENDBLK
  8
0
  0
ENDSEC
  0
SECTION
  2
ENTITIES
  0
INSERT
  8
REX_6
  2
_VIEW_CUT_Jan_16_22-24-07
 10
0.0000
 20
0.0000
 30
0.0000
  0
ENDSEC
  0
EOF
