  0
SECTION
  2
HEADER
  9
$ACADVER
  1
AC1009
  9
$INSBASE
 10
0.0
 20
0.0
 30
0.0
  9
$EXTMIN
 10
-301.213155
 20
-214.550235
 30
1.000000E+020
  9
$EXTMAX
 10
3129.640279
 20
2241.580047
 30
-1.000000E+020
  9
$LIMMIN
 10
0.0
 20
0.0
  9
$LIMMAX
 10
420.0
 20
297.0
  9
$ORTHOMODE
 70
     0
  9
$REGENMODE
 70
     1
  9
$FILLMODE
 70
     1
  9
$QTEXTMODE
 70
     0
  9
$MIRRTEXT
 70
     1
  9
$DRAGMODE
 70
     2
  9
$LTSCALE
 40
1.000000
  9
$OSMODE
 70
   103
  9
$ATTMODE
 70
     1
  9
$TEXTSIZE
 40
2.5
  9
$TRACEWID
 40
1.0
  9
$TEXTSTYLE
  7
STANDARD
  9
$CLAYER
  8
RAHM4
  9
$CELTYPE
  6
BYLAYER
  9
$CECOLOR
 62
   256
  9
$DIMSCALE
 40
1.0
  9
$DIMASZ
 40
2.5
  9
$DIMEXO
 40
0.625
  9
$DIMDLI
 40
3.75
  9
$DIMRND
 40
0.0
  9
$DIMDLE
 40
0.0
  9
$DIMEXE
 40
1.25
  9
$DIMTP
 40
0.0
  9
$DIMTM
 40
0.0
  9
$DIMTXT
 40
2.5
  9
$DIMCEN
 40
2.5
  9
$DIMTSZ
 40
0.0
  9
$DIMTOL
 70
     0
  9
$DIMLIM
 70
     0
  9
$DIMTIH
 70
     0
  9
$DIMTOH
 70
     0
  9
$DIMSE1
 70
     0
  9
$DIMSE2
 70
     0
  9
$DIMTAD
 70
     1
  9
$DIMZIN
 70
     8
  9
$DIMBLK
  1

  9
$DIMASO
 70
     1
  9
$DIMSHO
 70
     1
  9
$DIMPOST
  1

  9
$DIMAPOST
  1

  9
$DIMALT
 70
     0
  9
$DIMALTD
 70
     3
  9
$DIMALTF
 40
0.03937
  9
$DIMLFAC
 40
1.0
  9
$DIMTOFL
 70
     1
  9
$DIMTVP
 40
0.0
  9
$DIMTIX
 70
     0
  9
$DIMSOXD
 70
     0
  9
$DIMSAH
 70
     0
  9
$DIMBLK1
  1

  9
$DIMBLK2
  1

  9
$DIMSTYLE
  2
ISO-25
  9
$DIMCLRD
 70
     0
  9
$DIMCLRE
 70
     0
  9
$DIMCLRT
 70
     0
  9
$DIMTFAC
 40
1.0
  9
$DIMGAP
 40
0.625
  9
$LUNITS
 70
     2
  9
$LUPREC
 70
     4
  9
$SKETCHINC
 40
1.0
  9
$FILLETRAD
 40
10.0
  9
$AUNITS
 70
     0
  9
$AUPREC
 70
     0
  9
$MENU
  1
.
  9
$ELEVATION
 40
0.0
  9
$PELEVATION
 40
0.0
  9
$THICKNESS
 40
0.0
  9
$LIMCHECK
 70
     0
  9
$BLIPMODE
 70
     0
  9
$CHAMFERA
 40
10.0
  9
$CHAMFERB
 40
10.0
  9
$SKPOLY
 70
     0
  9
$TDCREATE
 40
2452830.438142
  9
$TDUPDATE
 40
2453952.51541
  9
$TDINDWG
 40
0.030794
  9
$TDUSRTIMER
 40
0.030789
  9
$USRTIMER
 70
     1
  9
$ANGBASE
 50
0.0
  9
$ANGDIR
 70
     0
  9
$PDMODE
 70
     0
  9
$PDSIZE
 40
0.0
  9
$PLINEWID
 40
0.0
  9
$COORDS
 70
     1
  9
$SPLFRAME
 70
     0
  9
$SPLINETYPE
 70
     6
  9
$SPLINESEGS
 70
     8
  9
$ATTDIA
 70
     0
  9
$ATTREQ
 70
     1
  9
$SURFTAB1
 70
     6
  9
$SURFTAB2
 70
     6
  9
$SURFTYPE
 70
     6
  9
$SURFU
 70
     6
  9
$SURFV
 70
     6
  9
$UCSNAME
  2

  9
$UCSORG
 10
0.0
 20
0.0
 30
0.0
  9
$UCSXDIR
 10
1.0
 20
0.0
 30
0.0
  9
$UCSYDIR
 10
0.0
 20
1.0
 30
0.0
  9
$PUCSNAME
  2

  9
$PUCSORG
 10
0.0
 20
0.0
 30
0.0
  9
$PUCSXDIR
 10
1.0
 20
0.0
 30
0.0
  9
$PUCSYDIR
 10
0.0
 20
1.0
 30
0.0
  9
$USERI1
 70
     0
  9
$USERI2
 70
     0
  9
$USERI3
 70
     0
  9
$USERI4
 70
     0
  9
$USERI5
 70
     0
  9
$USERR1
 40
0.0
  9
$USERR2
 40
0.0
  9
$USERR3
 40
0.0
  9
$USERR4
 40
0.0
  9
$USERR5
 40
0.0
  9
$WORLDVIEW
 70
     1
  9
$SHADEDGE
 70
     3
  9
$SHADEDIF
 70
    70
  9
$TILEMODE
 70
     1
  9
$MAXACTVP
 70
    64
  9
$PLIMCHECK
 70
     0
  9
$PEXTMIN
 10
1.000000E+020
 20
1.000000E+020
 30
1.000000E+020
  9
$PEXTMAX
 10
-1.000000E+020
 20
-1.000000E+020
 30
-1.000000E+020
  9
$PLIMMIN
 10
0.0
 20
0.0
  9
$PLIMMAX
 10
420.0
 20
297.0
  9
$UNITMODE
 70
     0
  9
$VISRETAIN
 70
     1
  9
$PLINEGEN
 70
     0
  9
$PSLTSCALE
 70
     1
  0
ENDSEC
  0
SECTION
  2
TABLES
  0
TABLE
  2
VPORT
 70
     2
  0
VPORT
  2
*ACTIVE
 70
     0
 10
0.0
 20
0.0
 11
1.0
 21
1.0
 12
424.672198
 22
148.5
 13
0.0
 23
0.0
 14
10.0
 24
10.0
 15
10.0
 25
10.0
 16
0.0
 26
0.0
 36
1.0
 17
0.0
 27
0.0
 37
0.0
 40
297.194831
 41
2.858921
 42
50.0
 43
0.0
 44
0.0
 50
0.0
 51
0.0
 71
     0
 72
   100
 73
     1
 74
     3
 75
     0
 76
     0
 77
     0
 78
     0
  0
ENDTAB
  0
TABLE
  2
LTYPE
 70
     5
  0
LTYPE
  2
CONTINUOUS
  70
0
  3
Solid line
 72
65
 73
0
 40
0.0
  0
LTYPE
  2
ACAD_ISO10W100
  70
0
  3
ISO Strichpunktlinie __ . __ . __ . __ . __ . _
 72
65
 73
4
 40
18.0
 49
12.0
 49
-3.0
 49
0.0
 49
-3.0
  0
LTYPE
  2
ACAD_ISO02W100
  70
0
  3
ISO Strichlinie __ __ __ __ __ __ __ __ __ __ _
 72
65
 73
2
 40
15.0
 49
12.0
 49
-3.0
  0
LTYPE
  2
STRICHLINIE
  70
0
  3
Strichlinie __ __ __ __ __ __ __ __ __ __ __ __
 72
65
 73
2
 40
0.75
 49
0.5
 49
-0.25
  0
LTYPE
  2
STRICHPUNKT
  70
0
  3
Strichpunkt __ . __ . __ . __ . __ . __ . __ . 
 72
65
 73
4
 40
1.0
 49
0.5
 49
-0.25
 49
0.0
 49
-0.25
  0
ENDTAB
  0
TABLE
  2
LAYER
 70
    14
  0
LAYER
  2
0
 70
0
 62
7
  6
CONTINUOUS
  0
LAYER
  2
REX_1
 70
0
 62
7
  6
CONTINUOUS
  0
LAYER
  2
REX_7
 70
0
 62
5
  6
STRICHPUNKT
  0
LAYER
  2
SILHOUETTE
 70
0
 62
7
  6
CONTINUOUS
  0
LAYER
  2
REX_8
 70
0
 62
1
  6
CONTINUOUS
  0
LAYER
  2
REX_3
 70
0
 62
6
  6
STRICHLINIE
  0
LAYER
  2
REX_4
 70
0
 62
5
  6
CONTINUOUS
  0
LAYER
  2
REX_5
 70
0
 62
3
  6
CONTINUOUS
  0
LAYER
  2
REX_6
 70
0
 62
40
  6
CONTINUOUS
  0
LAYER
  2
RAHM2
 70
0
 62
7
  6
CONTINUOUS
  0
LAYER
  2
RAHM3
 70
0
 62
7
  6
CONTINUOUS
  0
LAYER
  2
RAHM4
 70
0
 62
7
  6
CONTINUOUS
  0
LAYER
  2
RAHM5
 70
0
 62
7
  6
CONTINUOUS
  0
LAYER
  2
RAHMEN
 70
0
 62
7
  6
CONTINUOUS
  0
ENDTAB
  0
TABLE
  2
STYLE
 70
     3
  0
STYLE
  2
STANDARD
 70
     0
 40
0.0
 41
1.0
 50
0.0
 71
     0
 42
2.5
  3
isocp.shx
  4

  0
STYLE
  2
LOGO
 70
     0
 40
0.0
 41
1.0
 50
0.0
 71
     0
 42
0.2
  3
isocp.shx
  4

  0
STYLE
  2

 70
     1
 40
0.0
 41
1.0
 50
0.0
 71
     0
 42
2.5
  3
ltypeshp.shx
  4

  0
ENDTAB
  0
TABLE
  2
VIEW
 70
     0
  0
ENDTAB
  0
TABLE
  2
UCS
 70
     0
  0
ENDTAB
  0
TABLE
  2
APPID
 70
2
  0
APPID
  2
ACAD
 70
     0
  0
APPID
  2
DCO15
 70
     0
  0
ENDTAB
  0
TABLE
  2
DIMSTYLE
 70
     1
  0
DIMSTYLE
  2
ISO-25
 70
     0
  3

  4

  5

  6

  7

 40
1.0
 41
2.5
 42
0.625
 43
3.75
 44
1.25
 45
0.0
 46
0.0
 47
0.0
 48
0.0
140
2.5
141
2.5
142
0.0
143
0.03937
144
1.0
145
0.0
146
1.0
147
0.625
 71
     0
 72
     0
 73
     0
 74
     0
 75
     0
 76
     0
 77
     1
 78
     8
170
     0
171
     3
172
     1
173
     0
174
     0
175
     0
176
     0
177
     0
178
     0
  0
ENDTAB
  0
ENDSEC
  0
SECTION
  2
BLOCKS
  0
BLOCK
  8
REX_7
  2
8REX_MID_Jan_16_22-24-47
 70
0
 10
0.0000
 20
0.0000
 30
0.0000
  3
8REX_MID_Jan_16_22-24-47
  0
ENDBLK
  8
0
  0
BLOCK
  8
REX_1
  2
_VIEW_CUT_Jan_16_22-24-47
 70
0
 10
0.0000
 20
0.0000
 30
0.0000
  3
_VIEW_CUT_Jan_16_22-24-47
  0
INSERT
  8
REX_6
  2
8REX_MID_Jan_16_22-24-47
 10
0.0000
 20
0.0000
 30
0.0000
  0
POLYLINE
  6
continous
  8
BYBLOCK
 70
0
 66
1
  0
VERTEX
  8
0
 10
-9.6519
 20
20.2566
 30
0.0000
  0
VERTEX
  8
0
 10
-10.7108
 20
18.9542
 30
0.0000
  0
SEQEND
  0
POLYLINE
  6
continous
  8
BYBLOCK
 70
0
 66
1
  0
VERTEX
  8
0
 10
-10.9602
 20
20.5988
 30
0.0000
  0
VERTEX
  8
0
 10
-13.1874
 20
17.6904
 30
0.0000
  0
SEQEND
  0
LINE
  6
continous
  8
BYBLOCK
 10
-13.0815
 20
18.6013
 30
0.0000
 11
-15.3087
 21
15.8291
 31
0.0000
  0
LINE
  6
continous
  8
BYBLOCK
 10
-10.6102
 20
39.6807
 30
0.0000
 11
-13.1868
 21
36.9049
 31
0.0000
  0
LINE
  6
continous
  8
BYBLOCK
 10
18.7383
 20
-8.4015
 30
0.0000
 11
2841.5086
 21
1987.5985
 31
0.0000
  0
LINE
  6
continous
  8
BYBLOCK
 10
18.7383
 20
-3.8987
 30
0.0000
 11
2841.5086
 21
1992.1013
 31
0.0000
  0
LINE
  6
continous
  8
BYBLOCK
 10
16.6170
 20
-1.1739
 30
0.0000
 11
2839.3873
 21
1994.8261
 31
0.0000
  0
LINE
  6
continous
  8
BYBLOCK
 10
14.1253
 20
5.7482
 30
0.0000
 11
2836.8956
 21
2001.7482
 31
0.0000
  0
LINE
  6
continous
  8
BYBLOCK
 10
13.0815
 20
7.0890
 30
0.0000
 11
2835.8517
 21
2003.0890
 31
0.0000
  0
LINE
  6
continous
  8
BYBLOCK
 10
16.6170
 20
16.6352
 30
0.0000
 11
2839.3873
 21
2012.6352
 31
0.0000
  0
LINE
  6
continous
  8
BYBLOCK
 10
16.6170
 20
20.0782
 30
0.0000
 11
2839.3873
 21
2016.0782
 31
0.0000
  0
LINE
  6
continous
  8
BYBLOCK
 10
16.2670
 20
20.6757
 30
0.0000
 11
13.1901
 21
18.2536
 31
0.0000
  0
LINE
  6
continous
  8
BYBLOCK
 10
16.6170
 20
20.0782
 30
0.0000
 11
16.2670
 21
20.6757
 31
0.0000
  0
LINE
  6
continous
  8
BYBLOCK
 10
16.6170
 20
20.0782
 30
0.0000
 11
13.1901
 21
18.2536
 31
0.0000
  0
LINE
  6
continous
  8
BYBLOCK
 10
16.6170
 20
16.6352
 30
0.0000
 11
16.6170
 21
20.0782
 31
0.0000
  0
POLYLINE
  6
continous
  8
BYBLOCK
 70
0
 66
1
  0
VERTEX
  8
0
 10
16.6170
 20
16.6352
 30
0.0000
  0
VERTEX
  8
0
 10
13.1874
 20
15.5437
 30
0.0000
  0
SEQEND
  0
POLYLINE
  6
continous
  8
BYBLOCK
 70
0
 66
1
  0
VERTEX
  8
0
 10
14.1442
 20
15.8563
 30
0.0000
  0
VERTEX
  8
0
 10
14.1252
 20
15.5392
 30
0.0000
  0
SEQEND
  0
POLYLINE
  6
continous
  8
BYBLOCK
 70
0
 66
1
  0
VERTEX
  8
0
 10
14.1253
 20
15.5096
 30
0.0000
  0
VERTEX
  8
0
 10
10.7108
 20
14.2798
 30
0.0000
  0
SEQEND
  0
LINE
  6
continous
  8
BYBLOCK
 10
13.0815
 20
7.0890
 30
0.0000
 11
13.0815
 21
15.1355
 31
0.0000
  0
LINE
  6
continous
  8
BYBLOCK
 10
13.0815
 20
7.0890
 30
0.0000
 11
9.6518
 21
5.1670
 31
0.0000
  0
LINE
  6
continous
  8
BYBLOCK
 10
14.1253
 20
5.7482
 30
0.0000
 11
13.0815
 21
7.0890
 31
0.0000
  0
POLYLINE
  6
continous
  8
BYBLOCK
 70
0
 66
1
  0
VERTEX
  8
0
 10
14.1253
 20
5.7482
 30
0.0000
  0
VERTEX
  8
0
 10
10.7108
 20
3.8068
 30
0.0000
  0
SEQEND
  0
POLYLINE
  6
continous
  8
BYBLOCK
 70
0
 66
1
  0
VERTEX
  8
0
 10
14.1253
 20
5.7482
 30
0.0000
  0
VERTEX
  8
0
 10
14.1252
 20
5.7189
 30
0.0000
  0
SEQEND
  0
POLYLINE
  6
continous
  8
BYBLOCK
 70
0
 66
1
  0
VERTEX
  8
0
 10
16.6170
 20
1.0988
 30
0.0000
  0
VERTEX
  8
0
 10
13.1874
 20
-0.9594
 30
0.0000
  0
SEQEND
  0
LINE
  6
continous
  8
BYBLOCK
 10
16.6170
 20
-1.1739
 30
0.0000
 11
16.6170
 21
1.0988
 31
0.0000
  0
LINE
  6
continous
  8
BYBLOCK
 10
16.6170
 20
-1.1739
 30
0.0000
 11
13.1874
 21
-3.0959
 31
0.0000
  0
LINE
  6
continous
  8
BYBLOCK
 10
18.7383
 20
-3.8987
 30
0.0000
 11
16.6170
 21
-1.1739
 31
0.0000
  0
LINE
  6
continous
  8
BYBLOCK
 10
18.7383
 20
-3.8987
 30
0.0000
 11
15.3087
 21
-5.8206
 31
0.0000
  0
LINE
  6
continous
  8
BYBLOCK
 10
18.7383
 20
-8.4015
 30
0.0000
 11
18.7383
 21
-3.8987
 31
0.0000
  0
LINE
  6
continous
  8
BYBLOCK
 10
18.7383
 20
-8.4015
 30
0.0000
 11
15.3087
 21
-9.7273
 31
0.0000
  0
LINE
  6
continous
  8
BYBLOCK
 10
-15.3087
 20
11.9224
 30
0.0000
 11
-14.8123
 21
11.0751
 31
0.0000
  0
LINE
  6
continous
  8
BYBLOCK
 10
-15.3087
 20
15.8291
 30
0.0000
 11
-15.3087
 21
11.9224
 31
0.0000
  0
LINE
  6
continous
  8
BYBLOCK
 10
-13.1874
 20
15.5539
 30
0.0000
 11
-15.3087
 21
15.8291
 31
0.0000
  0
LINE
  6
continous
  8
BYBLOCK
 10
-13.1874
 20
17.6904
 30
0.0000
 11
-13.1874
 21
15.5539
 31
0.0000
  0
POLYLINE
  6
continous
  8
BYBLOCK
 70
0
 66
1
  0
VERTEX
  8
0
 10
-11.1098
 20
17.9144
 30
0.0000
  0
VERTEX
  8
0
 10
-11.3998
 20
17.6667
 30
0.0000
  0
VERTEX
  8
0
 10
-11.7559
 20
17.5157
 30
0.0000
  0
VERTEX
  8
0
 10
-12.1698
 20
17.4652
 30
0.0000
  0
VERTEX
  8
0
 10
-12.6854
 20
17.5280
 30
0.0000
  0
VERTEX
  8
0
 10
-13.1874
 20
17.6904
 30
0.0000
  0
SEQEND
  0
POLYLINE
  6
continous
  8
BYBLOCK
 70
0
 66
1
  0
VERTEX
  8
0
 10
-10.7108
 20
18.9542
 30
0.0000
  0
VERTEX
  8
0
 10
-10.8192
 20
18.4370
 30
0.0000
  0
VERTEX
  8
0
 10
-11.0030
 20
18.0557
 30
0.0000
  0
VERTEX
  8
0
 10
-11.1098
 20
17.9144
 30
0.0000
  0
SEQEND
  0
LINE
  6
continous
  8
BYBLOCK
 10
-9.6518
 20
18.8168
 30
0.0000
 11
-10.7108
 21
18.9542
 31
0.0000
  0
LINE
  6
continous
  8
BYBLOCK
 10
-9.6518
 20
28.0670
 30
0.0000
 11
-9.6518
 21
18.8168
 31
0.0000
  0
LINE
  6
continous
  8
BYBLOCK
 10
-10.7108
 20
29.4272
 30
0.0000
 11
-9.6518
 21
28.0670
 31
0.0000
  0
POLYLINE
  6
continous
  8
BYBLOCK
 70
0
 66
1
  0
VERTEX
  8
0
 10
-13.1874
 20
34.1934
 30
0.0000
  0
VERTEX
  8
0
 10
-12.5762
 20
33.5144
 30
0.0000
  0
VERTEX
  8
0
 10
-12.0224
 20
32.7653
 30
0.0000
  0
VERTEX
  8
0
 10
-11.5458
 20
31.9729
 30
0.0000
  0
VERTEX
  8
0
 10
-11.1635
 20
31.1656
 30
0.0000
  0
VERTEX
  8
0
 10
-10.8891
 20
30.3722
 30
0.0000
  0
VERTEX
  8
0
 10
-10.7323
 20
29.6212
 30
0.0000
  0
VERTEX
  8
0
 10
-10.7108
 20
29.4272
 30
0.0000
  0
SEQEND
  0
LINE
  6
continous
  8
BYBLOCK
 10
13.1901
 20
18.2536
 30
0.0000
 11
-13.1868
 21
36.9049
 31
0.0000
  0
LINE
  6
continous
  8
BYBLOCK
 10
13.1874
 20
15.5437
 30
0.0000
 11
13.1901
 21
18.2536
 31
0.0000
  0
POLYLINE
  6
continous
  8
BYBLOCK
 70
0
 66
1
  0
VERTEX
  8
0
 10
11.6038
 20
15.6689
 30
0.0000
  0
VERTEX
  8
0
 10
11.9908
 20
15.7601
 30
0.0000
  0
VERTEX
  8
0
 10
12.4803
 20
15.7451
 30
0.0000
  0
VERTEX
  8
0
 10
13.0186
 20
15.6080
 30
0.0000
  0
VERTEX
  8
0
 10
13.1874
 20
15.5437
 30
0.0000
  0
SEQEND
  0
POLYLINE
  6
continous
  8
BYBLOCK
 70
0
 66
1
  0
VERTEX
  8
0
 10
10.7108
 20
14.2798
 30
0.0000
  0
VERTEX
  8
0
 10
10.8200
 20
14.7995
 30
0.0000
  0
VERTEX
  8
0
 10
11.0055
 20
15.1821
 30
0.0000
  0
VERTEX
  8
0
 10
11.2689
 20
15.4743
 30
0.0000
  0
VERTEX
  8
0
 10
11.6038
 20
15.6689
 30
0.0000
  0
SEQEND
  0
LINE
  6
continous
  8
BYBLOCK
 10
9.6518
 20
14.4172
 30
0.0000
 11
10.7108
 21
14.2798
 31
0.0000
  0
LINE
  6
continous
  8
BYBLOCK
 10
9.6518
 20
5.1670
 30
0.0000
 11
9.6518
 21
14.4172
 31
0.0000
  0
LINE
  6
continous
  8
BYBLOCK
 10
10.7108
 20
3.8068
 30
0.0000
 11
9.6518
 21
5.1670
 31
0.0000
  0
POLYLINE
  6
continous
  8
BYBLOCK
 70
0
 66
1
  0
VERTEX
  8
0
 10
13.1874
 20
-0.9594
 30
0.0000
  0
VERTEX
  8
0
 10
12.5762
 20
-0.2803
 30
0.0000
  0
VERTEX
  8
0
 10
12.0224
 20
0.4688
 30
0.0000
  0
VERTEX
  8
0
 10
11.5458
 20
1.2611
 30
0.0000
  0
VERTEX
  8
0
 10
11.1635
 20
2.0684
 30
0.0000
  0
VERTEX
  8
0
 10
10.8891
 20
2.8618
 30
0.0000
  0
VERTEX
  8
0
 10
10.7323
 20
3.6129
 30
0.0000
  0
VERTEX
  8
0
 10
10.7108
 20
3.8068
 30
0.0000
  0
SEQEND
  0
LINE
  6
continous
  8
BYBLOCK
 10
13.1874
 20
-3.0959
 30
0.0000
 11
13.1874
 21
-0.9594
 31
0.0000
  0
LINE
  6
continous
  8
BYBLOCK
 10
15.3087
 20
-5.8206
 30
0.0000
 11
13.1874
 21
-3.0959
 31
0.0000
  0
LINE
  6
continous
  8
BYBLOCK
 10
15.3087
 20
-9.7273
 30
0.0000
 11
15.3087
 21
-5.8206
 31
0.0000
  0
LINE
  6
continous
  8
BYBLOCK
 10
14.8123
 20
-9.8727
 30
0.0000
 11
15.3087
 21
-9.7273
 31
0.0000
  0
LINE
  6
continous
  8
BYBLOCK
 10
-14.8123
 20
11.0751
 30
0.0000
 11
14.8123
 21
-9.8727
 31
0.0000
  0
LINE
  6
continous
  8
BYBLOCK
 10
-10.9602
 20
39.5782
 30
0.0000
 11
-13.1868
 21
36.9049
 31
0.0000
  0
LINE
  6
continous
  8
BYBLOCK
 10
-13.1868
 20
36.9049
 30
0.0000
 11
-13.1874
 21
34.1934
 31
0.0000
  0
LINE
  6
continous
  8
BYBLOCK
 10
-12.5380
 20
18.5308
 30
0.0000
 11
-13.0815
 21
18.6013
 31
0.0000
  0
POLYLINE
  6
continous
  8
BYBLOCK
 70
0
 66
1
  0
VERTEX
  8
0
 10
2780.6974
 20
2004.3575
 30
0.0000
  0
VERTEX
  8
0
 10
2779.8934
 20
2003.7154
 30
0.0000
  0
VERTEX
  8
0
 10
2779.2053
 20
2003.0093
 30
0.0000
  0
VERTEX
  8
0
 10
2778.6430
 20
2002.2494
 30
0.0000
  0
VERTEX
  8
0
 10
2778.2151
 20
2001.4470
 30
0.0000
  0
VERTEX
  8
0
 10
2777.9276
 20
2000.6139
 30
0.0000
  0
VERTEX
  8
0
 10
2777.7849
 20
1999.7622
 30
0.0000
  0
VERTEX
  8
0
 10
2777.7686
 20
1999.3947
 30
0.0000
  0
SEQEND
  0
LINE
  6
continous
  8
BYBLOCK
 10
2780.6974
 20
2004.3575
 30
0.0000
 11
2780.6974
 21
2004.4282
 31
0.0000
  0
POLYLINE
  6
continous
  8
BYBLOCK
 70
0
 66
1
  0
VERTEX
  8
0
 10
2797.7684
 20
1999.3907
 30
0.0000
  0
VERTEX
  8
0
 10
2797.6884
 20
2000.2505
 30
0.0000
  0
VERTEX
  8
0
 10
2797.4612
 20
2001.0970
 30
0.0000
  0
VERTEX
  8
0
 10
2797.0900
 20
2001.9177
 30
0.0000
  0
VERTEX
  8
0
 10
2796.5804
 20
2002.7004
 30
0.0000
  0
VERTEX
  8
0
 10
2795.9400
 20
2003.4334
 30
0.0000
  0
VERTEX
  8
0
 10
2795.1782
 20
2004.1060
 30
0.0000
  0
VERTEX
  8
0
 10
2794.3065
 20
2004.7080
 30
0.0000
  0
VERTEX
  8
0
 10
2793.1921
 20
2005.2982
 30
0.0000
  0
VERTEX
  8
0
 10
2791.9726
 20
2005.7733
 30
0.0000
  0
VERTEX
  8
0
 10
2790.6716
 20
2006.1240
 30
0.0000
  0
VERTEX
  8
0
 10
2789.3143
 20
2006.3436
 30
0.0000
  0
VERTEX
  8
0
 10
2787.9270
 20
2006.4277
 30
0.0000
  0
VERTEX
  8
0
 10
2786.5367
 20
2006.3747
 30
0.0000
  0
VERTEX
  8
0
 10
2785.1702
 20
2006.1857
 30
0.0000
  0
VERTEX
  8
0
 10
2783.8541
 20
2005.8643
 30
0.0000
  0
VERTEX
  8
0
 10
2782.6139
 20
2005.4168
 30
0.0000
  0
VERTEX
  8
0
 10
2781.4737
 20
2004.8518
 30
0.0000
  0
VERTEX
  8
0
 10
2780.6974
 20
2004.3575
 30
0.0000
  0
SEQEND
  0
POLYLINE
  6
continous
  8
BYBLOCK
 70
0
 66
1
  0
VERTEX
  8
0
 10
2706.4512
 20
1951.8575
 30
0.0000
  0
VERTEX
  8
0
 10
2705.6472
 20
1951.2154
 30
0.0000
  0
VERTEX
  8
0
 10
2704.9590
 20
1950.5093
 30
0.0000
  0
VERTEX
  8
0
 10
2704.3968
 20
1949.7494
 30
0.0000
  0
VERTEX
  8
0
 10
2703.9688
 20
1948.9470
 30
0.0000
  0
VERTEX
  8
0
 10
2703.6814
 20
1948.1139
 30
0.0000
  0
VERTEX
  8
0
 10
2703.5387
 20
1947.2622
 30
0.0000
  0
VERTEX
  8
0
 10
2703.5224
 20
1946.8947
 30
0.0000
  0
SEQEND
  0
LINE
  6
continous
  8
BYBLOCK
 10
2706.4512
 20
1951.8575
 30
0.0000
 11
2706.4512
 21
1951.9282
 31
0.0000
  0
POLYLINE
  6
continous
  8
BYBLOCK
 70
0
 66
1
  0
VERTEX
  8
0
 10
2723.5222
 20
1946.8907
 30
0.0000
  0
VERTEX
  8
0
 10
2723.4422
 20
1947.7505
 30
0.0000
  0
VERTEX
  8
0
 10
2723.2150
 20
1948.5970
 30
0.0000
  0
VERTEX
  8
0
 10
2722.8438
 20
1949.4177
 30
0.0000
  0
VERTEX
  8
0
 10
2722.3342
 20
1950.2004
 30
0.0000
  0
VERTEX
  8
0
 10
2721.6938
 20
1950.9334
 30
0.0000
  0
VERTEX
  8
0
 10
2720.9320
 20
1951.6060
 30
0.0000
  0
VERTEX
  8
0
 10
2720.0602
 20
1952.2080
 30
0.0000
  0
VERTEX
  8
0
 10
2718.9459
 20
1952.7982
 30
0.0000
  0
VERTEX
  8
0
 10
2717.7264
 20
1953.2733
 30
0.0000
  0
VERTEX
  8
0
 10
2716.4253
 20
1953.6240
 30
0.0000
  0
VERTEX
  8
0
 10
2715.0680
 20
1953.8436
 30
0.0000
  0
VERTEX
  8
0
 10
2713.6808
 20
1953.9277
 30
0.0000
  0
VERTEX
  8
0
 10
2712.2905
 20
1953.8747
 30
0.0000
  0
VERTEX
  8
0
 10
2710.9240
 20
1953.6857
 30
0.0000
  0
VERTEX
  8
0
 10
2709.6079
 20
1953.3643
 30
0.0000
  0
VERTEX
  8
0
 10
2708.3677
 20
1952.9168
 30
0.0000
  0
VERTEX
  8
0
 10
2707.2274
 20
1952.3518
 30
0.0000
  0
VERTEX
  8
0
 10
2706.4512
 20
1951.8575
 30
0.0000
  0
SEQEND
  0
POLYLINE
  6
continous
  8
BYBLOCK
 70
0
 66
1
  0
VERTEX
  8
0
 10
2632.2050
 20
1899.3575
 30
0.0000
  0
VERTEX
  8
0
 10
2631.4010
 20
1898.7154
 30
0.0000
  0
VERTEX
  8
0
 10
2630.7128
 20
1898.0093
 30
0.0000
  0
VERTEX
  8
0
 10
2630.1506
 20
1897.2494
 30
0.0000
  0
VERTEX
  8
0
 10
2629.7226
 20
1896.4470
 30
0.0000
  0
VERTEX
  8
0
 10
2629.4352
 20
1895.6139
 30
0.0000
  0
VERTEX
  8
0
 10
2629.2925
 20
1894.7622
 30
0.0000
  0
VERTEX
  8
0
 10
2629.2762
 20
1894.3947
 30
0.0000
  0
SEQEND
  0
LINE
  6
continous
  8
BYBLOCK
 10
2632.2050
 20
1899.3575
 30
0.0000
 11
2632.2050
 21
1899.4282
 31
0.0000
  0
POLYLINE
  6
continous
  8
BYBLOCK
 70
0
 66
1
  0
VERTEX
  8
0
 10
2649.2760
 20
1894.3907
 30
0.0000
  0
VERTEX
  8
0
 10
2649.1960
 20
1895.2505
 30
0.0000
  0
VERTEX
  8
0
 10
2648.9687
 20
1896.0970
 30
0.0000
  0
VERTEX
  8
0
 10
2648.5976
 20
1896.9177
 30
0.0000
  0
VERTEX
  8
0
 10
2648.0880
 20
1897.7004
 30
0.0000
  0
VERTEX
  8
0
 10
2647.4476
 20
1898.4334
 30
0.0000
  0
VERTEX
  8
0
 10
2646.6858
 20
1899.1060
 30
0.0000
  0
VERTEX
  8
0
 10
2645.8140
 20
1899.7080
 30
0.0000
  0
VERTEX
  8
0
 10
2644.6997
 20
1900.2982
 30
0.0000
  0
VERTEX
  8
0
 10
2643.4801
 20
1900.7733
 30
0.0000
  0
VERTEX
  8
0
 10
2642.1791
 20
1901.1240
 30
0.0000
  0
VERTEX
  8
0
 10
2640.8218
 20
1901.3436
 30
0.0000
  0
VERTEX
  8
0
 10
2639.4346
 20
1901.4277
 30
0.0000
  0
VERTEX
  8
0
 10
2638.0442
 20
1901.3747
 30
0.0000
  0
VERTEX
  8
0
 10
2636.6778
 20
1901.1857
 30
0.0000
  0
VERTEX
  8
0
 10
2635.3617
 20
1900.8643
 30
0.0000
  0
VERTEX
  8
0
 10
2634.1215
 20
1900.4168
 30
0.0000
  0
VERTEX
  8
0
 10
2632.9812
 20
1899.8518
 30
0.0000
  0
VERTEX
  8
0
 10
2632.2050
 20
1899.3575
 30
0.0000
  0
SEQEND
  0
POLYLINE
  6
continous
  8
BYBLOCK
 70
0
 66
1
  0
VERTEX
  8
0
 10
2557.9588
 20
1846.8575
 30
0.0000
  0
VERTEX
  8
0
 10
2557.1548
 20
1846.2154
 30
0.0000
  0
VERTEX
  8
0
 10
2556.4666
 20
1845.5093
 30
0.0000
  0
VERTEX
  8
0
 10
2555.9044
 20
1844.7494
 30
0.0000
  0
VERTEX
  8
0
 10
2555.4764
 20
1843.9470
 30
0.0000
  0
VERTEX
  8
0
 10
2555.1890
 20
1843.1139
 30
0.0000
  0
VERTEX
  8
0
 10
2555.0462
 20
1842.2622
 30
0.0000
  0
VERTEX
  8
0
 10
2555.0300
 20
1841.8947
 30
0.0000
  0
SEQEND
  0
LINE
  6
continous
  8
BYBLOCK
 10
2557.9588
 20
1846.8575
 30
0.0000
 11
2557.9588
 21
1846.9282
 31
0.0000
  0
POLYLINE
  6
continous
  8
BYBLOCK
 70
0
 66
1
  0
VERTEX
  8
0
 10
2575.0297
 20
1841.8907
 30
0.0000
  0
VERTEX
  8
0
 10
2574.9498
 20
1842.7505
 30
0.0000
  0
VERTEX
  8
0
 10
2574.7225
 20
1843.5970
 30
0.0000
  0
VERTEX
  8
0
 10
2574.3514
 20
1844.4177
 30
0.0000
  0
VERTEX
  8
0
 10
2573.8418
 20
1845.2004
 30
0.0000
  0
VERTEX
  8
0
 10
2573.2014
 20
1845.9334
 30
0.0000
  0
VERTEX
  8
0
 10
2572.4396
 20
1846.6060
 30
0.0000
  0
VERTEX
  8
0
 10
2571.5678
 20
1847.2080
 30
0.0000
  0
VERTEX
  8
0
 10
2570.4534
 20
1847.7982
 30
0.0000
  0
VERTEX
  8
0
 10
2569.2339
 20
1848.2733
 30
0.0000
  0
VERTEX
  8
0
 10
2567.9329
 20
1848.6240
 30
0.0000
  0
VERTEX
  8
0
 10
2566.5756
 20
1848.8436
 30
0.0000
  0
VERTEX
  8
0
 10
2565.1884
 20
1848.9277
 30
0.0000
  0
VERTEX
  8
0
 10
2563.7980
 20
1848.8747
 30
0.0000
  0
VERTEX
  8
0
 10
2562.4316
 20
1848.6857
 30
0.0000
  0
VERTEX
  8
0
 10
2561.1155
 20
1848.3643
 30
0.0000
  0
VERTEX
  8
0
 10
2559.8753
 20
1847.9168
 30
0.0000
  0
VERTEX
  8
0
 10
2558.7350
 20
1847.3518
 30
0.0000
  0
VERTEX
  8
0
 10
2557.9588
 20
1846.8575
 30
0.0000
  0
SEQEND
  0
POLYLINE
  6
continous
  8
BYBLOCK
 70
0
 66
1
  0
VERTEX
  8
0
 10
2483.7126
 20
1794.3575
 30
0.0000
  0
VERTEX
  8
0
 10
2482.9086
 20
1793.7154
 30
0.0000
  0
VERTEX
  8
0
 10
2482.2204
 20
1793.0093
 30
0.0000
  0
VERTEX
  8
0
 10
2481.6582
 20
1792.2494
 30
0.0000
  0
VERTEX
  8
0
 10
2481.2302
 20
1791.4470
 30
0.0000
  0
VERTEX
  8
0
 10
2480.9427
 20
1790.6139
 30
0.0000
  0
VERTEX
  8
0
 10
2480.8000
 20
1789.7622
 30
0.0000
  0
VERTEX
  8
0
 10
2480.7838
 20
1789.3947
 30
0.0000
  0
SEQEND
  0
LINE
  6
continous
  8
BYBLOCK
 10
2483.7126
 20
1794.3575
 30
0.0000
 11
2483.7126
 21
1794.4282
 31
0.0000
  0
POLYLINE
  6
continous
  8
BYBLOCK
 70
0
 66
1
  0
VERTEX
  8
0
 10
2500.7835
 20
1789.3907
 30
0.0000
  0
VERTEX
  8
0
 10
2500.7036
 20
1790.2505
 30
0.0000
  0
VERTEX
  8
0
 10
2500.4763
 20
1791.0970
 30
0.0000
  0
VERTEX
  8
0
 10
2500.1051
 20
1791.9177
 30
0.0000
  0
VERTEX
  8
0
 10
2499.5956
 20
1792.7004
 30
0.0000
  0
VERTEX
  8
0
 10
2498.9551
 20
1793.4334
 30
0.0000
  0
VERTEX
  8
0
 10
2498.1934
 20
1794.1060
 30
0.0000
  0
VERTEX
  8
0
 10
2497.3216
 20
1794.7080
 30
0.0000
  0
VERTEX
  8
0
 10
2496.2072
 20
1795.2982
 30
0.0000
  0
VERTEX
  8
0
 10
2494.9877
 20
1795.7733
 30
0.0000
  0
VERTEX
  8
0
 10
2493.6867
 20
1796.1240
 30
0.0000
  0
VERTEX
  8
0
 10
2492.3294
 20
1796.3436
 30
0.0000
  0
VERTEX
  8
0
 10
2490.9421
 20
1796.4277
 30
0.0000
  0
VERTEX
  8
0
 10
2489.5518
 20
1796.3747
 30
0.0000
  0
VERTEX
  8
0
 10
2488.1854
 20
1796.1857
 30
0.0000
  0
VERTEX
  8
0
 10
2486.8693
 20
1795.8643
 30
0.0000
  0
VERTEX
  8
0
 10
2485.6291
 20
1795.4168
 30
0.0000
  0
VERTEX
  8
0
 10
2484.4888
 20
1794.8518
 30
0.0000
  0
VERTEX
  8
0
 10
2483.7126
 20
1794.3575
 30
0.0000
  0
SEQEND
  0
POLYLINE
  6
continous
  8
BYBLOCK
 70
0
 66
1
  0
VERTEX
  8
0
 10
2409.4664
 20
1741.8575
 30
0.0000
  0
VERTEX
  8
0
 10
2408.6624
 20
1741.2154
 30
0.0000
  0
VERTEX
  8
0
 10
2407.9742
 20
1740.5093
 30
0.0000
  0
VERTEX
  8
0
 10
2407.4120
 20
1739.7494
 30
0.0000
  0
VERTEX
  8
0
 10
2406.9840
 20
1738.9470
 30
0.0000
  0
VERTEX
  8
0
 10
2406.6965
 20
1738.1139
 30
0.0000
  0
VERTEX
  8
0
 10
2406.5538
 20
1737.2622
 30
0.0000
  0
VERTEX
  8
0
 10
2406.5376
 20
1736.8947
 30
0.0000
  0
SEQEND
  0
LINE
  6
continous
  8
BYBLOCK
 10
2409.4664
 20
1741.8575
 30
0.0000
 11
2409.4664
 21
1741.9282
 31
0.0000
  0
POLYLINE
  6
continous
  8
BYBLOCK
 70
0
 66
1
  0
VERTEX
  8
0
 10
2426.5373
 20
1736.8907
 30
0.0000
  0
VERTEX
  8
0
 10
2426.4574
 20
1737.7505
 30
0.0000
  0
VERTEX
  8
0
 10
2426.2301
 20
1738.5970
 30
0.0000
  0
VERTEX
  8
0
 10
2425.8589
 20
1739.4177
 30
0.0000
  0
VERTEX
  8
0
 10
2425.3494
 20
1740.2004
 30
0.0000
  0
VERTEX
  8
0
 10
2424.7089
 20
1740.9334
 30
0.0000
  0
VERTEX
  8
0
 10
2423.9472
 20
1741.6060
 30
0.0000
  0
VERTEX
  8
0
 10
2423.0754
 20
1742.2080
 30
0.0000
  0
VERTEX
  8
0
 10
2421.9610
 20
1742.7982
 30
0.0000
  0
VERTEX
  8
0
 10
2420.7415
 20
1743.2733
 30
0.0000
  0
VERTEX
  8
0
 10
2419.4405
 20
1743.6240
 30
0.0000
  0
VERTEX
  8
0
 10
2418.0832
 20
1743.8436
 30
0.0000
  0
VERTEX
  8
0
 10
2416.6959
 20
1743.9277
 30
0.0000
  0
VERTEX
  8
0
 10
2415.3056
 20
1743.8747
 30
0.0000
  0
VERTEX
  8
0
 10
2413.9391
 20
1743.6857
 30
0.0000
  0
VERTEX
  8
0
 10
2412.6231
 20
1743.3643
 30
0.0000
  0
VERTEX
  8
0
 10
2411.3829
 20
1742.9168
 30
0.0000
  0
VERTEX
  8
0
 10
2410.2426
 20
1742.3518
 30
0.0000
  0
VERTEX
  8
0
 10
2409.4664
 20
1741.8575
 30
0.0000
  0
SEQEND
  0
POLYLINE
  6
continous
  8
BYBLOCK
 70
0
 66
1
  0
VERTEX
  8
0
 10
2335.2201
 20
1689.3575
 30
0.0000
  0
VERTEX
  8
0
 10
2334.4161
 20
1688.7154
 30
0.0000
  0
VERTEX
  8
0
 10
2333.7280
 20
1688.0093
 30
0.0000
  0
VERTEX
  8
0
 10
2333.1658
 20
1687.2494
 30
0.0000
  0
VERTEX
  8
0
 10
2332.7378
 20
1686.4470
 30
0.0000
  0
VERTEX
  8
0
 10
2332.4503
 20
1685.6139
 30
0.0000
  0
VERTEX
  8
0
 10
2332.3076
 20
1684.7622
 30
0.0000
  0
VERTEX
  8
0
 10
2332.2914
 20
1684.3947
 30
0.0000
  0
SEQEND
  0
LINE
  6
continous
  8
BYBLOCK
 10
2335.2201
 20
1689.3575
 30
0.0000
 11
2335.2201
 21
1689.4282
 31
0.0000
  0
POLYLINE
  6
continous
  8
BYBLOCK
 70
0
 66
1
  0
VERTEX
  8
0
 10
2352.2911
 20
1684.3907
 30
0.0000
  0
VERTEX
  8
0
 10
2352.2111
 20
1685.2505
 30
0.0000
  0
VERTEX
  8
0
 10
2351.9839
 20
1686.0970
 30
0.0000
  0
VERTEX
  8
0
 10
2351.6127
 20
1686.9177
 30
0.0000
  0
VERTEX
  8
0
 10
2351.1031
 20
1687.7004
 30
0.0000
  0
VERTEX
  8
0
 10
2350.4627
 20
1688.4334
 30
0.0000
  0
VERTEX
  8
0
 10
2349.7010
 20
1689.1060
 30
0.0000
  0
VERTEX
  8
0
 10
2348.8292
 20
1689.7080
 30
0.0000
  0
VERTEX
  8
0
 10
2347.7148
 20
1690.2982
 30
0.0000
  0
VERTEX
  8
0
 10
2346.4953
 20
1690.7733
 30
0.0000
  0
VERTEX
  8
0
 10
2345.1943
 20
1691.1240
 30
0.0000
  0
VERTEX
  8
0
 10
2343.8370
 20
1691.3436
 30
0.0000
  0
VERTEX
  8
0
 10
2342.4497
 20
1691.4277
 30
0.0000
  0
VERTEX
  8
0
 10
2341.0594
 20
1691.3747
 30
0.0000
  0
VERTEX
  8
0
 10
2339.6929
 20
1691.1857
 30
0.0000
  0
VERTEX
  8
0
 10
2338.3769
 20
1690.8643
 30
0.0000
  0
VERTEX
  8
0
 10
2337.1367
 20
1690.4168
 30
0.0000
  0
VERTEX
  8
0
 10
2335.9964
 20
1689.8518
 30
0.0000
  0
VERTEX
  8
0
 10
2335.2201
 20
1689.3575
 30
0.0000
  0
SEQEND
  0
POLYLINE
  6
continous
  8
BYBLOCK
 70
0
 66
1
  0
VERTEX
  8
0
 10
2260.9739
 20
1636.8575
 30
0.0000
  0
VERTEX
  8
0
 10
2260.1699
 20
1636.2154
 30
0.0000
  0
VERTEX
  8
0
 10
2259.4818
 20
1635.5093
 30
0.0000
  0
VERTEX
  8
0
 10
2258.9196
 20
1634.7494
 30
0.0000
  0
VERTEX
  8
0
 10
2258.4916
 20
1633.9470
 30
0.0000
  0
VERTEX
  8
0
 10
2258.2041
 20
1633.1139
 30
0.0000
  0
VERTEX
  8
0
 10
2258.0614
 20
1632.2622
 30
0.0000
  0
VERTEX
  8
0
 10
2258.0451
 20
1631.8947
 30
0.0000
  0
SEQEND
  0
LINE
  6
continous
  8
BYBLOCK
 10
2260.9739
 20
1636.8575
 30
0.0000
 11
2260.9739
 21
1636.9282
 31
0.0000
  0
POLYLINE
  6
continous
  8
BYBLOCK
 70
0
 66
1
  0
VERTEX
  8
0
 10
2278.0449
 20
1631.8907
 30
0.0000
  0
VERTEX
  8
0
 10
2277.9649
 20
1632.7505
 30
0.0000
  0
VERTEX
  8
0
 10
2277.7377
 20
1633.5970
 30
0.0000
  0
VERTEX
  8
0
 10
2277.3665
 20
1634.4177
 30
0.0000
  0
VERTEX
  8
0
 10
2276.8569
 20
1635.2004
 30
0.0000
  0
VERTEX
  8
0
 10
2276.2165
 20
1635.9334
 30
0.0000
  0
VERTEX
  8
0
 10
2275.4547
 20
1636.6060
 30
0.0000
  0
VERTEX
  8
0
 10
2274.5830
 20
1637.2080
 30
0.0000
  0
VERTEX
  8
0
 10
2273.4686
 20
1637.7982
 30
0.0000
  0
VERTEX
  8
0
 10
2272.2491
 20
1638.2733
 30
0.0000
  0
VERTEX
  8
0
 10
2270.9481
 20
1638.6240
 30
0.0000
  0
VERTEX
  8
0
 10
2269.5908
 20
1638.8436
 30
0.0000
  0
VERTEX
  8
0
 10
2268.2035
 20
1638.9277
 30
0.0000
  0
VERTEX
  8
0
 10
2266.8132
 20
1638.8747
 30
0.0000
  0
VERTEX
  8
0
 10
2265.4467
 20
1638.6857
 30
0.0000
  0
VERTEX
  8
0
 10
2264.1306
 20
1638.3643
 30
0.0000
  0
VERTEX
  8
0
 10
2262.8904
 20
1637.9168
 30
0.0000
  0
VERTEX
  8
0
 10
2261.7502
 20
1637.3518
 30
0.0000
  0
VERTEX
  8
0
 10
2260.9739
 20
1636.8575
 30
0.0000
  0
SEQEND
  0
POLYLINE
  6
continous
  8
BYBLOCK
 70
0
 66
1
  0
VERTEX
  8
0
 10
2186.7277
 20
1584.3575
 30
0.0000
  0
VERTEX
  8
0
 10
2185.9237
 20
1583.7154
 30
0.0000
  0
VERTEX
  8
0
 10
2185.2356
 20
1583.0093
 30
0.0000
  0
VERTEX
  8
0
 10
2184.6733
 20
1582.2494
 30
0.0000
  0
VERTEX
  8
0
 10
2184.2454
 20
1581.4470
 30
0.0000
  0
VERTEX
  8
0
 10
2183.9579
 20
1580.6139
 30
0.0000
  0
VERTEX
  8
0
 10
2183.8152
 20
1579.7622
 30
0.0000
  0
VERTEX
  8
0
 10
2183.7989
 20
1579.3947
 30
0.0000
  0
SEQEND
  0
LINE
  6
continous
  8
BYBLOCK
 10
2186.7277
 20
1584.3575
 30
0.0000
 11
2186.7277
 21
1584.4282
 31
0.0000
  0
POLYLINE
  6
continous
  8
BYBLOCK
 70
0
 66
1
  0
VERTEX
  8
0
 10
2203.7987
 20
1579.3907
 30
0.0000
  0
VERTEX
  8
0
 10
2203.7187
 20
1580.2505
 30
0.0000
  0
VERTEX
  8
0
 10
2203.4915
 20
1581.0970
 30
0.0000
  0
VERTEX
  8
0
 10
2203.1203
 20
1581.9177
 30
0.0000
  0
VERTEX
  8
0
 10
2202.6107
 20
1582.7004
 30
0.0000
  0
VERTEX
  8
0
 10
2201.9703
 20
1583.4334
 30
0.0000
  0
VERTEX
  8
0
 10
2201.2085
 20
1584.1060
 30
0.0000
  0
VERTEX
  8
0
 10
2200.3368
 20
1584.7080
 30
0.0000
  0
VERTEX
  8
0
 10
2199.2224
 20
1585.2982
 30
0.0000
  0
VERTEX
  8
0
 10
2198.0029
 20
1585.7733
 30
0.0000
  0
VERTEX
  8
0
 10
2196.7019
 20
1586.1240
 30
0.0000
  0
VERTEX
  8
0
 10
2195.3446
 20
1586.3436
 30
0.0000
  0
VERTEX
  8
0
 10
2193.9573
 20
1586.4277
 30
0.0000
  0
VERTEX
  8
0
 10
2192.5670
 20
1586.3747
 30
0.0000
  0
VERTEX
  8
0
 10
2191.2005
 20
1586.1857
 30
0.0000
  0
VERTEX
  8
0
 10
2189.8844
 20
1585.8643
 30
0.0000
  0
VERTEX
  8
0
 10
2188.6442
 20
1585.4168
 30
0.0000
  0
VERTEX
  8
0
 10
2187.5040
 20
1584.8518
 30
0.0000
  0
VERTEX
  8
0
 10
2186.7277
 20
1584.3575
 30
0.0000
  0
SEQEND
  0
POLYLINE
  6
continous
  8
BYBLOCK
 70
0
 66
1
  0
VERTEX
  8
0
 10
2112.4815
 20
1531.8575
 30
0.0000
  0
VERTEX
  8
0
 10
2111.6775
 20
1531.2154
 30
0.0000
  0
VERTEX
  8
0
 10
2110.9893
 20
1530.5093
 30
0.0000
  0
VERTEX
  8
0
 10
2110.4271
 20
1529.7494
 30
0.0000
  0
VERTEX
  8
0
 10
2109.9992
 20
1528.9470
 30
0.0000
  0
VERTEX
  8
0
 10
2109.7117
 20
1528.1139
 30
0.0000
  0
VERTEX
  8
0
 10
2109.5690
 20
1527.2622
 30
0.0000
  0
VERTEX
  8
0
 10
2109.5527
 20
1526.8947
 30
0.0000
  0
SEQEND
  0
LINE
  6
continous
  8
BYBLOCK
 10
2112.4815
 20
1531.8575
 30
0.0000
 11
2112.4815
 21
1531.9282
 31
0.0000
  0
POLYLINE
  6
continous
  8
BYBLOCK
 70
0
 66
1
  0
VERTEX
  8
0
 10
2129.5525
 20
1526.8907
 30
0.0000
  0
VERTEX
  8
0
 10
2129.4725
 20
1527.7505
 30
0.0000
  0
VERTEX
  8
0
 10
2129.2453
 20
1528.5970
 30
0.0000
  0
VERTEX
  8
0
 10
2128.8741
 20
1529.4177
 30
0.0000
  0
VERTEX
  8
0
 10
2128.3645
 20
1530.2004
 30
0.0000
  0
VERTEX
  8
0
 10
2127.7241
 20
1530.9334
 30
0.0000
  0
VERTEX
  8
0
 10
2126.9623
 20
1531.6060
 30
0.0000
  0
VERTEX
  8
0
 10
2126.0905
 20
1532.2080
 30
0.0000
  0
VERTEX
  8
0
 10
2124.9762
 20
1532.7982
 30
0.0000
  0
VERTEX
  8
0
 10
2123.7567
 20
1533.2733
 30
0.0000
  0
VERTEX
  8
0
 10
2122.4556
 20
1533.6240
 30
0.0000
  0
VERTEX
  8
0
 10
2121.0984
 20
1533.8436
 30
0.0000
  0
VERTEX
  8
0
 10
2119.7111
 20
1533.9277
 30
0.0000
  0
VERTEX
  8
0
 10
2118.3208
 20
1533.8747
 30
0.0000
  0
VERTEX
  8
0
 10
2116.9543
 20
1533.6857
 30
0.0000
  0
VERTEX
  8
0
 10
2115.6382
 20
1533.3643
 30
0.0000
  0
VERTEX
  8
0
 10
2114.3980
 20
1532.9168
 30
0.0000
  0
VERTEX
  8
0
 10
2113.2577
 20
1532.3518
 30
0.0000
  0
VERTEX
  8
0
 10
2112.4815
 20
1531.8575
 30
0.0000
  0
SEQEND
  0
POLYLINE
  6
continous
  8
BYBLOCK
 70
0
 66
1
  0
VERTEX
  8
0
 10
2038.2353
 20
1479.3575
 30
0.0000
  0
VERTEX
  8
0
 10
2037.4313
 20
1478.7154
 30
0.0000
  0
VERTEX
  8
0
 10
2036.7431
 20
1478.0093
 30
0.0000
  0
VERTEX
  8
0
 10
2036.1809
 20
1477.2494
 30
0.0000
  0
VERTEX
  8
0
 10
2035.7529
 20
1476.4470
 30
0.0000
  0
VERTEX
  8
0
 10
2035.4655
 20
1475.6139
 30
0.0000
  0
VERTEX
  8
0
 10
2035.3228
 20
1474.7622
 30
0.0000
  0
VERTEX
  8
0
 10
2035.3065
 20
1474.3947
 30
0.0000
  0
SEQEND
  0
LINE
  6
continous
  8
BYBLOCK
 10
2038.2353
 20
1479.3575
 30
0.0000
 11
2038.2353
 21
1479.4282
 31
0.0000
  0
POLYLINE
  6
continous
  8
BYBLOCK
 70
0
 66
1
  0
VERTEX
  8
0
 10
2055.3063
 20
1474.3907
 30
0.0000
  0
VERTEX
  8
0
 10
2055.2263
 20
1475.2505
 30
0.0000
  0
VERTEX
  8
0
 10
2054.9990
 20
1476.0970
 30
0.0000
  0
VERTEX
  8
0
 10
2054.6279
 20
1476.9177
 30
0.0000
  0
VERTEX
  8
0
 10
2054.1183
 20
1477.7004
 30
0.0000
  0
VERTEX
  8
0
 10
2053.4779
 20
1478.4334
 30
0.0000
  0
VERTEX
  8
0
 10
2052.7161
 20
1479.1060
 30
0.0000
  0
VERTEX
  8
0
 10
2051.8443
 20
1479.7080
 30
0.0000
  0
VERTEX
  8
0
 10
2050.7300
 20
1480.2982
 30
0.0000
  0
VERTEX
  8
0
 10
2049.5104
 20
1480.7733
 30
0.0000
  0
VERTEX
  8
0
 10
2048.2094
 20
1481.1240
 30
0.0000
  0
VERTEX
  8
0
 10
2046.8521
 20
1481.3436
 30
0.0000
  0
VERTEX
  8
0
 10
2045.4649
 20
1481.4277
 30
0.0000
  0
VERTEX
  8
0
 10
2044.0745
 20
1481.3747
 30
0.0000
  0
VERTEX
  8
0
 10
2042.7081
 20
1481.1857
 30
0.0000
  0
VERTEX
  8
0
 10
2041.3920
 20
1480.8643
 30
0.0000
  0
VERTEX
  8
0
 10
2040.1518
 20
1480.4168
 30
0.0000
  0
VERTEX
  8
0
 10
2039.0115
 20
1479.8518
 30
0.0000
  0
VERTEX
  8
0
 10
2038.2353
 20
1479.3575
 30
0.0000
  0
SEQEND
  0
POLYLINE
  6
continous
  8
BYBLOCK
 70
0
 66
1
  0
VERTEX
  8
0
 10
1963.9891
 20
1426.8575
 30
0.0000
  0
VERTEX
  8
0
 10
1963.1851
 20
1426.2154
 30
0.0000
  0
VERTEX
  8
0
 10
1962.4969
 20
1425.5093
 30
0.0000
  0
VERTEX
  8
0
 10
1961.9347
 20
1424.7494
 30
0.0000
  0
VERTEX
  8
0
 10
1961.5067
 20
1423.9470
 30
0.0000
  0
VERTEX
  8
0
 10
1961.2193
 20
1423.1139
 30
0.0000
  0
VERTEX
  8
0
 10
1961.0765
 20
1422.2622
 30
0.0000
  0
VERTEX
  8
0
 10
1961.0603
 20
1421.8947
 30
0.0000
  0
SEQEND
  0
LINE
  6
continous
  8
BYBLOCK
 10
1963.9891
 20
1426.8575
 30
0.0000
 11
1963.9891
 21
1426.9282
 31
0.0000
  0
POLYLINE
  6
continous
  8
BYBLOCK
 70
0
 66
1
  0
VERTEX
  8
0
 10
1981.0600
 20
1421.8907
 30
0.0000
  0
VERTEX
  8
0
 10
1980.9801
 20
1422.7505
 30
0.0000
  0
VERTEX
  8
0
 10
1980.7528
 20
1423.5970
 30
0.0000
  0
VERTEX
  8
0
 10
1980.3817
 20
1424.4177
 30
0.0000
  0
VERTEX
  8
0
 10
1979.8721
 20
1425.2004
 30
0.0000
  0
VERTEX
  8
0
 10
1979.2317
 20
1425.9334
 30
0.0000
  0
VERTEX
  8
0
 10
1978.4699
 20
1426.6060
 30
0.0000
  0
VERTEX
  8
0
 10
1977.5981
 20
1427.2080
 30
0.0000
  0
VERTEX
  8
0
 10
1976.4837
 20
1427.7982
 30
0.0000
  0
VERTEX
  8
0
 10
1975.2642
 20
1428.2733
 30
0.0000
  0
VERTEX
  8
0
 10
1973.9632
 20
1428.6240
 30
0.0000
  0
VERTEX
  8
0
 10
1972.6059
 20
1428.8436
 30
0.0000
  0
VERTEX
  8
0
 10
1971.2187
 20
1428.9277
 30
0.0000
  0
VERTEX
  8
0
 10
1969.8283
 20
1428.8747
 30
0.0000
  0
VERTEX
  8
0
 10
1968.4619
 20
1428.6857
 30
0.0000
  0
VERTEX
  8
0
 10
1967.1458
 20
1428.3643
 30
0.0000
  0
VERTEX
  8
0
 10
1965.9056
 20
1427.9168
 30
0.0000
  0
VERTEX
  8
0
 10
1964.7653
 20
1427.3518
 30
0.0000
  0
VERTEX
  8
0
 10
1963.9891
 20
1426.8575
 30
0.0000
  0
SEQEND
  0
POLYLINE
  6
continous
  8
BYBLOCK
 70
0
 66
1
  0
VERTEX
  8
0
 10
1889.7429
 20
1374.3575
 30
0.0000
  0
VERTEX
  8
0
 10
1888.9389
 20
1373.7154
 30
0.0000
  0
VERTEX
  8
0
 10
1888.2507
 20
1373.0093
 30
0.0000
  0
VERTEX
  8
0
 10
1887.6885
 20
1372.2494
 30
0.0000
  0
VERTEX
  8
0
 10
1887.2605
 20
1371.4470
 30
0.0000
  0
VERTEX
  8
0
 10
1886.9731
 20
1370.6139
 30
0.0000
  0
VERTEX
  8
0
 10
1886.8303
 20
1369.7622
 30
0.0000
  0
VERTEX
  8
0
 10
1886.8141
 20
1369.3947
 30
0.0000
  0
SEQEND
  0
LINE
  6
continous
  8
BYBLOCK
 10
1889.7429
 20
1374.3575
 30
0.0000
 11
1889.7429
 21
1374.4282
 31
0.0000
  0
POLYLINE
  6
continous
  8
BYBLOCK
 70
0
 66
1
  0
VERTEX
  8
0
 10
1906.8138
 20
1369.3907
 30
0.0000
  0
VERTEX
  8
0
 10
1906.7339
 20
1370.2505
 30
0.0000
  0
VERTEX
  8
0
 10
1906.5066
 20
1371.0970
 30
0.0000
  0
VERTEX
  8
0
 10
1906.1354
 20
1371.9177
 30
0.0000
  0
VERTEX
  8
0
 10
1905.6259
 20
1372.7004
 30
0.0000
  0
VERTEX
  8
0
 10
1904.9854
 20
1373.4334
 30
0.0000
  0
VERTEX
  8
0
 10
1904.2237
 20
1374.1060
 30
0.0000
  0
VERTEX
  8
0
 10
1903.3519
 20
1374.7080
 30
0.0000
  0
VERTEX
  8
0
 10
1902.2375
 20
1375.2982
 30
0.0000
  0
VERTEX
  8
0
 10
1901.0180
 20
1375.7733
 30
0.0000
  0
VERTEX
  8
0
 10
1899.7170
 20
1376.1240
 30
0.0000
  0
VERTEX
  8
0
 10
1898.3597
 20
1376.3436
 30
0.0000
  0
VERTEX
  8
0
 10
1896.9725
 20
1376.4277
 30
0.0000
  0
VERTEX
  8
0
 10
1895.5821
 20
1376.3747
 30
0.0000
  0
VERTEX
  8
0
 10
1894.2157
 20
1376.1857
 30
0.0000
  0
VERTEX
  8
0
 10
1892.8996
 20
1375.8643
 30
0.0000
  0
VERTEX
  8
0
 10
1891.6594
 20
1375.4168
 30
0.0000
  0
VERTEX
  8
0
 10
1890.5191
 20
1374.8518
 30
0.0000
  0
VERTEX
  8
0
 10
1889.7429
 20
1374.3575
 30
0.0000
  0
SEQEND
  0
POLYLINE
  6
continous
  8
BYBLOCK
 70
0
 66
1
  0
VERTEX
  8
0
 10
1815.4967
 20
1321.8575
 30
0.0000
  0
VERTEX
  8
0
 10
1814.6927
 20
1321.2154
 30
0.0000
  0
VERTEX
  8
0
 10
1814.0045
 20
1320.5093
 30
0.0000
  0
VERTEX
  8
0
 10
1813.4423
 20
1319.7494
 30
0.0000
  0
VERTEX
  8
0
 10
1813.0143
 20
1318.9470
 30
0.0000
  0
VERTEX
  8
0
 10
1812.7268
 20
1318.1139
 30
0.0000
  0
VERTEX
  8
0
 10
1812.5841
 20
1317.2622
 30
0.0000
  0
VERTEX
  8
0
 10
1812.5679
 20
1316.8947
 30
0.0000
  0
SEQEND
  0
LINE
  6
continous
  8
BYBLOCK
 10
1815.4967
 20
1321.8575
 30
0.0000
 11
1815.4967
 21
1321.9282
 31
0.0000
  0
POLYLINE
  6
continous
  8
BYBLOCK
 70
0
 66
1
  0
VERTEX
  8
0
 10
1832.5676
 20
1316.8907
 30
0.0000
  0
VERTEX
  8
0
 10
1832.4877
 20
1317.7505
 30
0.0000
  0
VERTEX
  8
0
 10
1832.2604
 20
1318.5970
 30
0.0000
  0
VERTEX
  8
0
 10
1831.8892
 20
1319.4177
 30
0.0000
  0
VERTEX
  8
0
 10
1831.3797
 20
1320.2004
 30
0.0000
  0
VERTEX
  8
0
 10
1830.7392
 20
1320.9334
 30
0.0000
  0
VERTEX
  8
0
 10
1829.9775
 20
1321.6060
 30
0.0000
  0
VERTEX
  8
0
 10
1829.1057
 20
1322.2080
 30
0.0000
  0
VERTEX
  8
0
 10
1827.9913
 20
1322.7982
 30
0.0000
  0
VERTEX
  8
0
 10
1826.7718
 20
1323.2733
 30
0.0000
  0
VERTEX
  8
0
 10
1825.4708
 20
1323.6240
 30
0.0000
  0
VERTEX
  8
0
 10
1824.1135
 20
1323.8436
 30
0.0000
  0
VERTEX
  8
0
 10
1822.7262
 20
1323.9277
 30
0.0000
  0
VERTEX
  8
0
 10
1821.3359
 20
1323.8747
 30
0.0000
  0
VERTEX
  8
0
 10
1819.9695
 20
1323.6857
 30
0.0000
  0
VERTEX
  8
0
 10
1818.6534
 20
1323.3643
 30
0.0000
  0
VERTEX
  8
0
 10
1817.4132
 20
1322.9168
 30
0.0000
  0
VERTEX
  8
0
 10
1816.2729
 20
1322.3518
 30
0.0000
  0
VERTEX
  8
0
 10
1815.4967
 20
1321.8575
 30
0.0000
  0
SEQEND
  0
POLYLINE
  6
continous
  8
BYBLOCK
 70
0
 66
1
  0
VERTEX
  8
0
 10
1741.2504
 20
1269.3575
 30
0.0000
  0
VERTEX
  8
0
 10
1740.4465
 20
1268.7154
 30
0.0000
  0
VERTEX
  8
0
 10
1739.7583
 20
1268.0093
 30
0.0000
  0
VERTEX
  8
0
 10
1739.1961
 20
1267.2494
 30
0.0000
  0
VERTEX
  8
0
 10
1738.7681
 20
1266.4470
 30
0.0000
  0
VERTEX
  8
0
 10
1738.4806
 20
1265.6139
 30
0.0000
  0
VERTEX
  8
0
 10
1738.3379
 20
1264.7622
 30
0.0000
  0
VERTEX
  8
0
 10
1738.3217
 20
1264.3947
 30
0.0000
  0
SEQEND
  0
LINE
  6
continous
  8
BYBLOCK
 10
1741.2504
 20
1269.3575
 30
0.0000
 11
1741.2504
 21
1269.4282
 31
0.0000
  0
POLYLINE
  6
continous
  8
BYBLOCK
 70
0
 66
1
  0
VERTEX
  8
0
 10
1758.3214
 20
1264.3907
 30
0.0000
  0
VERTEX
  8
0
 10
1758.2414
 20
1265.2505
 30
0.0000
  0
VERTEX
  8
0
 10
1758.0142
 20
1266.0970
 30
0.0000
  0
VERTEX
  8
0
 10
1757.6430
 20
1266.9177
 30
0.0000
  0
VERTEX
  8
0
 10
1757.1334
 20
1267.7004
 30
0.0000
  0
VERTEX
  8
0
 10
1756.4930
 20
1268.4334
 30
0.0000
  0
VERTEX
  8
0
 10
1755.7313
 20
1269.1060
 30
0.0000
  0
VERTEX
  8
0
 10
1754.8595
 20
1269.7080
 30
0.0000
  0
VERTEX
  8
0
 10
1753.7451
 20
1270.2982
 30
0.0000
  0
VERTEX
  8
0
 10
1752.5256
 20
1270.7733
 30
0.0000
  0
VERTEX
  8
0
 10
1751.2246
 20
1271.1240
 30
0.0000
  0
VERTEX
  8
0
 10
1749.8673
 20
1271.3436
 30
0.0000
  0
VERTEX
  8
0
 10
1748.4800
 20
1271.4277
 30
0.0000
  0
VERTEX
  8
0
 10
1747.0897
 20
1271.3747
 30
0.0000
  0
VERTEX
  8
0
 10
1745.7232
 20
1271.1857
 30
0.0000
  0
VERTEX
  8
0
 10
1744.4072
 20
1270.8643
 30
0.0000
  0
VERTEX
  8
0
 10
1743.1670
 20
1270.4168
 30
0.0000
  0
VERTEX
  8
0
 10
1742.0267
 20
1269.8518
 30
0.0000
  0
VERTEX
  8
0
 10
1741.2504
 20
1269.3575
 30
0.0000
  0
SEQEND
  0
POLYLINE
  6
continous
  8
BYBLOCK
 70
0
 66
1
  0
VERTEX
  8
0
 10
1667.0042
 20
1216.8575
 30
0.0000
  0
VERTEX
  8
0
 10
1666.2002
 20
1216.2154
 30
0.0000
  0
VERTEX
  8
0
 10
1665.5121
 20
1215.5093
 30
0.0000
  0
VERTEX
  8
0
 10
1664.9499
 20
1214.7494
 30
0.0000
  0
VERTEX
  8
0
 10
1664.5219
 20
1213.9470
 30
0.0000
  0
VERTEX
  8
0
 10
1664.2344
 20
1213.1139
 30
0.0000
  0
VERTEX
  8
0
 10
1664.0917
 20
1212.2622
 30
0.0000
  0
VERTEX
  8
0
 10
1664.0754
 20
1211.8947
 30
0.0000
  0
SEQEND
  0
LINE
  6
continous
  8
BYBLOCK
 10
1667.0042
 20
1216.8575
 30
0.0000
 11
1667.0042
 21
1216.9282
 31
0.0000
  0
POLYLINE
  6
continous
  8
BYBLOCK
 70
0
 66
1
  0
VERTEX
  8
0
 10
1684.0752
 20
1211.8907
 30
0.0000
  0
VERTEX
  8
0
 10
1683.9952
 20
1212.7505
 30
0.0000
  0
VERTEX
  8
0
 10
1683.7680
 20
1213.5970
 30
0.0000
  0
VERTEX
  8
0
 10
1683.3968
 20
1214.4177
 30
0.0000
  0
VERTEX
  8
0
 10
1682.8872
 20
1215.2004
 30
0.0000
  0
VERTEX
  8
0
 10
1682.2468
 20
1215.9334
 30
0.0000
  0
VERTEX
  8
0
 10
1681.4851
 20
1216.6060
 30
0.0000
  0
VERTEX
  8
0
 10
1680.6133
 20
1217.2080
 30
0.0000
  0
VERTEX
  8
0
 10
1679.4989
 20
1217.7982
 30
0.0000
  0
VERTEX
  8
0
 10
1678.2794
 20
1218.2733
 30
0.0000
  0
VERTEX
  8
0
 10
1676.9784
 20
1218.6240
 30
0.0000
  0
VERTEX
  8
0
 10
1675.6211
 20
1218.8436
 30
0.0000
  0
VERTEX
  8
0
 10
1674.2338
 20
1218.9277
 30
0.0000
  0
VERTEX
  8
0
 10
1672.8435
 20
1218.8747
 30
0.0000
  0
VERTEX
  8
0
 10
1671.4770
 20
1218.6857
 30
0.0000
  0
VERTEX
  8
0
 10
1670.1609
 20
1218.3643
 30
0.0000
  0
VERTEX
  8
0
 10
1668.9207
 20
1217.9168
 30
0.0000
  0
VERTEX
  8
0
 10
1667.7805
 20
1217.3518
 30
0.0000
  0
VERTEX
  8
0
 10
1667.0042
 20
1216.8575
 30
0.0000
  0
SEQEND
  0
POLYLINE
  6
continous
  8
BYBLOCK
 70
0
 66
1
  0
VERTEX
  8
0
 10
1592.7580
 20
1164.3575
 30
0.0000
  0
VERTEX
  8
0
 10
1591.9540
 20
1163.7154
 30
0.0000
  0
VERTEX
  8
0
 10
1591.2659
 20
1163.0093
 30
0.0000
  0
VERTEX
  8
0
 10
1590.7037
 20
1162.2494
 30
0.0000
  0
VERTEX
  8
0
 10
1590.2757
 20
1161.4470
 30
0.0000
  0
VERTEX
  8
0
 10
1589.9882
 20
1160.6139
 30
0.0000
  0
VERTEX
  8
0
 10
1589.8455
 20
1159.7622
 30
0.0000
  0
VERTEX
  8
0
 10
1589.8292
 20
1159.3947
 30
0.0000
  0
SEQEND
  0
LINE
  6
continous
  8
BYBLOCK
 10
1592.7580
 20
1164.3575
 30
0.0000
 11
1592.7580
 21
1164.4282
 31
0.0000
  0
POLYLINE
  6
continous
  8
BYBLOCK
 70
0
 66
1
  0
VERTEX
  8
0
 10
1609.8290
 20
1159.3907
 30
0.0000
  0
VERTEX
  8
0
 10
1609.7490
 20
1160.2505
 30
0.0000
  0
VERTEX
  8
0
 10
1609.5218
 20
1161.0970
 30
0.0000
  0
VERTEX
  8
0
 10
1609.1506
 20
1161.9177
 30
0.0000
  0
VERTEX
  8
0
 10
1608.6410
 20
1162.7004
 30
0.0000
  0
VERTEX
  8
0
 10
1608.0006
 20
1163.4334
 30
0.0000
  0
VERTEX
  8
0
 10
1607.2388
 20
1164.1060
 30
0.0000
  0
VERTEX
  8
0
 10
1606.3671
 20
1164.7080
 30
0.0000
  0
VERTEX
  8
0
 10
1605.2527
 20
1165.2982
 30
0.0000
  0
VERTEX
  8
0
 10
1604.0332
 20
1165.7733
 30
0.0000
  0
VERTEX
  8
0
 10
1602.7322
 20
1166.1240
 30
0.0000
  0
VERTEX
  8
0
 10
1601.3749
 20
1166.3436
 30
0.0000
  0
VERTEX
  8
0
 10
1599.9876
 20
1166.4277
 30
0.0000
  0
VERTEX
  8
0
 10
1598.5973
 20
1166.3747
 30
0.0000
  0
VERTEX
  8
0
 10
1597.2308
 20
1166.1857
 30
0.0000
  0
VERTEX
  8
0
 10
1595.9147
 20
1165.8643
 30
0.0000
  0
VERTEX
  8
0
 10
1594.6745
 20
1165.4168
 30
0.0000
  0
VERTEX
  8
0
 10
1593.5343
 20
1164.8518
 30
0.0000
  0
VERTEX
  8
0
 10
1592.7580
 20
1164.3575
 30
0.0000
  0
SEQEND
  0
POLYLINE
  6
continous
  8
BYBLOCK
 70
0
 66
1
  0
VERTEX
  8
0
 10
1518.5118
 20
1111.8575
 30
0.0000
  0
VERTEX
  8
0
 10
1517.7078
 20
1111.2154
 30
0.0000
  0
VERTEX
  8
0
 10
1517.0197
 20
1110.5093
 30
0.0000
  0
VERTEX
  8
0
 10
1516.4574
 20
1109.7494
 30
0.0000
  0
VERTEX
  8
0
 10
1516.0295
 20
1108.9470
 30
0.0000
  0
VERTEX
  8
0
 10
1515.7420
 20
1108.1139
 30
0.0000
  0
VERTEX
  8
0
 10
1515.5993
 20
1107.2622
 30
0.0000
  0
VERTEX
  8
0
 10
1515.5830
 20
1106.8947
 30
0.0000
  0
SEQEND
  0
LINE
  6
continous
  8
BYBLOCK
 10
1518.5118
 20
1111.8575
 30
0.0000
 11
1518.5118
 21
1111.9282
 31
0.0000
  0
POLYLINE
  6
continous
  8
BYBLOCK
 70
0
 66
1
  0
VERTEX
  8
0
 10
1535.5828
 20
1106.8907
 30
0.0000
  0
VERTEX
  8
0
 10
1535.5028
 20
1107.7505
 30
0.0000
  0
VERTEX
  8
0
 10
1535.2756
 20
1108.5970
 30
0.0000
  0
VERTEX
  8
0
 10
1534.9044
 20
1109.4177
 30
0.0000
  0
VERTEX
  8
0
 10
1534.3948
 20
1110.2004
 30
0.0000
  0
VERTEX
  8
0
 10
1533.7544
 20
1110.9334
 30
0.0000
  0
VERTEX
  8
0
 10
1532.9926
 20
1111.6060
 30
0.0000
  0
VERTEX
  8
0
 10
1532.1208
 20
1112.2080
 30
0.0000
  0
VERTEX
  8
0
 10
1531.0065
 20
1112.7982
 30
0.0000
  0
VERTEX
  8
0
 10
1529.7870
 20
1113.2733
 30
0.0000
  0
VERTEX
  8
0
 10
1528.4860
 20
1113.6240
 30
0.0000
  0
VERTEX
  8
0
 10
1527.1287
 20
1113.8436
 30
0.0000
  0
VERTEX
  8
0
 10
1525.7414
 20
1113.9277
 30
0.0000
  0
VERTEX
  8
0
 10
1524.3511
 20
1113.8747
 30
0.0000
  0
VERTEX
  8
0
 10
1522.9846
 20
1113.6857
 30
0.0000
  0
VERTEX
  8
0
 10
1521.6685
 20
1113.3643
 30
0.0000
  0
VERTEX
  8
0
 10
1520.4283
 20
1112.9168
 30
0.0000
  0
VERTEX
  8
0
 10
1519.2881
 20
1112.3518
 30
0.0000
  0
VERTEX
  8
0
 10
1518.5118
 20
1111.8575
 30
0.0000
  0
SEQEND
  0
POLYLINE
  6
continous
  8
BYBLOCK
 70
0
 66
1
  0
VERTEX
  8
0
 10
1444.2656
 20
1059.3575
 30
0.0000
  0
VERTEX
  8
0
 10
1443.4616
 20
1058.7154
 30
0.0000
  0
VERTEX
  8
0
 10
1442.7734
 20
1058.0093
 30
0.0000
  0
VERTEX
  8
0
 10
1442.2112
 20
1057.2494
 30
0.0000
  0
VERTEX
  8
0
 10
1441.7832
 20
1056.4470
 30
0.0000
  0
VERTEX
  8
0
 10
1441.4958
 20
1055.6139
 30
0.0000
  0
VERTEX
  8
0
 10
1441.3531
 20
1054.7622
 30
0.0000
  0
VERTEX
  8
0
 10
1441.3368
 20
1054.3947
 30
0.0000
  0
SEQEND
  0
LINE
  6
continous
  8
BYBLOCK
 10
1444.2656
 20
1059.3575
 30
0.0000
 11
1444.2656
 21
1059.4282
 31
0.0000
  0
POLYLINE
  6
continous
  8
BYBLOCK
 70
0
 66
1
  0
VERTEX
  8
0
 10
1461.3366
 20
1054.3907
 30
0.0000
  0
VERTEX
  8
0
 10
1461.2566
 20
1055.2505
 30
0.0000
  0
VERTEX
  8
0
 10
1461.0293
 20
1056.0970
 30
0.0000
  0
VERTEX
  8
0
 10
1460.6582
 20
1056.9177
 30
0.0000
  0
VERTEX
  8
0
 10
1460.1486
 20
1057.7004
 30
0.0000
  0
VERTEX
  8
0
 10
1459.5082
 20
1058.4334
 30
0.0000
  0
VERTEX
  8
0
 10
1458.7464
 20
1059.1060
 30
0.0000
  0
VERTEX
  8
0
 10
1457.8746
 20
1059.7080
 30
0.0000
  0
VERTEX
  8
0
 10
1456.7603
 20
1060.2982
 30
0.0000
  0
VERTEX
  8
0
 10
1455.5408
 20
1060.7733
 30
0.0000
  0
VERTEX
  8
0
 10
1454.2397
 20
1061.1240
 30
0.0000
  0
VERTEX
  8
0
 10
1452.8824
 20
1061.3436
 30
0.0000
  0
VERTEX
  8
0
 10
1451.4952
 20
1061.4277
 30
0.0000
  0
VERTEX
  8
0
 10
1450.1048
 20
1061.3747
 30
0.0000
  0
VERTEX
  8
0
 10
1448.7384
 20
1061.1857
 30
0.0000
  0
VERTEX
  8
0
 10
1447.4223
 20
1060.8643
 30
0.0000
  0
VERTEX
  8
0
 10
1446.1821
 20
1060.4168
 30
0.0000
  0
VERTEX
  8
0
 10
1445.0418
 20
1059.8518
 30
0.0000
  0
VERTEX
  8
0
 10
1444.2656
 20
1059.3575
 30
0.0000
  0
SEQEND
  0
POLYLINE
  6
continous
  8
BYBLOCK
 70
0
 66
1
  0
VERTEX
  8
0
 10
1370.0194
 20
1006.8575
 30
0.0000
  0
VERTEX
  8
0
 10
1369.2154
 20
1006.2154
 30
0.0000
  0
VERTEX
  8
0
 10
1368.5272
 20
1005.5093
 30
0.0000
  0
VERTEX
  8
0
 10
1367.9650
 20
1004.7494
 30
0.0000
  0
VERTEX
  8
0
 10
1367.5370
 20
1003.9470
 30
0.0000
  0
VERTEX
  8
0
 10
1367.2496
 20
1003.1139
 30
0.0000
  0
VERTEX
  8
0
 10
1367.1069
 20
1002.2622
 30
0.0000
  0
VERTEX
  8
0
 10
1367.0906
 20
1001.8947
 30
0.0000
  0
SEQEND
  0
LINE
  6
continous
  8
BYBLOCK
 10
1370.0194
 20
1006.8575
 30
0.0000
 11
1370.0194
 21
1006.9282
 31
0.0000
  0
POLYLINE
  6
continous
  8
BYBLOCK
 70
0
 66
1
  0
VERTEX
  8
0
 10
1387.0903
 20
1001.8907
 30
0.0000
  0
VERTEX
  8
0
 10
1387.0104
 20
1002.7505
 30
0.0000
  0
VERTEX
  8
0
 10
1386.7831
 20
1003.5970
 30
0.0000
  0
VERTEX
  8
0
 10
1386.4120
 20
1004.4177
 30
0.0000
  0
VERTEX
  8
0
 10
1385.9024
 20
1005.2004
 30
0.0000
  0
VERTEX
  8
0
 10
1385.2620
 20
1005.9334
 30
0.0000
  0
VERTEX
  8
0
 10
1384.5002
 20
1006.6060
 30
0.0000
  0
VERTEX
  8
0
 10
1383.6284
 20
1007.2080
 30
0.0000
  0
VERTEX
  8
0
 10
1382.5141
 20
1007.7982
 30
0.0000
  0
VERTEX
  8
0
 10
1381.2945
 20
1008.2733
 30
0.0000
  0
VERTEX
  8
0
 10
1379.9935
 20
1008.6240
 30
0.0000
  0
VERTEX
  8
0
 10
1378.6362
 20
1008.8436
 30
0.0000
  0
VERTEX
  8
0
 10
1377.2490
 20
1008.9277
 30
0.0000
  0
VERTEX
  8
0
 10
1375.8586
 20
1008.8747
 30
0.0000
  0
VERTEX
  8
0
 10
1374.4922
 20
1008.6857
 30
0.0000
  0
VERTEX
  8
0
 10
1373.1761
 20
1008.3643
 30
0.0000
  0
VERTEX
  8
0
 10
1371.9359
 20
1007.9168
 30
0.0000
  0
VERTEX
  8
0
 10
1370.7956
 20
1007.3518
 30
0.0000
  0
VERTEX
  8
0
 10
1370.0194
 20
1006.8575
 30
0.0000
  0
SEQEND
  0
POLYLINE
  6
continous
  8
BYBLOCK
 70
0
 66
1
  0
VERTEX
  8
0
 10
1295.7732
 20
954.3575
 30
0.0000
  0
VERTEX
  8
0
 10
1294.9692
 20
953.7154
 30
0.0000
  0
VERTEX
  8
0
 10
1294.2810
 20
953.0093
 30
0.0000
  0
VERTEX
  8
0
 10
1293.7188
 20
952.2494
 30
0.0000
  0
VERTEX
  8
0
 10
1293.2908
 20
951.4470
 30
0.0000
  0
VERTEX
  8
0
 10
1293.0034
 20
950.6139
 30
0.0000
  0
VERTEX
  8
0
 10
1292.8606
 20
949.7622
 30
0.0000
  0
VERTEX
  8
0
 10
1292.8444
 20
949.3947
 30
0.0000
  0
SEQEND
  0
LINE
  6
continous
  8
BYBLOCK
 10
1295.7732
 20
954.3575
 30
0.0000
 11
1295.7732
 21
954.4282
 31
0.0000
  0
POLYLINE
  6
continous
  8
BYBLOCK
 70
0
 66
1
  0
VERTEX
  8
0
 10
1312.8441
 20
949.3907
 30
0.0000
  0
VERTEX
  8
0
 10
1312.7642
 20
950.2505
 30
0.0000
  0
VERTEX
  8
0
 10
1312.5369
 20
951.0970
 30
0.0000
  0
VERTEX
  8
0
 10
1312.1658
 20
951.9177
 30
0.0000
  0
VERTEX
  8
0
 10
1311.6562
 20
952.7004
 30
0.0000
  0
VERTEX
  8
0
 10
1311.0157
 20
953.4334
 30
0.0000
  0
VERTEX
  8
0
 10
1310.2540
 20
954.1060
 30
0.0000
  0
VERTEX
  8
0
 10
1309.3822
 20
954.7080
 30
0.0000
  0
VERTEX
  8
0
 10
1308.2678
 20
955.2982
 30
0.0000
  0
VERTEX
  8
0
 10
1307.0483
 20
955.7733
 30
0.0000
  0
VERTEX
  8
0
 10
1305.7473
 20
956.1240
 30
0.0000
  0
VERTEX
  8
0
 10
1304.3900
 20
956.3436
 30
0.0000
  0
VERTEX
  8
0
 10
1303.0028
 20
956.4277
 30
0.0000
  0
VERTEX
  8
0
 10
1301.6124
 20
956.3747
 30
0.0000
  0
VERTEX
  8
0
 10
1300.2460
 20
956.1857
 30
0.0000
  0
VERTEX
  8
0
 10
1298.9299
 20
955.8643
 30
0.0000
  0
VERTEX
  8
0
 10
1297.6897
 20
955.4168
 30
0.0000
  0
VERTEX
  8
0
 10
1296.5494
 20
954.8518
 30
0.0000
  0
VERTEX
  8
0
 10
1295.7732
 20
954.3575
 30
0.0000
  0
SEQEND
  0
POLYLINE
  6
continous
  8
BYBLOCK
 70
0
 66
1
  0
VERTEX
  8
0
 10
1221.5270
 20
901.8575
 30
0.0000
  0
VERTEX
  8
0
 10
1220.7230
 20
901.2154
 30
0.0000
  0
VERTEX
  8
0
 10
1220.0348
 20
900.5093
 30
0.0000
  0
VERTEX
  8
0
 10
1219.4726
 20
899.7494
 30
0.0000
  0
VERTEX
  8
0
 10
1219.0446
 20
898.9470
 30
0.0000
  0
VERTEX
  8
0
 10
1218.7571
 20
898.1139
 30
0.0000
  0
VERTEX
  8
0
 10
1218.6144
 20
897.2622
 30
0.0000
  0
VERTEX
  8
0
 10
1218.5982
 20
896.8947
 30
0.0000
  0
SEQEND
  0
LINE
  6
continous
  8
BYBLOCK
 10
1221.5270
 20
901.8575
 30
0.0000
 11
1221.5270
 21
901.9282
 31
0.0000
  0
POLYLINE
  6
continous
  8
BYBLOCK
 70
0
 66
1
  0
VERTEX
  8
0
 10
1238.5979
 20
896.8907
 30
0.0000
  0
VERTEX
  8
0
 10
1238.5180
 20
897.7505
 30
0.0000
  0
VERTEX
  8
0
 10
1238.2907
 20
898.5970
 30
0.0000
  0
VERTEX
  8
0
 10
1237.9195
 20
899.4177
 30
0.0000
  0
VERTEX
  8
0
 10
1237.4100
 20
900.2004
 30
0.0000
  0
VERTEX
  8
0
 10
1236.7695
 20
900.9334
 30
0.0000
  0
VERTEX
  8
0
 10
1236.0078
 20
901.6060
 30
0.0000
  0
VERTEX
  8
0
 10
1235.1360
 20
902.2080
 30
0.0000
  0
VERTEX
  8
0
 10
1234.0216
 20
902.7982
 30
0.0000
  0
VERTEX
  8
0
 10
1232.8021
 20
903.2733
 30
0.0000
  0
VERTEX
  8
0
 10
1231.5011
 20
903.6240
 30
0.0000
  0
VERTEX
  8
0
 10
1230.1438
 20
903.8436
 30
0.0000
  0
VERTEX
  8
0
 10
1228.7565
 20
903.9277
 30
0.0000
  0
VERTEX
  8
0
 10
1227.3662
 20
903.8747
 30
0.0000
  0
VERTEX
  8
0
 10
1225.9998
 20
903.6857
 30
0.0000
  0
VERTEX
  8
0
 10
1224.6837
 20
903.3643
 30
0.0000
  0
VERTEX
  8
0
 10
1223.4435
 20
902.9168
 30
0.0000
  0
VERTEX
  8
0
 10
1222.3032
 20
902.3518
 30
0.0000
  0
VERTEX
  8
0
 10
1221.5270
 20
901.8575
 30
0.0000
  0
SEQEND
  0
POLYLINE
  6
continous
  8
BYBLOCK
 70
0
 66
1
  0
VERTEX
  8
0
 10
1147.2808
 20
849.3575
 30
0.0000
  0
VERTEX
  8
0
 10
1146.4768
 20
848.7154
 30
0.0000
  0
VERTEX
  8
0
 10
1145.7886
 20
848.0093
 30
0.0000
  0
VERTEX
  8
0
 10
1145.2264
 20
847.2494
 30
0.0000
  0
VERTEX
  8
0
 10
1144.7984
 20
846.4470
 30
0.0000
  0
VERTEX
  8
0
 10
1144.5109
 20
845.6139
 30
0.0000
  0
VERTEX
  8
0
 10
1144.3682
 20
844.7622
 30
0.0000
  0
VERTEX
  8
0
 10
1144.3520
 20
844.3947
 30
0.0000
  0
SEQEND
  0
LINE
  6
continous
  8
BYBLOCK
 10
1147.2808
 20
849.3575
 30
0.0000
 11
1147.2808
 21
849.4282
 31
0.0000
  0
POLYLINE
  6
continous
  8
BYBLOCK
 70
0
 66
1
  0
VERTEX
  8
0
 10
1164.3517
 20
844.3907
 30
0.0000
  0
VERTEX
  8
0
 10
1164.2718
 20
845.2505
 30
0.0000
  0
VERTEX
  8
0
 10
1164.0445
 20
846.0970
 30
0.0000
  0
VERTEX
  8
0
 10
1163.6733
 20
846.9177
 30
0.0000
  0
VERTEX
  8
0
 10
1163.1637
 20
847.7004
 30
0.0000
  0
VERTEX
  8
0
 10
1162.5233
 20
848.4334
 30
0.0000
  0
VERTEX
  8
0
 10
1161.7616
 20
849.1060
 30
0.0000
  0
VERTEX
  8
0
 10
1160.8898
 20
849.7080
 30
0.0000
  0
VERTEX
  8
0
 10
1159.7754
 20
850.2982
 30
0.0000
  0
VERTEX
  8
0
 10
1158.5559
 20
850.7733
 30
0.0000
  0
VERTEX
  8
0
 10
1157.2549
 20
851.1240
 30
0.0000
  0
VERTEX
  8
0
 10
1155.8976
 20
851.3436
 30
0.0000
  0
VERTEX
  8
0
 10
1154.5103
 20
851.4277
 30
0.0000
  0
VERTEX
  8
0
 10
1153.1200
 20
851.3747
 30
0.0000
  0
VERTEX
  8
0
 10
1151.7535
 20
851.1857
 30
0.0000
  0
VERTEX
  8
0
 10
1150.4375
 20
850.8643
 30
0.0000
  0
VERTEX
  8
0
 10
1149.1973
 20
850.4168
 30
0.0000
  0
VERTEX
  8
0
 10
1148.0570
 20
849.8518
 30
0.0000
  0
VERTEX
  8
0
 10
1147.2808
 20
849.3575
 30
0.0000
  0
SEQEND
  0
POLYLINE
  6
continous
  8
BYBLOCK
 70
0
 66
1
  0
VERTEX
  8
0
 10
1073.0345
 20
796.8575
 30
0.0000
  0
VERTEX
  8
0
 10
1072.2305
 20
796.2154
 30
0.0000
  0
VERTEX
  8
0
 10
1071.5424
 20
795.5093
 30
0.0000
  0
VERTEX
  8
0
 10
1070.9802
 20
794.7494
 30
0.0000
  0
VERTEX
  8
0
 10
1070.5522
 20
793.9470
 30
0.0000
  0
VERTEX
  8
0
 10
1070.2647
 20
793.1139
 30
0.0000
  0
VERTEX
  8
0
 10
1070.1220
 20
792.2622
 30
0.0000
  0
VERTEX
  8
0
 10
1070.1057
 20
791.8947
 30
0.0000
  0
SEQEND
  0
LINE
  6
continous
  8
BYBLOCK
 10
1073.0345
 20
796.8575
 30
0.0000
 11
1073.0345
 21
796.9282
 31
0.0000
  0
POLYLINE
  6
continous
  8
BYBLOCK
 70
0
 66
1
  0
VERTEX
  8
0
 10
1090.1055
 20
791.8907
 30
0.0000
  0
VERTEX
  8
0
 10
1090.0255
 20
792.7505
 30
0.0000
  0
VERTEX
  8
0
 10
1089.7983
 20
793.5970
 30
0.0000
  0
VERTEX
  8
0
 10
1089.4271
 20
794.4177
 30
0.0000
  0
VERTEX
  8
0
 10
1088.9175
 20
795.2004
 30
0.0000
  0
VERTEX
  8
0
 10
1088.2771
 20
795.9334
 30
0.0000
  0
VERTEX
  8
0
 10
1087.5154
 20
796.6060
 30
0.0000
  0
VERTEX
  8
0
 10
1086.6436
 20
797.2080
 30
0.0000
  0
VERTEX
  8
0
 10
1085.5292
 20
797.7982
 30
0.0000
  0
VERTEX
  8
0
 10
1084.3097
 20
798.2733
 30
0.0000
  0
VERTEX
  8
0
 10
1083.0087
 20
798.6240
 30
0.0000
  0
VERTEX
  8
0
 10
1081.6514
 20
798.8436
 30
0.0000
  0
VERTEX
  8
0
 10
1080.2641
 20
798.9277
 30
0.0000
  0
VERTEX
  8
0
 10
1078.8738
 20
798.8747
 30
0.0000
  0
VERTEX
  8
0
 10
1077.5073
 20
798.6857
 30
0.0000
  0
VERTEX
  8
0
 10
1076.1912
 20
798.3643
 30
0.0000
  0
VERTEX
  8
0
 10
1074.9511
 20
797.9168
 30
0.0000
  0
VERTEX
  8
0
 10
1073.8108
 20
797.3518
 30
0.0000
  0
VERTEX
  8
0
 10
1073.0345
 20
796.8575
 30
0.0000
  0
SEQEND
  0
POLYLINE
  6
continous
  8
BYBLOCK
 70
0
 66
1
  0
VERTEX
  8
0
 10
998.7883
 20
744.3575
 30
0.0000
  0
VERTEX
  8
0
 10
997.9843
 20
743.7154
 30
0.0000
  0
VERTEX
  8
0
 10
997.2962
 20
743.0093
 30
0.0000
  0
VERTEX
  8
0
 10
996.7340
 20
742.2494
 30
0.0000
  0
VERTEX
  8
0
 10
996.3060
 20
741.4470
 30
0.0000
  0
VERTEX
  8
0
 10
996.0185
 20
740.6139
 30
0.0000
  0
VERTEX
  8
0
 10
995.8758
 20
739.7622
 30
0.0000
  0
VERTEX
  8
0
 10
995.8595
 20
739.3947
 30
0.0000
  0
SEQEND
  0
LINE
  6
continous
  8
BYBLOCK
 10
998.7883
 20
744.3575
 30
0.0000
 11
998.7883
 21
744.4282
 31
0.0000
  0
POLYLINE
  6
continous
  8
BYBLOCK
 70
0
 66
1
  0
VERTEX
  8
0
 10
1015.8593
 20
739.3907
 30
0.0000
  0
VERTEX
  8
0
 10
1015.7793
 20
740.2505
 30
0.0000
  0
VERTEX
  8
0
 10
1015.5521
 20
741.0970
 30
0.0000
  0
VERTEX
  8
0
 10
1015.1809
 20
741.9177
 30
0.0000
  0
VERTEX
  8
0
 10
1014.6713
 20
742.7004
 30
0.0000
  0
VERTEX
  8
0
 10
1014.0309
 20
743.4334
 30
0.0000
  0
VERTEX
  8
0
 10
1013.2691
 20
744.1060
 30
0.0000
  0
VERTEX
  8
0
 10
1012.3974
 20
744.7080
 30
0.0000
  0
VERTEX
  8
0
 10
1011.2830
 20
745.2982
 30
0.0000
  0
VERTEX
  8
0
 10
1010.0635
 20
745.7733
 30
0.0000
  0
VERTEX
  8
0
 10
1008.7625
 20
746.1240
 30
0.0000
  0
VERTEX
  8
0
 10
1007.4052
 20
746.3436
 30
0.0000
  0
VERTEX
  8
0
 10
1006.0179
 20
746.4277
 30
0.0000
  0
VERTEX
  8
0
 10
1004.6276
 20
746.3747
 30
0.0000
  0
VERTEX
  8
0
 10
1003.2611
 20
746.1857
 30
0.0000
  0
VERTEX
  8
0
 10
1001.9450
 20
745.8643
 30
0.0000
  0
VERTEX
  8
0
 10
1000.7048
 20
745.4168
 30
0.0000
  0
VERTEX
  8
0
 10
999.5646
 20
744.8518
 30
0.0000
  0
VERTEX
  8
0
 10
998.7883
 20
744.3575
 30
0.0000
  0
SEQEND
  0
POLYLINE
  6
continous
  8
BYBLOCK
 70
0
 66
1
  0
VERTEX
  8
0
 10
924.5421
 20
691.8575
 30
0.0000
  0
VERTEX
  8
0
 10
923.7381
 20
691.2154
 30
0.0000
  0
VERTEX
  8
0
 10
923.0500
 20
690.5093
 30
0.0000
  0
VERTEX
  8
0
 10
922.4877
 20
689.7494
 30
0.0000
  0
VERTEX
  8
0
 10
922.0598
 20
688.9470
 30
0.0000
  0
VERTEX
  8
0
 10
921.7723
 20
688.1139
 30
0.0000
  0
VERTEX
  8
0
 10
921.6296
 20
687.2622
 30
0.0000
  0
VERTEX
  8
0
 10
921.6133
 20
686.8947
 30
0.0000
  0
SEQEND
  0
LINE
  6
continous
  8
BYBLOCK
 10
924.5421
 20
691.8575
 30
0.0000
 11
924.5421
 21
691.9282
 31
0.0000
  0
POLYLINE
  6
continous
  8
BYBLOCK
 70
0
 66
1
  0
VERTEX
  8
0
 10
941.6131
 20
686.8907
 30
0.0000
  0
VERTEX
  8
0
 10
941.5331
 20
687.7505
 30
0.0000
  0
VERTEX
  8
0
 10
941.3059
 20
688.5970
 30
0.0000
  0
VERTEX
  8
0
 10
940.9347
 20
689.4177
 30
0.0000
  0
VERTEX
  8
0
 10
940.4251
 20
690.2004
 30
0.0000
  0
VERTEX
  8
0
 10
939.7847
 20
690.9334
 30
0.0000
  0
VERTEX
  8
0
 10
939.0229
 20
691.6060
 30
0.0000
  0
VERTEX
  8
0
 10
938.1512
 20
692.2080
 30
0.0000
  0
VERTEX
  8
0
 10
937.0368
 20
692.7982
 30
0.0000
  0
VERTEX
  8
0
 10
935.8173
 20
693.2733
 30
0.0000
  0
VERTEX
  8
0
 10
934.5163
 20
693.6240
 30
0.0000
  0
VERTEX
  8
0
 10
933.1590
 20
693.8436
 30
0.0000
  0
VERTEX
  8
0
 10
931.7717
 20
693.9277
 30
0.0000
  0
VERTEX
  8
0
 10
930.3814
 20
693.8747
 30
0.0000
  0
VERTEX
  8
0
 10
929.0149
 20
693.6857
 30
0.0000
  0
VERTEX
  8
0
 10
927.6988
 20
693.3643
 30
0.0000
  0
VERTEX
  8
0
 10
926.4586
 20
692.9168
 30
0.0000
  0
VERTEX
  8
0
 10
925.3184
 20
692.3518
 30
0.0000
  0
VERTEX
  8
0
 10
924.5421
 20
691.8575
 30
0.0000
  0
SEQEND
  0
POLYLINE
  6
continous
  8
BYBLOCK
 70
0
 66
1
  0
VERTEX
  8
0
 10
850.2959
 20
639.3575
 30
0.0000
  0
VERTEX
  8
0
 10
849.4919
 20
638.7154
 30
0.0000
  0
VERTEX
  8
0
 10
848.8037
 20
638.0093
 30
0.0000
  0
VERTEX
  8
0
 10
848.2415
 20
637.2494
 30
0.0000
  0
VERTEX
  8
0
 10
847.8135
 20
636.4470
 30
0.0000
  0
VERTEX
  8
0
 10
847.5261
 20
635.6139
 30
0.0000
  0
VERTEX
  8
0
 10
847.3834
 20
634.7622
 30
0.0000
  0
VERTEX
  8
0
 10
847.3671
 20
634.3947
 30
0.0000
  0
SEQEND
  0
LINE
  6
continous
  8
BYBLOCK
 10
850.2959
 20
639.3575
 30
0.0000
 11
850.2959
 21
639.4282
 31
0.0000
  0
POLYLINE
  6
continous
  8
BYBLOCK
 70
0
 66
1
  0
VERTEX
  8
0
 10
867.3669
 20
634.3907
 30
0.0000
  0
VERTEX
  8
0
 10
867.2869
 20
635.2505
 30
0.0000
  0
VERTEX
  8
0
 10
867.0597
 20
636.0970
 30
0.0000
  0
VERTEX
  8
0
 10
866.6885
 20
636.9177
 30
0.0000
  0
VERTEX
  8
0
 10
866.1789
 20
637.7004
 30
0.0000
  0
VERTEX
  8
0
 10
865.5385
 20
638.4334
 30
0.0000
  0
VERTEX
  8
0
 10
864.7767
 20
639.1060
 30
0.0000
  0
VERTEX
  8
0
 10
863.9049
 20
639.7080
 30
0.0000
  0
VERTEX
  8
0
 10
862.7906
 20
640.2982
 30
0.0000
  0
VERTEX
  8
0
 10
861.5711
 20
640.7733
 30
0.0000
  0
VERTEX
  8
0
 10
860.2700
 20
641.1240
 30
0.0000
  0
VERTEX
  8
0
 10
858.9127
 20
641.3436
 30
0.0000
  0
VERTEX
  8
0
 10
857.5255
 20
641.4277
 30
0.0000
  0
VERTEX
  8
0
 10
856.1351
 20
641.3747
 30
0.0000
  0
VERTEX
  8
0
 10
854.7687
 20
641.1857
 30
0.0000
  0
VERTEX
  8
0
 10
853.4526
 20
640.8643
 30
0.0000
  0
VERTEX
  8
0
 10
852.2124
 20
640.4168
 30
0.0000
  0
VERTEX
  8
0
 10
851.0721
 20
639.8518
 30
0.0000
  0
VERTEX
  8
0
 10
850.2959
 20
639.3575
 30
0.0000
  0
SEQEND
  0
POLYLINE
  6
continous
  8
BYBLOCK
 70
0
 66
1
  0
VERTEX
  8
0
 10
776.0497
 20
586.8575
 30
0.0000
  0
VERTEX
  8
0
 10
775.2457
 20
586.2154
 30
0.0000
  0
VERTEX
  8
0
 10
774.5575
 20
585.5093
 30
0.0000
  0
VERTEX
  8
0
 10
773.9953
 20
584.7494
 30
0.0000
  0
VERTEX
  8
0
 10
773.5673
 20
583.9470
 30
0.0000
  0
VERTEX
  8
0
 10
773.2799
 20
583.1139
 30
0.0000
  0
VERTEX
  8
0
 10
773.1372
 20
582.2622
 30
0.0000
  0
VERTEX
  8
0
 10
773.1209
 20
581.8947
 30
0.0000
  0
SEQEND
  0
LINE
  6
continous
  8
BYBLOCK
 10
776.0497
 20
586.8575
 30
0.0000
 11
776.0497
 21
586.9282
 31
0.0000
  0
POLYLINE
  6
continous
  8
BYBLOCK
 70
0
 66
1
  0
VERTEX
  8
0
 10
793.1206
 20
581.8907
 30
0.0000
  0
VERTEX
  8
0
 10
793.0407
 20
582.7505
 30
0.0000
  0
VERTEX
  8
0
 10
792.8134
 20
583.5970
 30
0.0000
  0
VERTEX
  8
0
 10
792.4423
 20
584.4177
 30
0.0000
  0
VERTEX
  8
0
 10
791.9327
 20
585.2004
 30
0.0000
  0
VERTEX
  8
0
 10
791.2923
 20
585.9334
 30
0.0000
  0
VERTEX
  8
0
 10
790.5305
 20
586.6060
 30
0.0000
  0
VERTEX
  8
0
 10
789.6587
 20
587.2080
 30
0.0000
  0
VERTEX
  8
0
 10
788.5444
 20
587.7982
 30
0.0000
  0
VERTEX
  8
0
 10
787.3248
 20
588.2733
 30
0.0000
  0
VERTEX
  8
0
 10
786.0238
 20
588.6240
 30
0.0000
  0
VERTEX
  8
0
 10
784.6665
 20
588.8436
 30
0.0000
  0
VERTEX
  8
0
 10
783.2793
 20
588.9277
 30
0.0000
  0
VERTEX
  8
0
 10
781.8889
 20
588.8747
 30
0.0000
  0
VERTEX
  8
0
 10
780.5225
 20
588.6857
 30
0.0000
  0
VERTEX
  8
0
 10
779.2064
 20
588.3643
 30
0.0000
  0
VERTEX
  8
0
 10
777.9662
 20
587.9168
 30
0.0000
  0
VERTEX
  8
0
 10
776.8259
 20
587.3518
 30
0.0000
  0
VERTEX
  8
0
 10
776.0497
 20
586.8575
 30
0.0000
  0
SEQEND
  0
POLYLINE
  6
continous
  8
BYBLOCK
 70
0
 66
1
  0
VERTEX
  8
0
 10
701.8035
 20
534.3575
 30
0.0000
  0
VERTEX
  8
0
 10
700.9995
 20
533.7154
 30
0.0000
  0
VERTEX
  8
0
 10
700.3113
 20
533.0093
 30
0.0000
  0
VERTEX
  8
0
 10
699.7491
 20
532.2494
 30
0.0000
  0
VERTEX
  8
0
 10
699.3211
 20
531.4470
 30
0.0000
  0
VERTEX
  8
0
 10
699.0337
 20
530.6139
 30
0.0000
  0
VERTEX
  8
0
 10
698.8909
 20
529.7622
 30
0.0000
  0
VERTEX
  8
0
 10
698.8747
 20
529.3947
 30
0.0000
  0
SEQEND
  0
LINE
  6
continous
  8
BYBLOCK
 10
701.8035
 20
534.3575
 30
0.0000
 11
701.8035
 21
534.4282
 31
0.0000
  0
POLYLINE
  6
continous
  8
BYBLOCK
 70
0
 66
1
  0
VERTEX
  8
0
 10
718.8744
 20
529.3907
 30
0.0000
  0
VERTEX
  8
0
 10
718.7945
 20
530.2505
 30
0.0000
  0
VERTEX
  8
0
 10
718.5672
 20
531.0970
 30
0.0000
  0
VERTEX
  8
0
 10
718.1961
 20
531.9177
 30
0.0000
  0
VERTEX
  8
0
 10
717.6865
 20
532.7004
 30
0.0000
  0
VERTEX
  8
0
 10
717.0461
 20
533.4334
 30
0.0000
  0
VERTEX
  8
0
 10
716.2843
 20
534.1060
 30
0.0000
  0
VERTEX
  8
0
 10
715.4125
 20
534.7080
 30
0.0000
  0
VERTEX
  8
0
 10
714.2981
 20
535.2982
 30
0.0000
  0
VERTEX
  8
0
 10
713.0786
 20
535.7733
 30
0.0000
  0
VERTEX
  8
0
 10
711.7776
 20
536.1240
 30
0.0000
  0
VERTEX
  8
0
 10
710.4203
 20
536.3436
 30
0.0000
  0
VERTEX
  8
0
 10
709.0331
 20
536.4277
 30
0.0000
  0
VERTEX
  8
0
 10
707.6427
 20
536.3747
 30
0.0000
  0
VERTEX
  8
0
 10
706.2763
 20
536.1857
 30
0.0000
  0
VERTEX
  8
0
 10
704.9602
 20
535.8643
 30
0.0000
  0
VERTEX
  8
0
 10
703.7200
 20
535.4168
 30
0.0000
  0
VERTEX
  8
0
 10
702.5797
 20
534.8518
 30
0.0000
  0
VERTEX
  8
0
 10
701.8035
 20
534.3575
 30
0.0000
  0
SEQEND
  0
POLYLINE
  6
continous
  8
BYBLOCK
 70
0
 66
1
  0
VERTEX
  8
0
 10
627.5573
 20
481.8575
 30
0.0000
  0
VERTEX
  8
0
 10
626.7533
 20
481.2154
 30
0.0000
  0
VERTEX
  8
0
 10
626.0651
 20
480.5093
 30
0.0000
  0
VERTEX
  8
0
 10
625.5029
 20
479.7494
 30
0.0000
  0
VERTEX
  8
0
 10
625.0749
 20
478.9470
 30
0.0000
  0
VERTEX
  8
0
 10
624.7874
 20
478.1139
 30
0.0000
  0
VERTEX
  8
0
 10
624.6447
 20
477.2622
 30
0.0000
  0
VERTEX
  8
0
 10
624.6285
 20
476.8947
 30
0.0000
  0
SEQEND
  0
LINE
  6
continous
  8
BYBLOCK
 10
627.5573
 20
481.8575
 30
0.0000
 11
627.5573
 21
481.9282
 31
0.0000
  0
POLYLINE
  6
continous
  8
BYBLOCK
 70
0
 66
1
  0
VERTEX
  8
0
 10
644.6282
 20
476.8907
 30
0.0000
  0
VERTEX
  8
0
 10
644.5483
 20
477.7505
 30
0.0000
  0
VERTEX
  8
0
 10
644.3210
 20
478.5970
 30
0.0000
  0
VERTEX
  8
0
 10
643.9498
 20
479.4177
 30
0.0000
  0
VERTEX
  8
0
 10
643.4403
 20
480.2004
 30
0.0000
  0
VERTEX
  8
0
 10
642.7998
 20
480.9334
 30
0.0000
  0
VERTEX
  8
0
 10
642.0381
 20
481.6060
 30
0.0000
  0
VERTEX
  8
0
 10
641.1663
 20
482.2080
 30
0.0000
  0
VERTEX
  8
0
 10
640.0519
 20
482.7982
 30
0.0000
  0
VERTEX
  8
0
 10
638.8324
 20
483.2733
 30
0.0000
  0
VERTEX
  8
0
 10
637.5314
 20
483.6240
 30
0.0000
  0
VERTEX
  8
0
 10
636.1741
 20
483.8436
 30
0.0000
  0
VERTEX
  8
0
 10
634.7868
 20
483.9277
 30
0.0000
  0
VERTEX
  8
0
 10
633.3965
 20
483.8747
 30
0.0000
  0
VERTEX
  8
0
 10
632.0301
 20
483.6857
 30
0.0000
  0
VERTEX
  8
0
 10
630.7140
 20
483.3643
 30
0.0000
  0
VERTEX
  8
0
 10
629.4738
 20
482.9168
 30
0.0000
  0
VERTEX
  8
0
 10
628.3335
 20
482.3518
 30
0.0000
  0
VERTEX
  8
0
 10
627.5573
 20
481.8575
 30
0.0000
  0
SEQEND
  0
POLYLINE
  6
continous
  8
BYBLOCK
 70
0
 66
1
  0
VERTEX
  8
0
 10
553.3111
 20
429.3575
 30
0.0000
  0
VERTEX
  8
0
 10
552.5071
 20
428.7154
 30
0.0000
  0
VERTEX
  8
0
 10
551.8189
 20
428.0093
 30
0.0000
  0
VERTEX
  8
0
 10
551.2567
 20
427.2494
 30
0.0000
  0
VERTEX
  8
0
 10
550.8287
 20
426.4470
 30
0.0000
  0
VERTEX
  8
0
 10
550.5412
 20
425.6139
 30
0.0000
  0
VERTEX
  8
0
 10
550.3985
 20
424.7622
 30
0.0000
  0
VERTEX
  8
0
 10
550.3823
 20
424.3947
 30
0.0000
  0
SEQEND
  0
LINE
  6
continous
  8
BYBLOCK
 10
553.3111
 20
429.3575
 30
0.0000
 11
553.3111
 21
429.4282
 31
0.0000
  0
POLYLINE
  6
continous
  8
BYBLOCK
 70
0
 66
1
  0
VERTEX
  8
0
 10
570.3820
 20
424.3907
 30
0.0000
  0
VERTEX
  8
0
 10
570.3021
 20
425.2505
 30
0.0000
  0
VERTEX
  8
0
 10
570.0748
 20
426.0970
 30
0.0000
  0
VERTEX
  8
0
 10
569.7036
 20
426.9177
 30
0.0000
  0
VERTEX
  8
0
 10
569.1941
 20
427.7004
 30
0.0000
  0
VERTEX
  8
0
 10
568.5536
 20
428.4334
 30
0.0000
  0
VERTEX
  8
0
 10
567.7919
 20
429.1060
 30
0.0000
  0
VERTEX
  8
0
 10
566.9201
 20
429.7080
 30
0.0000
  0
VERTEX
  8
0
 10
565.8057
 20
430.2982
 30
0.0000
  0
VERTEX
  8
0
 10
564.5862
 20
430.7733
 30
0.0000
  0
VERTEX
  8
0
 10
563.2852
 20
431.1240
 30
0.0000
  0
VERTEX
  8
0
 10
561.9279
 20
431.3436
 30
0.0000
  0
VERTEX
  8
0
 10
560.5406
 20
431.4277
 30
0.0000
  0
VERTEX
  8
0
 10
559.1503
 20
431.3747
 30
0.0000
  0
VERTEX
  8
0
 10
557.7838
 20
431.1857
 30
0.0000
  0
VERTEX
  8
0
 10
556.4678
 20
430.8643
 30
0.0000
  0
VERTEX
  8
0
 10
555.2276
 20
430.4168
 30
0.0000
  0
VERTEX
  8
0
 10
554.0873
 20
429.8518
 30
0.0000
  0
VERTEX
  8
0
 10
553.3111
 20
429.3575
 30
0.0000
  0
SEQEND
  0
POLYLINE
  6
continous
  8
BYBLOCK
 70
0
 66
1
  0
VERTEX
  8
0
 10
479.0648
 20
376.8575
 30
0.0000
  0
VERTEX
  8
0
 10
478.2608
 20
376.2154
 30
0.0000
  0
VERTEX
  8
0
 10
477.5727
 20
375.5093
 30
0.0000
  0
VERTEX
  8
0
 10
477.0105
 20
374.7494
 30
0.0000
  0
VERTEX
  8
0
 10
476.5825
 20
373.9470
 30
0.0000
  0
VERTEX
  8
0
 10
476.2950
 20
373.1139
 30
0.0000
  0
VERTEX
  8
0
 10
476.1523
 20
372.2622
 30
0.0000
  0
VERTEX
  8
0
 10
476.1361
 20
371.8947
 30
0.0000
  0
SEQEND
  0
LINE
  6
continous
  8
BYBLOCK
 10
479.0648
 20
376.8575
 30
0.0000
 11
479.0648
 21
376.9282
 31
0.0000
  0
POLYLINE
  6
continous
  8
BYBLOCK
 70
0
 66
1
  0
VERTEX
  8
0
 10
496.1358
 20
371.8907
 30
0.0000
  0
VERTEX
  8
0
 10
496.0558
 20
372.7505
 30
0.0000
  0
VERTEX
  8
0
 10
495.8286
 20
373.5970
 30
0.0000
  0
VERTEX
  8
0
 10
495.4574
 20
374.4177
 30
0.0000
  0
VERTEX
  8
0
 10
494.9478
 20
375.2004
 30
0.0000
  0
VERTEX
  8
0
 10
494.3074
 20
375.9334
 30
0.0000
  0
VERTEX
  8
0
 10
493.5457
 20
376.6060
 30
0.0000
  0
VERTEX
  8
0
 10
492.6739
 20
377.2080
 30
0.0000
  0
VERTEX
  8
0
 10
491.5595
 20
377.7982
 30
0.0000
  0
VERTEX
  8
0
 10
490.3400
 20
378.2733
 30
0.0000
  0
VERTEX
  8
0
 10
489.0390
 20
378.6240
 30
0.0000
  0
VERTEX
  8
0
 10
487.6817
 20
378.8436
 30
0.0000
  0
VERTEX
  8
0
 10
486.2944
 20
378.9277
 30
0.0000
  0
VERTEX
  8
0
 10
484.9041
 20
378.8747
 30
0.0000
  0
VERTEX
  8
0
 10
483.5376
 20
378.6857
 30
0.0000
  0
VERTEX
  8
0
 10
482.2216
 20
378.3643
 30
0.0000
  0
VERTEX
  8
0
 10
480.9814
 20
377.9168
 30
0.0000
  0
VERTEX
  8
0
 10
479.8411
 20
377.3518
 30
0.0000
  0
VERTEX
  8
0
 10
479.0648
 20
376.8575
 30
0.0000
  0
SEQEND
  0
POLYLINE
  6
continous
  8
BYBLOCK
 70
0
 66
1
  0
VERTEX
  8
0
 10
404.8186
 20
324.3575
 30
0.0000
  0
VERTEX
  8
0
 10
404.0146
 20
323.7154
 30
0.0000
  0
VERTEX
  8
0
 10
403.3265
 20
323.0093
 30
0.0000
  0
VERTEX
  8
0
 10
402.7643
 20
322.2494
 30
0.0000
  0
VERTEX
  8
0
 10
402.3363
 20
321.4470
 30
0.0000
  0
VERTEX
  8
0
 10
402.0488
 20
320.6139
 30
0.0000
  0
VERTEX
  8
0
 10
401.9061
 20
319.7622
 30
0.0000
  0
VERTEX
  8
0
 10
401.8898
 20
319.3947
 30
0.0000
  0
SEQEND
  0
LINE
  6
continous
  8
BYBLOCK
 10
404.8186
 20
324.3575
 30
0.0000
 11
404.8186
 21
324.4282
 31
0.0000
  0
POLYLINE
  6
continous
  8
BYBLOCK
 70
0
 66
1
  0
VERTEX
  8
0
 10
421.8896
 20
319.3907
 30
0.0000
  0
VERTEX
  8
0
 10
421.8096
 20
320.2505
 30
0.0000
  0
VERTEX
  8
0
 10
421.5824
 20
321.0970
 30
0.0000
  0
VERTEX
  8
0
 10
421.2112
 20
321.9177
 30
0.0000
  0
VERTEX
  8
0
 10
420.7016
 20
322.7004
 30
0.0000
  0
VERTEX
  8
0
 10
420.0612
 20
323.4334
 30
0.0000
  0
VERTEX
  8
0
 10
419.2994
 20
324.1060
 30
0.0000
  0
VERTEX
  8
0
 10
418.4277
 20
324.7080
 30
0.0000
  0
VERTEX
  8
0
 10
417.3133
 20
325.2982
 30
0.0000
  0
VERTEX
  8
0
 10
416.0938
 20
325.7733
 30
0.0000
  0
VERTEX
  8
0
 10
414.7928
 20
326.1240
 30
0.0000
  0
VERTEX
  8
0
 10
413.4355
 20
326.3436
 30
0.0000
  0
VERTEX
  8
0
 10
412.0482
 20
326.4277
 30
0.0000
  0
VERTEX
  8
0
 10
410.6579
 20
326.3747
 30
0.0000
  0
VERTEX
  8
0
 10
409.2914
 20
326.1857
 30
0.0000
  0
VERTEX
  8
0
 10
407.9753
 20
325.8643
 30
0.0000
  0
VERTEX
  8
0
 10
406.7351
 20
325.4168
 30
0.0000
  0
VERTEX
  8
0
 10
405.5949
 20
324.8518
 30
0.0000
  0
VERTEX
  8
0
 10
404.8186
 20
324.3575
 30
0.0000
  0
SEQEND
  0
POLYLINE
  6
continous
  8
BYBLOCK
 70
0
 66
1
  0
VERTEX
  8
0
 10
330.5724
 20
271.8575
 30
0.0000
  0
VERTEX
  8
0
 10
329.7684
 20
271.2154
 30
0.0000
  0
VERTEX
  8
0
 10
329.0803
 20
270.5093
 30
0.0000
  0
VERTEX
  8
0
 10
328.5180
 20
269.7494
 30
0.0000
  0
VERTEX
  8
0
 10
328.0901
 20
268.9470
 30
0.0000
  0
VERTEX
  8
0
 10
327.8026
 20
268.1139
 30
0.0000
  0
VERTEX
  8
0
 10
327.6599
 20
267.2622
 30
0.0000
  0
VERTEX
  8
0
 10
327.6436
 20
266.8947
 30
0.0000
  0
SEQEND
  0
LINE
  6
continous
  8
BYBLOCK
 10
330.5724
 20
271.8575
 30
0.0000
 11
330.5724
 21
271.9282
 31
0.0000
  0
POLYLINE
  6
continous
  8
BYBLOCK
 70
0
 66
1
  0
VERTEX
  8
0
 10
347.6434
 20
266.8907
 30
0.0000
  0
VERTEX
  8
0
 10
347.5634
 20
267.7505
 30
0.0000
  0
VERTEX
  8
0
 10
347.3362
 20
268.5970
 30
0.0000
  0
VERTEX
  8
0
 10
346.9650
 20
269.4177
 30
0.0000
  0
VERTEX
  8
0
 10
346.4554
 20
270.2004
 30
0.0000
  0
VERTEX
  8
0
 10
345.8150
 20
270.9334
 30
0.0000
  0
VERTEX
  8
0
 10
345.0532
 20
271.6060
 30
0.0000
  0
VERTEX
  8
0
 10
344.1815
 20
272.2080
 30
0.0000
  0
VERTEX
  8
0
 10
343.0671
 20
272.7982
 30
0.0000
  0
VERTEX
  8
0
 10
341.8476
 20
273.2733
 30
0.0000
  0
VERTEX
  8
0
 10
340.5466
 20
273.6240
 30
0.0000
  0
VERTEX
  8
0
 10
339.1893
 20
273.8436
 30
0.0000
  0
VERTEX
  8
0
 10
337.8020
 20
273.9277
 30
0.0000
  0
VERTEX
  8
0
 10
336.4117
 20
273.8747
 30
0.0000
  0
VERTEX
  8
0
 10
335.0452
 20
273.6857
 30
0.0000
  0
VERTEX
  8
0
 10
333.7291
 20
273.3643
 30
0.0000
  0
VERTEX
  8
0
 10
332.4889
 20
272.9168
 30
0.0000
  0
VERTEX
  8
0
 10
331.3487
 20
272.3518
 30
0.0000
  0
VERTEX
  8
0
 10
330.5724
 20
271.8575
 30
0.0000
  0
SEQEND
  0
POLYLINE
  6
continous
  8
BYBLOCK
 70
0
 66
1
  0
VERTEX
  8
0
 10
256.3262
 20
219.3575
 30
0.0000
  0
VERTEX
  8
0
 10
255.5222
 20
218.7154
 30
0.0000
  0
VERTEX
  8
0
 10
254.8340
 20
218.0093
 30
0.0000
  0
VERTEX
  8
0
 10
254.2718
 20
217.2494
 30
0.0000
  0
VERTEX
  8
0
 10
253.8439
 20
216.4470
 30
0.0000
  0
VERTEX
  8
0
 10
253.5564
 20
215.6139
 30
0.0000
  0
VERTEX
  8
0
 10
253.4137
 20
214.7622
 30
0.0000
  0
VERTEX
  8
0
 10
253.3974
 20
214.3947
 30
0.0000
  0
SEQEND
  0
LINE
  6
continous
  8
BYBLOCK
 10
256.3262
 20
219.3575
 30
0.0000
 11
256.3262
 21
219.4282
 31
0.0000
  0
POLYLINE
  6
continous
  8
BYBLOCK
 70
0
 66
1
  0
VERTEX
  8
0
 10
273.3972
 20
214.3907
 30
0.0000
  0
VERTEX
  8
0
 10
273.3172
 20
215.2505
 30
0.0000
  0
VERTEX
  8
0
 10
273.0900
 20
216.0970
 30
0.0000
  0
VERTEX
  8
0
 10
272.7188
 20
216.9177
 30
0.0000
  0
VERTEX
  8
0
 10
272.2092
 20
217.7004
 30
0.0000
  0
VERTEX
  8
0
 10
271.5688
 20
218.4334
 30
0.0000
  0
VERTEX
  8
0
 10
270.8070
 20
219.1060
 30
0.0000
  0
VERTEX
  8
0
 10
269.9352
 20
219.7080
 30
0.0000
  0
VERTEX
  8
0
 10
268.8209
 20
220.2982
 30
0.0000
  0
VERTEX
  8
0
 10
267.6014
 20
220.7733
 30
0.0000
  0
VERTEX
  8
0
 10
266.3003
 20
221.1240
 30
0.0000
  0
VERTEX
  8
0
 10
264.9431
 20
221.3436
 30
0.0000
  0
VERTEX
  8
0
 10
263.5558
 20
221.4277
 30
0.0000
  0
VERTEX
  8
0
 10
262.1655
 20
221.3747
 30
0.0000
  0
VERTEX
  8
0
 10
260.7990
 20
221.1857
 30
0.0000
  0
VERTEX
  8
0
 10
259.4829
 20
220.8643
 30
0.0000
  0
VERTEX
  8
0
 10
258.2427
 20
220.4168
 30
0.0000
  0
VERTEX
  8
0
 10
257.1024
 20
219.8518
 30
0.0000
  0
VERTEX
  8
0
 10
256.3262
 20
219.3575
 30
0.0000
  0
SEQEND
  0
POLYLINE
  6
continous
  8
BYBLOCK
 70
0
 66
1
  0
VERTEX
  8
0
 10
182.0800
 20
166.8575
 30
0.0000
  0
VERTEX
  8
0
 10
181.2760
 20
166.2154
 30
0.0000
  0
VERTEX
  8
0
 10
180.5878
 20
165.5093
 30
0.0000
  0
VERTEX
  8
0
 10
180.0256
 20
164.7494
 30
0.0000
  0
VERTEX
  8
0
 10
179.5976
 20
163.9470
 30
0.0000
  0
VERTEX
  8
0
 10
179.3102
 20
163.1139
 30
0.0000
  0
VERTEX
  8
0
 10
179.1675
 20
162.2622
 30
0.0000
  0
VERTEX
  8
0
 10
179.1512
 20
161.8947
 30
0.0000
  0
SEQEND
  0
LINE
  6
continous
  8
BYBLOCK
 10
182.0800
 20
166.8575
 30
0.0000
 11
182.0800
 21
166.9282
 31
0.0000
  0
POLYLINE
  6
continous
  8
BYBLOCK
 70
0
 66
1
  0
VERTEX
  8
0
 10
199.1510
 20
161.8907
 30
0.0000
  0
VERTEX
  8
0
 10
199.0710
 20
162.7505
 30
0.0000
  0
VERTEX
  8
0
 10
198.8437
 20
163.5970
 30
0.0000
  0
VERTEX
  8
0
 10
198.4726
 20
164.4177
 30
0.0000
  0
VERTEX
  8
0
 10
197.9630
 20
165.2004
 30
0.0000
  0
VERTEX
  8
0
 10
197.3226
 20
165.9334
 30
0.0000
  0
VERTEX
  8
0
 10
196.5608
 20
166.6060
 30
0.0000
  0
VERTEX
  8
0
 10
195.6890
 20
167.2080
 30
0.0000
  0
VERTEX
  8
0
 10
194.5747
 20
167.7982
 30
0.0000
  0
VERTEX
  8
0
 10
193.3551
 20
168.2733
 30
0.0000
  0
VERTEX
  8
0
 10
192.0541
 20
168.6240
 30
0.0000
  0
VERTEX
  8
0
 10
190.6968
 20
168.8436
 30
0.0000
  0
VERTEX
  8
0
 10
189.3096
 20
168.9277
 30
0.0000
  0
VERTEX
  8
0
 10
187.9192
 20
168.8747
 30
0.0000
  0
VERTEX
  8
0
 10
186.5528
 20
168.6857
 30
0.0000
  0
VERTEX
  8
0
 10
185.2367
 20
168.3643
 30
0.0000
  0
VERTEX
  8
0
 10
183.9965
 20
167.9168
 30
0.0000
  0
VERTEX
  8
0
 10
182.8562
 20
167.3518
 30
0.0000
  0
VERTEX
  8
0
 10
182.0800
 20
166.8575
 30
0.0000
  0
SEQEND
  0
POLYLINE
  6
continous
  8
BYBLOCK
 70
0
 66
1
  0
VERTEX
  8
0
 10
107.8338
 20
114.3575
 30
0.0000
  0
VERTEX
  8
0
 10
107.0298
 20
113.7154
 30
0.0000
  0
VERTEX
  8
0
 10
106.3416
 20
113.0093
 30
0.0000
  0
VERTEX
  8
0
 10
105.7794
 20
112.2494
 30
0.0000
  0
VERTEX
  8
0
 10
105.3514
 20
111.4470
 30
0.0000
  0
VERTEX
  8
0
 10
105.0640
 20
110.6139
 30
0.0000
  0
VERTEX
  8
0
 10
104.9212
 20
109.7622
 30
0.0000
  0
VERTEX
  8
0
 10
104.9050
 20
109.3947
 30
0.0000
  0
SEQEND
  0
LINE
  6
continous
  8
BYBLOCK
 10
107.8338
 20
114.3575
 30
0.0000
 11
107.8338
 21
114.4282
 31
0.0000
  0
POLYLINE
  6
continous
  8
BYBLOCK
 70
0
 66
1
  0
VERTEX
  8
0
 10
124.9047
 20
109.3907
 30
0.0000
  0
VERTEX
  8
0
 10
124.8248
 20
110.2505
 30
0.0000
  0
VERTEX
  8
0
 10
124.5975
 20
111.0970
 30
0.0000
  0
VERTEX
  8
0
 10
124.2264
 20
111.9177
 30
0.0000
  0
VERTEX
  8
0
 10
123.7168
 20
112.7004
 30
0.0000
  0
VERTEX
  8
0
 10
123.0764
 20
113.4334
 30
0.0000
  0
VERTEX
  8
0
 10
122.3146
 20
114.1060
 30
0.0000
  0
VERTEX
  8
0
 10
121.4428
 20
114.7080
 30
0.0000
  0
VERTEX
  8
0
 10
120.3284
 20
115.2982
 30
0.0000
  0
VERTEX
  8
0
 10
119.1089
 20
115.7733
 30
0.0000
  0
VERTEX
  8
0
 10
117.8079
 20
116.1240
 30
0.0000
  0
VERTEX
  8
0
 10
116.4506
 20
116.3436
 30
0.0000
  0
VERTEX
  8
0
 10
115.0634
 20
116.4277
 30
0.0000
  0
VERTEX
  8
0
 10
113.6730
 20
116.3747
 30
0.0000
  0
VERTEX
  8
0
 10
112.3066
 20
116.1857
 30
0.0000
  0
VERTEX
  8
0
 10
110.9905
 20
115.8643
 30
0.0000
  0
VERTEX
  8
0
 10
109.7503
 20
115.4168
 30
0.0000
  0
VERTEX
  8
0
 10
108.6100
 20
114.8518
 30
0.0000
  0
VERTEX
  8
0
 10
107.8338
 20
114.3575
 30
0.0000
  0
SEQEND
  0
LINE
  6
continous
  8
BYBLOCK
 10
33.5876
 20
61.8575
 30
0.0000
 11
33.5876
 21
61.9282
 31
0.0000
  0
POLYLINE
  6
continous
  8
BYBLOCK
 70
0
 66
1
  0
VERTEX
  8
0
 10
30.6586
 20
56.9282
 30
0.0000
  0
VERTEX
  8
0
 10
30.7332
 20
56.0665
 30
0.0000
  0
VERTEX
  8
0
 10
30.9557
 20
55.2176
 30
0.0000
  0
VERTEX
  8
0
 10
31.3228
 20
54.3942
 30
0.0000
  0
VERTEX
  8
0
 10
31.8292
 20
53.6085
 30
0.0000
  0
VERTEX
  8
0
 10
32.4671
 20
52.8724
 30
0.0000
  0
VERTEX
  8
0
 10
33.2272
 20
52.1967
 30
0.0000
  0
VERTEX
  8
0
 10
34.0980
 20
51.5916
 30
0.0000
  0
VERTEX
  8
0
 10
35.2122
 20
50.9979
 30
0.0000
  0
VERTEX
  8
0
 10
36.4325
 20
50.5196
 30
0.0000
  0
VERTEX
  8
0
 10
37.7349
 20
50.1661
 30
0.0000
  0
VERTEX
  8
0
 10
39.0943
 20
49.9442
 30
0.0000
  0
VERTEX
  8
0
 10
40.4841
 20
49.8582
 30
0.0000
  0
VERTEX
  8
0
 10
41.8773
 20
49.9098
 30
0.0000
  0
VERTEX
  8
0
 10
43.2468
 20
50.0981
 30
0.0000
  0
VERTEX
  8
0
 10
44.5660
 20
50.4193
 30
0.0000
  0
VERTEX
  8
0
 10
45.8090
 20
50.8671
 30
0.0000
  0
VERTEX
  8
0
 10
46.9518
 20
51.4330
 30
0.0000
  0
VERTEX
  8
0
 10
47.7297
 20
51.9282
 30
0.0000
  0
SEQEND
  0
POLYLINE
  6
continous
  8
BYBLOCK
 70
0
 66
1
  0
VERTEX
  8
0
 10
33.5876
 20
61.9282
 30
0.0000
  0
VERTEX
  8
0
 10
32.7785
 20
61.2816
 30
0.0000
  0
VERTEX
  8
0
 10
32.0870
 20
60.5701
 30
0.0000
  0
VERTEX
  8
0
 10
31.5232
 20
59.8043
 30
0.0000
  0
VERTEX
  8
0
 10
31.0956
 20
58.9956
 30
0.0000
  0
VERTEX
  8
0
 10
30.8106
 20
58.1561
 30
0.0000
  0
VERTEX
  8
0
 10
30.6723
 20
57.2983
 30
0.0000
  0
VERTEX
  8
0
 10
30.6586
 20
56.9282
 30
0.0000
  0
SEQEND
  0
POLYLINE
  6
continous
  8
BYBLOCK
 70
0
 66
1
  0
VERTEX
  8
0
 10
50.6586
 20
56.9282
 30
0.0000
  0
VERTEX
  8
0
 10
50.5841
 20
57.7900
 30
0.0000
  0
VERTEX
  8
0
 10
50.3616
 20
58.6389
 30
0.0000
  0
VERTEX
  8
0
 10
49.9944
 20
59.4622
 30
0.0000
  0
VERTEX
  8
0
 10
49.4881
 20
60.2479
 30
0.0000
  0
VERTEX
  8
0
 10
48.8502
 20
60.9840
 30
0.0000
  0
VERTEX
  8
0
 10
48.0901
 20
61.6597
 30
0.0000
  0
VERTEX
  8
0
 10
47.2192
 20
62.2648
 30
0.0000
  0
VERTEX
  8
0
 10
46.1050
 20
62.8585
 30
0.0000
  0
VERTEX
  8
0
 10
44.8848
 20
63.3368
 30
0.0000
  0
VERTEX
  8
0
 10
43.5824
 20
63.6903
 30
0.0000
  0
VERTEX
  8
0
 10
42.2230
 20
63.9122
 30
0.0000
  0
VERTEX
  8
0
 10
40.8332
 20
63.9982
 30
0.0000
  0
VERTEX
  8
0
 10
39.4399
 20
63.9466
 30
0.0000
  0
VERTEX
  8
0
 10
38.0704
 20
63.7583
 30
0.0000
  0
VERTEX
  8
0
 10
36.7513
 20
63.4372
 30
0.0000
  0
VERTEX
  8
0
 10
35.5083
 20
62.9893
 30
0.0000
  0
VERTEX
  8
0
 10
34.3654
 20
62.4235
 30
0.0000
  0
VERTEX
  8
0
 10
33.5876
 20
61.9282
 30
0.0000
  0
SEQEND
  0
POLYLINE
  6
continous
  8
BYBLOCK
 70
0
 66
1
  0
VERTEX
  8
0
 10
47.7297
 20
51.9282
 30
0.0000
  0
VERTEX
  8
0
 10
48.5387
 20
52.5748
 30
0.0000
  0
VERTEX
  8
0
 10
49.2303
 20
53.2863
 30
0.0000
  0
VERTEX
  8
0
 10
49.7941
 20
54.0521
 30
0.0000
  0
VERTEX
  8
0
 10
50.2217
 20
54.8608
 30
0.0000
  0
VERTEX
  8
0
 10
50.5067
 20
55.7003
 30
0.0000
  0
VERTEX
  8
0
 10
50.6449
 20
56.5581
 30
0.0000
  0
VERTEX
  8
0
 10
50.6586
 20
56.9282
 30
0.0000
  0
SEQEND
  0
POLYLINE
  6
continous
  8
BYBLOCK
 70
0
 66
1
  0
VERTEX
  8
0
 10
2777.7685
 20
1999.4282
 30
0.0000
  0
VERTEX
  8
0
 10
2777.8430
 20
1998.5665
 30
0.0000
  0
VERTEX
  8
0
 10
2778.0655
 20
1997.7176
 30
0.0000
  0
VERTEX
  8
0
 10
2778.4327
 20
1996.8942
 30
0.0000
  0
VERTEX
  8
0
 10
2778.9390
 20
1996.1085
 30
0.0000
  0
VERTEX
  8
0
 10
2779.5770
 20
1995.3724
 30
0.0000
  0
VERTEX
  8
0
 10
2780.3370
 20
1994.6967
 30
0.0000
  0
VERTEX
  8
0
 10
2781.2079
 20
1994.0916
 30
0.0000
  0
VERTEX
  8
0
 10
2782.3221
 20
1993.4979
 30
0.0000
  0
VERTEX
  8
0
 10
2783.5423
 20
1993.0196
 30
0.0000
  0
VERTEX
  8
0
 10
2784.8448
 20
1992.6661
 30
0.0000
  0
VERTEX
  8
0
 10
2786.2041
 20
1992.4442
 30
0.0000
  0
VERTEX
  8
0
 10
2787.5940
 20
1992.3582
 30
0.0000
  0
VERTEX
  8
0
 10
2788.9872
 20
1992.4098
 30
0.0000
  0
VERTEX
  8
0
 10
2790.3567
 20
1992.5981
 30
0.0000
  0
VERTEX
  8
0
 10
2791.6758
 20
1992.9193
 30
0.0000
  0
VERTEX
  8
0
 10
2792.9189
 20
1993.3671
 30
0.0000
  0
VERTEX
  8
0
 10
2794.0617
 20
1993.9330
 30
0.0000
  0
VERTEX
  8
0
 10
2794.8396
 20
1994.4282
 30
0.0000
  0
SEQEND
  0
POLYLINE
  6
continous
  8
BYBLOCK
 70
0
 66
1
  0
VERTEX
  8
0
 10
2780.6974
 20
2004.4282
 30
0.0000
  0
VERTEX
  8
0
 10
2779.8884
 20
2003.7816
 30
0.0000
  0
VERTEX
  8
0
 10
2779.1968
 20
2003.0701
 30
0.0000
  0
VERTEX
  8
0
 10
2778.6330
 20
2002.3043
 30
0.0000
  0
VERTEX
  8
0
 10
2778.2054
 20
2001.4956
 30
0.0000
  0
VERTEX
  8
0
 10
2777.9204
 20
2000.6561
 30
0.0000
  0
VERTEX
  8
0
 10
2777.7822
 20
1999.7983
 30
0.0000
  0
VERTEX
  8
0
 10
2777.7685
 20
1999.4282
 30
0.0000
  0
SEQEND
  0
POLYLINE
  6
continous
  8
BYBLOCK
 70
0
 66
1
  0
VERTEX
  8
0
 10
2797.7685
 20
1999.4282
 30
0.0000
  0
VERTEX
  8
0
 10
2797.6939
 20
2000.2900
 30
0.0000
  0
VERTEX
  8
0
 10
2797.4714
 20
2001.1389
 30
0.0000
  0
VERTEX
  8
0
 10
2797.1043
 20
2001.9622
 30
0.0000
  0
VERTEX
  8
0
 10
2796.5980
 20
2002.7479
 30
0.0000
  0
VERTEX
  8
0
 10
2795.9600
 20
2003.4840
 30
0.0000
  0
VERTEX
  8
0
 10
2795.1999
 20
2004.1597
 30
0.0000
  0
VERTEX
  8
0
 10
2794.3291
 20
2004.7648
 30
0.0000
  0
VERTEX
  8
0
 10
2793.2149
 20
2005.3585
 30
0.0000
  0
VERTEX
  8
0
 10
2791.9947
 20
2005.8368
 30
0.0000
  0
VERTEX
  8
0
 10
2790.6922
 20
2006.1903
 30
0.0000
  0
VERTEX
  8
0
 10
2789.3328
 20
2006.4122
 30
0.0000
  0
VERTEX
  8
0
 10
2787.9430
 20
2006.4982
 30
0.0000
  0
VERTEX
  8
0
 10
2786.5498
 20
2006.4466
 30
0.0000
  0
VERTEX
  8
0
 10
2785.1803
 20
2006.2583
 30
0.0000
  0
VERTEX
  8
0
 10
2783.8612
 20
2005.9372
 30
0.0000
  0
VERTEX
  8
0
 10
2782.6181
 20
2005.4893
 30
0.0000
  0
VERTEX
  8
0
 10
2781.4753
 20
2004.9235
 30
0.0000
  0
VERTEX
  8
0
 10
2780.6974
 20
2004.4282
 30
0.0000
  0
SEQEND
  0
POLYLINE
  6
continous
  8
BYBLOCK
 70
0
 66
1
  0
VERTEX
  8
0
 10
2794.8396
 20
1994.4282
 30
0.0000
  0
VERTEX
  8
0
 10
2795.6486
 20
1995.0748
 30
0.0000
  0
VERTEX
  8
0
 10
2796.3402
 20
1995.7863
 30
0.0000
  0
VERTEX
  8
0
 10
2796.9039
 20
1996.5521
 30
0.0000
  0
VERTEX
  8
0
 10
2797.3315
 20
1997.3608
 30
0.0000
  0
VERTEX
  8
0
 10
2797.6166
 20
1998.2003
 30
0.0000
  0
VERTEX
  8
0
 10
2797.7548
 20
1999.0581
 30
0.0000
  0
VERTEX
  8
0
 10
2797.7685
 20
1999.4282
 30
0.0000
  0
SEQEND
  0
POLYLINE
  6
continous
  8
BYBLOCK
 70
0
 66
1
  0
VERTEX
  8
0
 10
2703.5223
 20
1946.9282
 30
0.0000
  0
VERTEX
  8
0
 10
2703.5968
 20
1946.0665
 30
0.0000
  0
VERTEX
  8
0
 10
2703.8193
 20
1945.2176
 30
0.0000
  0
VERTEX
  8
0
 10
2704.1865
 20
1944.3942
 30
0.0000
  0
VERTEX
  8
0
 10
2704.6928
 20
1943.6085
 30
0.0000
  0
VERTEX
  8
0
 10
2705.3308
 20
1942.8724
 30
0.0000
  0
VERTEX
  8
0
 10
2706.0908
 20
1942.1967
 30
0.0000
  0
VERTEX
  8
0
 10
2706.9617
 20
1941.5916
 30
0.0000
  0
VERTEX
  8
0
 10
2708.0759
 20
1940.9979
 30
0.0000
  0
VERTEX
  8
0
 10
2709.2961
 20
1940.5196
 30
0.0000
  0
VERTEX
  8
0
 10
2710.5986
 20
1940.1661
 30
0.0000
  0
VERTEX
  8
0
 10
2711.9579
 20
1939.9442
 30
0.0000
  0
VERTEX
  8
0
 10
2713.3477
 20
1939.8582
 30
0.0000
  0
VERTEX
  8
0
 10
2714.7410
 20
1939.9098
 30
0.0000
  0
VERTEX
  8
0
 10
2716.1105
 20
1940.0981
 30
0.0000
  0
VERTEX
  8
0
 10
2717.4296
 20
1940.4193
 30
0.0000
  0
VERTEX
  8
0
 10
2718.6727
 20
1940.8671
 30
0.0000
  0
VERTEX
  8
0
 10
2719.8155
 20
1941.4330
 30
0.0000
  0
VERTEX
  8
0
 10
2720.5933
 20
1941.9282
 30
0.0000
  0
SEQEND
  0
POLYLINE
  6
continous
  8
BYBLOCK
 70
0
 66
1
  0
VERTEX
  8
0
 10
2706.4512
 20
1951.9282
 30
0.0000
  0
VERTEX
  8
0
 10
2705.6422
 20
1951.2816
 30
0.0000
  0
VERTEX
  8
0
 10
2704.9506
 20
1950.5701
 30
0.0000
  0
VERTEX
  8
0
 10
2704.3868
 20
1949.8043
 30
0.0000
  0
VERTEX
  8
0
 10
2703.9592
 20
1948.9956
 30
0.0000
  0
VERTEX
  8
0
 10
2703.6742
 20
1948.1561
 30
0.0000
  0
VERTEX
  8
0
 10
2703.5360
 20
1947.2983
 30
0.0000
  0
VERTEX
  8
0
 10
2703.5223
 20
1946.9282
 30
0.0000
  0
SEQEND
  0
POLYLINE
  6
continous
  8
BYBLOCK
 70
0
 66
1
  0
VERTEX
  8
0
 10
2723.5223
 20
1946.9282
 30
0.0000
  0
VERTEX
  8
0
 10
2723.4477
 20
1947.7900
 30
0.0000
  0
VERTEX
  8
0
 10
2723.2252
 20
1948.6389
 30
0.0000
  0
VERTEX
  8
0
 10
2722.8581
 20
1949.4622
 30
0.0000
  0
VERTEX
  8
0
 10
2722.3517
 20
1950.2479
 30
0.0000
  0
VERTEX
  8
0
 10
2721.7138
 20
1950.9840
 30
0.0000
  0
VERTEX
  8
0
 10
2720.9537
 20
1951.6597
 30
0.0000
  0
VERTEX
  8
0
 10
2720.0829
 20
1952.2648
 30
0.0000
  0
VERTEX
  8
0
 10
2718.9687
 20
1952.8585
 30
0.0000
  0
VERTEX
  8
0
 10
2717.7485
 20
1953.3368
 30
0.0000
  0
VERTEX
  8
0
 10
2716.4460
 20
1953.6903
 30
0.0000
  0
VERTEX
  8
0
 10
2715.0866
 20
1953.9122
 30
0.0000
  0
VERTEX
  8
0
 10
2713.6968
 20
1953.9982
 30
0.0000
  0
VERTEX
  8
0
 10
2712.3036
 20
1953.9466
 30
0.0000
  0
VERTEX
  8
0
 10
2710.9341
 20
1953.7583
 30
0.0000
  0
VERTEX
  8
0
 10
2709.6150
 20
1953.4372
 30
0.0000
  0
VERTEX
  8
0
 10
2708.3719
 20
1952.9893
 30
0.0000
  0
VERTEX
  8
0
 10
2707.2291
 20
1952.4235
 30
0.0000
  0
VERTEX
  8
0
 10
2706.4512
 20
1951.9282
 30
0.0000
  0
SEQEND
  0
POLYLINE
  6
continous
  8
BYBLOCK
 70
0
 66
1
  0
VERTEX
  8
0
 10
2720.5933
 20
1941.9282
 30
0.0000
  0
VERTEX
  8
0
 10
2721.4024
 20
1942.5748
 30
0.0000
  0
VERTEX
  8
0
 10
2722.0939
 20
1943.2863
 30
0.0000
  0
VERTEX
  8
0
 10
2722.6577
 20
1944.0521
 30
0.0000
  0
VERTEX
  8
0
 10
2723.0853
 20
1944.8608
 30
0.0000
  0
VERTEX
  8
0
 10
2723.3704
 20
1945.7003
 30
0.0000
  0
VERTEX
  8
0
 10
2723.5086
 20
1946.5581
 30
0.0000
  0
VERTEX
  8
0
 10
2723.5223
 20
1946.9282
 30
0.0000
  0
SEQEND
  0
POLYLINE
  6
continous
  8
BYBLOCK
 70
0
 66
1
  0
VERTEX
  8
0
 10
2629.2761
 20
1894.4282
 30
0.0000
  0
VERTEX
  8
0
 10
2629.3506
 20
1893.5665
 30
0.0000
  0
VERTEX
  8
0
 10
2629.5731
 20
1892.7176
 30
0.0000
  0
VERTEX
  8
0
 10
2629.9403
 20
1891.8942
 30
0.0000
  0
VERTEX
  8
0
 10
2630.4466
 20
1891.1085
 30
0.0000
  0
VERTEX
  8
0
 10
2631.0845
 20
1890.3724
 30
0.0000
  0
VERTEX
  8
0
 10
2631.8446
 20
1889.6967
 30
0.0000
  0
VERTEX
  8
0
 10
2632.7155
 20
1889.0916
 30
0.0000
  0
VERTEX
  8
0
 10
2633.8297
 20
1888.4979
 30
0.0000
  0
VERTEX
  8
0
 10
2635.0499
 20
1888.0196
 30
0.0000
  0
VERTEX
  8
0
 10
2636.3523
 20
1887.6661
 30
0.0000
  0
VERTEX
  8
0
 10
2637.7117
 20
1887.4442
 30
0.0000
  0
VERTEX
  8
0
 10
2639.1015
 20
1887.3582
 30
0.0000
  0
VERTEX
  8
0
 10
2640.4948
 20
1887.4098
 30
0.0000
  0
VERTEX
  8
0
 10
2641.8643
 20
1887.5981
 30
0.0000
  0
VERTEX
  8
0
 10
2643.1834
 20
1887.9193
 30
0.0000
  0
VERTEX
  8
0
 10
2644.4264
 20
1888.3671
 30
0.0000
  0
VERTEX
  8
0
 10
2645.5693
 20
1888.9330
 30
0.0000
  0
VERTEX
  8
0
 10
2646.3471
 20
1889.4282
 30
0.0000
  0
SEQEND
  0
POLYLINE
  6
continous
  8
BYBLOCK
 70
0
 66
1
  0
VERTEX
  8
0
 10
2632.2050
 20
1899.4282
 30
0.0000
  0
VERTEX
  8
0
 10
2631.3960
 20
1898.7816
 30
0.0000
  0
VERTEX
  8
0
 10
2630.7044
 20
1898.0701
 30
0.0000
  0
VERTEX
  8
0
 10
2630.1406
 20
1897.3043
 30
0.0000
  0
VERTEX
  8
0
 10
2629.7130
 20
1896.4956
 30
0.0000
  0
VERTEX
  8
0
 10
2629.4280
 20
1895.6561
 30
0.0000
  0
VERTEX
  8
0
 10
2629.2898
 20
1894.7983
 30
0.0000
  0
VERTEX
  8
0
 10
2629.2761
 20
1894.4282
 30
0.0000
  0
SEQEND
  0
POLYLINE
  6
continous
  8
BYBLOCK
 70
0
 66
1
  0
VERTEX
  8
0
 10
2649.2761
 20
1894.4282
 30
0.0000
  0
VERTEX
  8
0
 10
2649.2015
 20
1895.2900
 30
0.0000
  0
VERTEX
  8
0
 10
2648.9790
 20
1896.1389
 30
0.0000
  0
VERTEX
  8
0
 10
2648.6119
 20
1896.9622
 30
0.0000
  0
VERTEX
  8
0
 10
2648.1055
 20
1897.7479
 30
0.0000
  0
VERTEX
  8
0
 10
2647.4676
 20
1898.4840
 30
0.0000
  0
VERTEX
  8
0
 10
2646.7075
 20
1899.1597
 30
0.0000
  0
VERTEX
  8
0
 10
2645.8367
 20
1899.7648
 30
0.0000
  0
VERTEX
  8
0
 10
2644.7225
 20
1900.3585
 30
0.0000
  0
VERTEX
  8
0
 10
2643.5022
 20
1900.8368
 30
0.0000
  0
VERTEX
  8
0
 10
2642.1998
 20
1901.1903
 30
0.0000
  0
VERTEX
  8
0
 10
2640.8404
 20
1901.4122
 30
0.0000
  0
VERTEX
  8
0
 10
2639.4506
 20
1901.4982
 30
0.0000
  0
VERTEX
  8
0
 10
2638.0574
 20
1901.4466
 30
0.0000
  0
VERTEX
  8
0
 10
2636.6879
 20
1901.2583
 30
0.0000
  0
VERTEX
  8
0
 10
2635.3687
 20
1900.9372
 30
0.0000
  0
VERTEX
  8
0
 10
2634.1257
 20
1900.4893
 30
0.0000
  0
VERTEX
  8
0
 10
2632.9829
 20
1899.9235
 30
0.0000
  0
VERTEX
  8
0
 10
2632.2050
 20
1899.4282
 30
0.0000
  0
SEQEND
  0
POLYLINE
  6
continous
  8
BYBLOCK
 70
0
 66
1
  0
VERTEX
  8
0
 10
2646.3471
 20
1889.4282
 30
0.0000
  0
VERTEX
  8
0
 10
2647.1562
 20
1890.0748
 30
0.0000
  0
VERTEX
  8
0
 10
2647.8477
 20
1890.7863
 30
0.0000
  0
VERTEX
  8
0
 10
2648.4115
 20
1891.5521
 30
0.0000
  0
VERTEX
  8
0
 10
2648.8391
 20
1892.3608
 30
0.0000
  0
VERTEX
  8
0
 10
2649.1241
 20
1893.2003
 30
0.0000
  0
VERTEX
  8
0
 10
2649.2624
 20
1894.0581
 30
0.0000
  0
VERTEX
  8
0
 10
2649.2761
 20
1894.4282
 30
0.0000
  0
SEQEND
  0
POLYLINE
  6
continous
  8
BYBLOCK
 70
0
 66
1
  0
VERTEX
  8
0
 10
2555.0298
 20
1841.9282
 30
0.0000
  0
VERTEX
  8
0
 10
2555.1044
 20
1841.0665
 30
0.0000
  0
VERTEX
  8
0
 10
2555.3269
 20
1840.2176
 30
0.0000
  0
VERTEX
  8
0
 10
2555.6940
 20
1839.3942
 30
0.0000
  0
VERTEX
  8
0
 10
2556.2004
 20
1838.6085
 30
0.0000
  0
VERTEX
  8
0
 10
2556.8383
 20
1837.8724
 30
0.0000
  0
VERTEX
  8
0
 10
2557.5984
 20
1837.1967
 30
0.0000
  0
VERTEX
  8
0
 10
2558.4693
 20
1836.5916
 30
0.0000
  0
VERTEX
  8
0
 10
2559.5835
 20
1835.9979
 30
0.0000
  0
VERTEX
  8
0
 10
2560.8037
 20
1835.5196
 30
0.0000
  0
VERTEX
  8
0
 10
2562.1061
 20
1835.1661
 30
0.0000
  0
VERTEX
  8
0
 10
2563.4655
 20
1834.9442
 30
0.0000
  0
VERTEX
  8
0
 10
2564.8553
 20
1834.8582
 30
0.0000
  0
VERTEX
  8
0
 10
2566.2485
 20
1834.9098
 30
0.0000
  0
VERTEX
  8
0
 10
2567.6180
 20
1835.0981
 30
0.0000
  0
VERTEX
  8
0
 10
2568.9372
 20
1835.4193
 30
0.0000
  0
VERTEX
  8
0
 10
2570.1802
 20
1835.8671
 30
0.0000
  0
VERTEX
  8
0
 10
2571.3231
 20
1836.4330
 30
0.0000
  0
VERTEX
  8
0
 10
2572.1009
 20
1836.9282
 30
0.0000
  0
SEQEND
  0
POLYLINE
  6
continous
  8
BYBLOCK
 70
0
 66
1
  0
VERTEX
  8
0
 10
2557.9588
 20
1846.9282
 30
0.0000
  0
VERTEX
  8
0
 10
2557.1497
 20
1846.2816
 30
0.0000
  0
VERTEX
  8
0
 10
2556.4582
 20
1845.5701
 30
0.0000
  0
VERTEX
  8
0
 10
2555.8944
 20
1844.8043
 30
0.0000
  0
VERTEX
  8
0
 10
2555.4668
 20
1843.9956
 30
0.0000
  0
VERTEX
  8
0
 10
2555.1818
 20
1843.1561
 30
0.0000
  0
VERTEX
  8
0
 10
2555.0436
 20
1842.2983
 30
0.0000
  0
VERTEX
  8
0
 10
2555.0298
 20
1841.9282
 30
0.0000
  0
SEQEND
  0
POLYLINE
  6
continous
  8
BYBLOCK
 70
0
 66
1
  0
VERTEX
  8
0
 10
2575.0298
 20
1841.9282
 30
0.0000
  0
VERTEX
  8
0
 10
2574.9553
 20
1842.7900
 30
0.0000
  0
VERTEX
  8
0
 10
2574.7328
 20
1843.6389
 30
0.0000
  0
VERTEX
  8
0
 10
2574.3657
 20
1844.4622
 30
0.0000
  0
VERTEX
  8
0
 10
2573.8593
 20
1845.2479
 30
0.0000
  0
VERTEX
  8
0
 10
2573.2214
 20
1845.9840
 30
0.0000
  0
VERTEX
  8
0
 10
2572.4613
 20
1846.6597
 30
0.0000
  0
VERTEX
  8
0
 10
2571.5904
 20
1847.2648
 30
0.0000
  0
VERTEX
  8
0
 10
2570.4762
 20
1847.8585
 30
0.0000
  0
VERTEX
  8
0
 10
2569.2560
 20
1848.3368
 30
0.0000
  0
VERTEX
  8
0
 10
2567.9536
 20
1848.6903
 30
0.0000
  0
VERTEX
  8
0
 10
2566.5942
 20
1848.9122
 30
0.0000
  0
VERTEX
  8
0
 10
2565.2044
 20
1848.9982
 30
0.0000
  0
VERTEX
  8
0
 10
2563.8112
 20
1848.9466
 30
0.0000
  0
VERTEX
  8
0
 10
2562.4417
 20
1848.7583
 30
0.0000
  0
VERTEX
  8
0
 10
2561.1225
 20
1848.4372
 30
0.0000
  0
VERTEX
  8
0
 10
2559.8795
 20
1847.9893
 30
0.0000
  0
VERTEX
  8
0
 10
2558.7366
 20
1847.4235
 30
0.0000
  0
VERTEX
  8
0
 10
2557.9588
 20
1846.9282
 30
0.0000
  0
SEQEND
  0
POLYLINE
  6
continous
  8
BYBLOCK
 70
0
 66
1
  0
VERTEX
  8
0
 10
2572.1009
 20
1836.9282
 30
0.0000
  0
VERTEX
  8
0
 10
2572.9100
 20
1837.5748
 30
0.0000
  0
VERTEX
  8
0
 10
2573.6015
 20
1838.2863
 30
0.0000
  0
VERTEX
  8
0
 10
2574.1653
 20
1839.0521
 30
0.0000
  0
VERTEX
  8
0
 10
2574.5929
 20
1839.8608
 30
0.0000
  0
VERTEX
  8
0
 10
2574.8779
 20
1840.7003
 30
0.0000
  0
VERTEX
  8
0
 10
2575.0161
 20
1841.5581
 30
0.0000
  0
VERTEX
  8
0
 10
2575.0298
 20
1841.9282
 30
0.0000
  0
SEQEND
  0
POLYLINE
  6
continous
  8
BYBLOCK
 70
0
 66
1
  0
VERTEX
  8
0
 10
2480.7836
 20
1789.4282
 30
0.0000
  0
VERTEX
  8
0
 10
2480.8582
 20
1788.5665
 30
0.0000
  0
VERTEX
  8
0
 10
2481.0807
 20
1787.7176
 30
0.0000
  0
VERTEX
  8
0
 10
2481.4478
 20
1786.8942
 30
0.0000
  0
VERTEX
  8
0
 10
2481.9542
 20
1786.1085
 30
0.0000
  0
VERTEX
  8
0
 10
2482.5921
 20
1785.3724
 30
0.0000
  0
VERTEX
  8
0
 10
2483.3522
 20
1784.6967
 30
0.0000
  0
VERTEX
  8
0
 10
2484.2230
 20
1784.0916
 30
0.0000
  0
VERTEX
  8
0
 10
2485.3372
 20
1783.4979
 30
0.0000
  0
VERTEX
  8
0
 10
2486.5575
 20
1783.0196
 30
0.0000
  0
VERTEX
  8
0
 10
2487.8599
 20
1782.6661
 30
0.0000
  0
VERTEX
  8
0
 10
2489.2193
 20
1782.4442
 30
0.0000
  0
VERTEX
  8
0
 10
2490.6091
 20
1782.3582
 30
0.0000
  0
VERTEX
  8
0
 10
2492.0023
 20
1782.4098
 30
0.0000
  0
VERTEX
  8
0
 10
2493.3718
 20
1782.5981
 30
0.0000
  0
VERTEX
  8
0
 10
2494.6909
 20
1782.9193
 30
0.0000
  0
VERTEX
  8
0
 10
2495.9340
 20
1783.3671
 30
0.0000
  0
VERTEX
  8
0
 10
2497.0768
 20
1783.9330
 30
0.0000
  0
VERTEX
  8
0
 10
2497.8547
 20
1784.4282
 30
0.0000
  0
SEQEND
  0
POLYLINE
  6
continous
  8
BYBLOCK
 70
0
 66
1
  0
VERTEX
  8
0
 10
2483.7126
 20
1794.4282
 30
0.0000
  0
VERTEX
  8
0
 10
2482.9035
 20
1793.7816
 30
0.0000
  0
VERTEX
  8
0
 10
2482.2120
 20
1793.0701
 30
0.0000
  0
VERTEX
  8
0
 10
2481.6482
 20
1792.3043
 30
0.0000
  0
VERTEX
  8
0
 10
2481.2206
 20
1791.4956
 30
0.0000
  0
VERTEX
  8
0
 10
2480.9356
 20
1790.6561
 30
0.0000
  0
VERTEX
  8
0
 10
2480.7973
 20
1789.7983
 30
0.0000
  0
VERTEX
  8
0
 10
2480.7836
 20
1789.4282
 30
0.0000
  0
SEQEND
  0
POLYLINE
  6
continous
  8
BYBLOCK
 70
0
 66
1
  0
VERTEX
  8
0
 10
2500.7836
 20
1789.4282
 30
0.0000
  0
VERTEX
  8
0
 10
2500.7091
 20
1790.2900
 30
0.0000
  0
VERTEX
  8
0
 10
2500.4866
 20
1791.1389
 30
0.0000
  0
VERTEX
  8
0
 10
2500.1194
 20
1791.9622
 30
0.0000
  0
VERTEX
  8
0
 10
2499.6131
 20
1792.7479
 30
0.0000
  0
VERTEX
  8
0
 10
2498.9752
 20
1793.4840
 30
0.0000
  0
VERTEX
  8
0
 10
2498.2151
 20
1794.1597
 30
0.0000
  0
VERTEX
  8
0
 10
2497.3442
 20
1794.7648
 30
0.0000
  0
VERTEX
  8
0
 10
2496.2300
 20
1795.3585
 30
0.0000
  0
VERTEX
  8
0
 10
2495.0098
 20
1795.8368
 30
0.0000
  0
VERTEX
  8
0
 10
2493.7074
 20
1796.1903
 30
0.0000
  0
VERTEX
  8
0
 10
2492.3480
 20
1796.4122
 30
0.0000
  0
VERTEX
  8
0
 10
2490.9582
 20
1796.4982
 30
0.0000
  0
VERTEX
  8
0
 10
2489.5649
 20
1796.4466
 30
0.0000
  0
VERTEX
  8
0
 10
2488.1954
 20
1796.2583
 30
0.0000
  0
VERTEX
  8
0
 10
2486.8763
 20
1795.9372
 30
0.0000
  0
VERTEX
  8
0
 10
2485.6333
 20
1795.4893
 30
0.0000
  0
VERTEX
  8
0
 10
2484.4904
 20
1794.9235
 30
0.0000
  0
VERTEX
  8
0
 10
2483.7126
 20
1794.4282
 30
0.0000
  0
SEQEND
  0
POLYLINE
  6
continous
  8
BYBLOCK
 70
0
 66
1
  0
VERTEX
  8
0
 10
2497.8547
 20
1784.4282
 30
0.0000
  0
VERTEX
  8
0
 10
2498.6637
 20
1785.0748
 30
0.0000
  0
VERTEX
  8
0
 10
2499.3553
 20
1785.7863
 30
0.0000
  0
VERTEX
  8
0
 10
2499.9191
 20
1786.5521
 30
0.0000
  0
VERTEX
  8
0
 10
2500.3467
 20
1787.3608
 30
0.0000
  0
VERTEX
  8
0
 10
2500.6317
 20
1788.2003
 30
0.0000
  0
VERTEX
  8
0
 10
2500.7699
 20
1789.0581
 30
0.0000
  0
VERTEX
  8
0
 10
2500.7836
 20
1789.4282
 30
0.0000
  0
SEQEND
  0
POLYLINE
  6
continous
  8
BYBLOCK
 70
0
 66
1
  0
VERTEX
  8
0
 10
2406.5374
 20
1736.9282
 30
0.0000
  0
VERTEX
  8
0
 10
2406.6120
 20
1736.0665
 30
0.0000
  0
VERTEX
  8
0
 10
2406.8345
 20
1735.2176
 30
0.0000
  0
VERTEX
  8
0
 10
2407.2016
 20
1734.3942
 30
0.0000
  0
VERTEX
  8
0
 10
2407.7079
 20
1733.6085
 30
0.0000
  0
VERTEX
  8
0
 10
2408.3459
 20
1732.8724
 30
0.0000
  0
VERTEX
  8
0
 10
2409.1060
 20
1732.1967
 30
0.0000
  0
VERTEX
  8
0
 10
2409.9768
 20
1731.5916
 30
0.0000
  0
VERTEX
  8
0
 10
2411.0910
 20
1730.9979
 30
0.0000
  0
VERTEX
  8
0
 10
2412.3112
 20
1730.5196
 30
0.0000
  0
VERTEX
  8
0
 10
2413.6137
 20
1730.1661
 30
0.0000
  0
VERTEX
  8
0
 10
2414.9731
 20
1729.9442
 30
0.0000
  0
VERTEX
  8
0
 10
2416.3629
 20
1729.8582
 30
0.0000
  0
VERTEX
  8
0
 10
2417.7561
 20
1729.9098
 30
0.0000
  0
VERTEX
  8
0
 10
2419.1256
 20
1730.0981
 30
0.0000
  0
VERTEX
  8
0
 10
2420.4447
 20
1730.4193
 30
0.0000
  0
VERTEX
  8
0
 10
2421.6878
 20
1730.8671
 30
0.0000
  0
VERTEX
  8
0
 10
2422.8306
 20
1731.4330
 30
0.0000
  0
VERTEX
  8
0
 10
2423.6085
 20
1731.9282
 30
0.0000
  0
SEQEND
  0
POLYLINE
  6
continous
  8
BYBLOCK
 70
0
 66
1
  0
VERTEX
  8
0
 10
2409.4664
 20
1741.9282
 30
0.0000
  0
VERTEX
  8
0
 10
2408.6573
 20
1741.2816
 30
0.0000
  0
VERTEX
  8
0
 10
2407.9658
 20
1740.5701
 30
0.0000
  0
VERTEX
  8
0
 10
2407.4020
 20
1739.8043
 30
0.0000
  0
VERTEX
  8
0
 10
2406.9744
 20
1738.9956
 30
0.0000
  0
VERTEX
  8
0
 10
2406.6893
 20
1738.1561
 30
0.0000
  0
VERTEX
  8
0
 10
2406.5511
 20
1737.2983
 30
0.0000
  0
VERTEX
  8
0
 10
2406.5374
 20
1736.9282
 30
0.0000
  0
SEQEND
  0
POLYLINE
  6
continous
  8
BYBLOCK
 70
0
 66
1
  0
VERTEX
  8
0
 10
2426.5374
 20
1736.9282
 30
0.0000
  0
VERTEX
  8
0
 10
2426.4629
 20
1737.7900
 30
0.0000
  0
VERTEX
  8
0
 10
2426.2404
 20
1738.6389
 30
0.0000
  0
VERTEX
  8
0
 10
2425.8732
 20
1739.4622
 30
0.0000
  0
VERTEX
  8
0
 10
2425.3669
 20
1740.2479
 30
0.0000
  0
VERTEX
  8
0
 10
2424.7289
 20
1740.9840
 30
0.0000
  0
VERTEX
  8
0
 10
2423.9689
 20
1741.6597
 30
0.0000
  0
VERTEX
  8
0
 10
2423.0980
 20
1742.2648
 30
0.0000
  0
VERTEX
  8
0
 10
2421.9838
 20
1742.8585
 30
0.0000
  0
VERTEX
  8
0
 10
2420.7636
 20
1743.3368
 30
0.0000
  0
VERTEX
  8
0
 10
2419.4611
 20
1743.6903
 30
0.0000
  0
VERTEX
  8
0
 10
2418.1018
 20
1743.9122
 30
0.0000
  0
VERTEX
  8
0
 10
2416.7119
 20
1743.9982
 30
0.0000
  0
VERTEX
  8
0
 10
2415.3187
 20
1743.9466
 30
0.0000
  0
VERTEX
  8
0
 10
2413.9492
 20
1743.7583
 30
0.0000
  0
VERTEX
  8
0
 10
2412.6301
 20
1743.4372
 30
0.0000
  0
VERTEX
  8
0
 10
2411.3870
 20
1742.9893
 30
0.0000
  0
VERTEX
  8
0
 10
2410.2442
 20
1742.4235
 30
0.0000
  0
VERTEX
  8
0
 10
2409.4664
 20
1741.9282
 30
0.0000
  0
SEQEND
  0
POLYLINE
  6
continous
  8
BYBLOCK
 70
0
 66
1
  0
VERTEX
  8
0
 10
2423.6085
 20
1731.9282
 30
0.0000
  0
VERTEX
  8
0
 10
2424.4175
 20
1732.5748
 30
0.0000
  0
VERTEX
  8
0
 10
2425.1091
 20
1733.2863
 30
0.0000
  0
VERTEX
  8
0
 10
2425.6729
 20
1734.0521
 30
0.0000
  0
VERTEX
  8
0
 10
2426.1005
 20
1734.8608
 30
0.0000
  0
VERTEX
  8
0
 10
2426.3855
 20
1735.7003
 30
0.0000
  0
VERTEX
  8
0
 10
2426.5237
 20
1736.5581
 30
0.0000
  0
VERTEX
  8
0
 10
2426.5374
 20
1736.9282
 30
0.0000
  0
SEQEND
  0
POLYLINE
  6
continous
  8
BYBLOCK
 70
0
 66
1
  0
VERTEX
  8
0
 10
2332.2912
 20
1684.4282
 30
0.0000
  0
VERTEX
  8
0
 10
2332.3658
 20
1683.5665
 30
0.0000
  0
VERTEX
  8
0
 10
2332.5883
 20
1682.7176
 30
0.0000
  0
VERTEX
  8
0
 10
2332.9554
 20
1681.8942
 30
0.0000
  0
VERTEX
  8
0
 10
2333.4617
 20
1681.1085
 30
0.0000
  0
VERTEX
  8
0
 10
2334.0997
 20
1680.3724
 30
0.0000
  0
VERTEX
  8
0
 10
2334.8598
 20
1679.6967
 30
0.0000
  0
VERTEX
  8
0
 10
2335.7306
 20
1679.0916
 30
0.0000
  0
VERTEX
  8
0
 10
2336.8448
 20
1678.4979
 30
0.0000
  0
VERTEX
  8
0
 10
2338.0650
 20
1678.0196
 30
0.0000
  0
VERTEX
  8
0
 10
2339.3675
 20
1677.6661
 30
0.0000
  0
VERTEX
  8
0
 10
2340.7269
 20
1677.4442
 30
0.0000
  0
VERTEX
  8
0
 10
2342.1167
 20
1677.3582
 30
0.0000
  0
VERTEX
  8
0
 10
2343.5099
 20
1677.4098
 30
0.0000
  0
VERTEX
  8
0
 10
2344.8794
 20
1677.5981
 30
0.0000
  0
VERTEX
  8
0
 10
2346.1985
 20
1677.9193
 30
0.0000
  0
VERTEX
  8
0
 10
2347.4416
 20
1678.3671
 30
0.0000
  0
VERTEX
  8
0
 10
2348.5844
 20
1678.9330
 30
0.0000
  0
VERTEX
  8
0
 10
2349.3623
 20
1679.4282
 30
0.0000
  0
SEQEND
  0
POLYLINE
  6
continous
  8
BYBLOCK
 70
0
 66
1
  0
VERTEX
  8
0
 10
2335.2201
 20
1689.4282
 30
0.0000
  0
VERTEX
  8
0
 10
2334.4111
 20
1688.7816
 30
0.0000
  0
VERTEX
  8
0
 10
2333.7195
 20
1688.0701
 30
0.0000
  0
VERTEX
  8
0
 10
2333.1558
 20
1687.3043
 30
0.0000
  0
VERTEX
  8
0
 10
2332.7282
 20
1686.4956
 30
0.0000
  0
VERTEX
  8
0
 10
2332.4431
 20
1685.6561
 30
0.0000
  0
VERTEX
  8
0
 10
2332.3049
 20
1684.7983
 30
0.0000
  0
VERTEX
  8
0
 10
2332.2912
 20
1684.4282
 30
0.0000
  0
SEQEND
  0
POLYLINE
  6
continous
  8
BYBLOCK
 70
0
 66
1
  0
VERTEX
  8
0
 10
2352.2912
 20
1684.4282
 30
0.0000
  0
VERTEX
  8
0
 10
2352.2167
 20
1685.2900
 30
0.0000
  0
VERTEX
  8
0
 10
2351.9942
 20
1686.1389
 30
0.0000
  0
VERTEX
  8
0
 10
2351.6270
 20
1686.9622
 30
0.0000
  0
VERTEX
  8
0
 10
2351.1207
 20
1687.7479
 30
0.0000
  0
VERTEX
  8
0
 10
2350.4827
 20
1688.4840
 30
0.0000
  0
VERTEX
  8
0
 10
2349.7227
 20
1689.1597
 30
0.0000
  0
VERTEX
  8
0
 10
2348.8518
 20
1689.7648
 30
0.0000
  0
VERTEX
  8
0
 10
2347.7376
 20
1690.3585
 30
0.0000
  0
VERTEX
  8
0
 10
2346.5174
 20
1690.8368
 30
0.0000
  0
VERTEX
  8
0
 10
2345.2149
 20
1691.1903
 30
0.0000
  0
VERTEX
  8
0
 10
2343.8556
 20
1691.4122
 30
0.0000
  0
VERTEX
  8
0
 10
2342.4657
 20
1691.4982
 30
0.0000
  0
VERTEX
  8
0
 10
2341.0725
 20
1691.4466
 30
0.0000
  0
VERTEX
  8
0
 10
2339.7030
 20
1691.2583
 30
0.0000
  0
VERTEX
  8
0
 10
2338.3839
 20
1690.9372
 30
0.0000
  0
VERTEX
  8
0
 10
2337.1408
 20
1690.4893
 30
0.0000
  0
VERTEX
  8
0
 10
2335.9980
 20
1689.9235
 30
0.0000
  0
VERTEX
  8
0
 10
2335.2201
 20
1689.4282
 30
0.0000
  0
SEQEND
  0
POLYLINE
  6
continous
  8
BYBLOCK
 70
0
 66
1
  0
VERTEX
  8
0
 10
2349.3623
 20
1679.4282
 30
0.0000
  0
VERTEX
  8
0
 10
2350.1713
 20
1680.0748
 30
0.0000
  0
VERTEX
  8
0
 10
2350.8629
 20
1680.7863
 30
0.0000
  0
VERTEX
  8
0
 10
2351.4267
 20
1681.5521
 30
0.0000
  0
VERTEX
  8
0
 10
2351.8543
 20
1682.3608
 30
0.0000
  0
VERTEX
  8
0
 10
2352.1393
 20
1683.2003
 30
0.0000
  0
VERTEX
  8
0
 10
2352.2775
 20
1684.0581
 30
0.0000
  0
VERTEX
  8
0
 10
2352.2912
 20
1684.4282
 30
0.0000
  0
SEQEND
  0
POLYLINE
  6
continous
  8
BYBLOCK
 70
0
 66
1
  0
VERTEX
  8
0
 10
2258.0450
 20
1631.9282
 30
0.0000
  0
VERTEX
  8
0
 10
2258.1195
 20
1631.0665
 30
0.0000
  0
VERTEX
  8
0
 10
2258.3420
 20
1630.2176
 30
0.0000
  0
VERTEX
  8
0
 10
2258.7092
 20
1629.3942
 30
0.0000
  0
VERTEX
  8
0
 10
2259.2155
 20
1628.6085
 30
0.0000
  0
VERTEX
  8
0
 10
2259.8535
 20
1627.8724
 30
0.0000
  0
VERTEX
  8
0
 10
2260.6136
 20
1627.1967
 30
0.0000
  0
VERTEX
  8
0
 10
2261.4844
 20
1626.5916
 30
0.0000
  0
VERTEX
  8
0
 10
2262.5986
 20
1625.9979
 30
0.0000
  0
VERTEX
  8
0
 10
2263.8188
 20
1625.5196
 30
0.0000
  0
VERTEX
  8
0
 10
2265.1213
 20
1625.1661
 30
0.0000
  0
VERTEX
  8
0
 10
2266.4807
 20
1624.9442
 30
0.0000
  0
VERTEX
  8
0
 10
2267.8705
 20
1624.8582
 30
0.0000
  0
VERTEX
  8
0
 10
2269.2637
 20
1624.9098
 30
0.0000
  0
VERTEX
  8
0
 10
2270.6332
 20
1625.0981
 30
0.0000
  0
VERTEX
  8
0
 10
2271.9523
 20
1625.4193
 30
0.0000
  0
VERTEX
  8
0
 10
2273.1954
 20
1625.8671
 30
0.0000
  0
VERTEX
  8
0
 10
2274.3382
 20
1626.4330
 30
0.0000
  0
VERTEX
  8
0
 10
2275.1161
 20
1626.9282
 30
0.0000
  0
SEQEND
  0
POLYLINE
  6
continous
  8
BYBLOCK
 70
0
 66
1
  0
VERTEX
  8
0
 10
2260.9739
 20
1636.9282
 30
0.0000
  0
VERTEX
  8
0
 10
2260.1649
 20
1636.2816
 30
0.0000
  0
VERTEX
  8
0
 10
2259.4733
 20
1635.5701
 30
0.0000
  0
VERTEX
  8
0
 10
2258.9095
 20
1634.8043
 30
0.0000
  0
VERTEX
  8
0
 10
2258.4820
 20
1633.9956
 30
0.0000
  0
VERTEX
  8
0
 10
2258.1969
 20
1633.1561
 30
0.0000
  0
VERTEX
  8
0
 10
2258.0587
 20
1632.2983
 30
0.0000
  0
VERTEX
  8
0
 10
2258.0450
 20
1631.9282
 30
0.0000
  0
SEQEND
  0
POLYLINE
  6
continous
  8
BYBLOCK
 70
0
 66
1
  0
VERTEX
  8
0
 10
2278.0450
 20
1631.9282
 30
0.0000
  0
VERTEX
  8
0
 10
2277.9705
 20
1632.7900
 30
0.0000
  0
VERTEX
  8
0
 10
2277.7480
 20
1633.6389
 30
0.0000
  0
VERTEX
  8
0
 10
2277.3808
 20
1634.4622
 30
0.0000
  0
VERTEX
  8
0
 10
2276.8745
 20
1635.2479
 30
0.0000
  0
VERTEX
  8
0
 10
2276.2365
 20
1635.9840
 30
0.0000
  0
VERTEX
  8
0
 10
2275.4764
 20
1636.6597
 30
0.0000
  0
VERTEX
  8
0
 10
2274.6056
 20
1637.2648
 30
0.0000
  0
VERTEX
  8
0
 10
2273.4914
 20
1637.8585
 30
0.0000
  0
VERTEX
  8
0
 10
2272.2712
 20
1638.3368
 30
0.0000
  0
VERTEX
  8
0
 10
2270.9687
 20
1638.6903
 30
0.0000
  0
VERTEX
  8
0
 10
2269.6093
 20
1638.9122
 30
0.0000
  0
VERTEX
  8
0
 10
2268.2195
 20
1638.9982
 30
0.0000
  0
VERTEX
  8
0
 10
2266.8263
 20
1638.9466
 30
0.0000
  0
VERTEX
  8
0
 10
2265.4568
 20
1638.7583
 30
0.0000
  0
VERTEX
  8
0
 10
2264.1377
 20
1638.4372
 30
0.0000
  0
VERTEX
  8
0
 10
2262.8946
 20
1637.9893
 30
0.0000
  0
VERTEX
  8
0
 10
2261.7518
 20
1637.4235
 30
0.0000
  0
VERTEX
  8
0
 10
2260.9739
 20
1636.9282
 30
0.0000
  0
SEQEND
  0
POLYLINE
  6
continous
  8
BYBLOCK
 70
0
 66
1
  0
VERTEX
  8
0
 10
2275.1161
 20
1626.9282
 30
0.0000
  0
VERTEX
  8
0
 10
2275.9251
 20
1627.5748
 30
0.0000
  0
VERTEX
  8
0
 10
2276.6167
 20
1628.2863
 30
0.0000
  0
VERTEX
  8
0
 10
2277.1805
 20
1629.0521
 30
0.0000
  0
VERTEX
  8
0
 10
2277.6080
 20
1629.8608
 30
0.0000
  0
VERTEX
  8
0
 10
2277.8931
 20
1630.7003
 30
0.0000
  0
VERTEX
  8
0
 10
2278.0313
 20
1631.5581
 30
0.0000
  0
VERTEX
  8
0
 10
2278.0450
 20
1631.9282
 30
0.0000
  0
SEQEND
  0
POLYLINE
  6
continous
  8
BYBLOCK
 70
0
 66
1
  0
VERTEX
  8
0
 10
2183.7988
 20
1579.4282
 30
0.0000
  0
VERTEX
  8
0
 10
2183.8733
 20
1578.5665
 30
0.0000
  0
VERTEX
  8
0
 10
2184.0958
 20
1577.7176
 30
0.0000
  0
VERTEX
  8
0
 10
2184.4630
 20
1576.8942
 30
0.0000
  0
VERTEX
  8
0
 10
2184.9693
 20
1576.1085
 30
0.0000
  0
VERTEX
  8
0
 10
2185.6073
 20
1575.3724
 30
0.0000
  0
VERTEX
  8
0
 10
2186.3673
 20
1574.6967
 30
0.0000
  0
VERTEX
  8
0
 10
2187.2382
 20
1574.0916
 30
0.0000
  0
VERTEX
  8
0
 10
2188.3524
 20
1573.4979
 30
0.0000
  0
VERTEX
  8
0
 10
2189.5726
 20
1573.0196
 30
0.0000
  0
VERTEX
  8
0
 10
2190.8751
 20
1572.6661
 30
0.0000
  0
VERTEX
  8
0
 10
2192.2344
 20
1572.4442
 30
0.0000
  0
VERTEX
  8
0
 10
2193.6243
 20
1572.3582
 30
0.0000
  0
VERTEX
  8
0
 10
2195.0175
 20
1572.4098
 30
0.0000
  0
VERTEX
  8
0
 10
2196.3870
 20
1572.5981
 30
0.0000
  0
VERTEX
  8
0
 10
2197.7061
 20
1572.9193
 30
0.0000
  0
VERTEX
  8
0
 10
2198.9492
 20
1573.3671
 30
0.0000
  0
VERTEX
  8
0
 10
2200.0920
 20
1573.9330
 30
0.0000
  0
VERTEX
  8
0
 10
2200.8699
 20
1574.4282
 30
0.0000
  0
SEQEND
  0
POLYLINE
  6
continous
  8
BYBLOCK
 70
0
 66
1
  0
VERTEX
  8
0
 10
2186.7277
 20
1584.4282
 30
0.0000
  0
VERTEX
  8
0
 10
2185.9187
 20
1583.7816
 30
0.0000
  0
VERTEX
  8
0
 10
2185.2271
 20
1583.0701
 30
0.0000
  0
VERTEX
  8
0
 10
2184.6633
 20
1582.3043
 30
0.0000
  0
VERTEX
  8
0
 10
2184.2357
 20
1581.4956
 30
0.0000
  0
VERTEX
  8
0
 10
2183.9507
 20
1580.6561
 30
0.0000
  0
VERTEX
  8
0
 10
2183.8125
 20
1579.7983
 30
0.0000
  0
VERTEX
  8
0
 10
2183.7988
 20
1579.4282
 30
0.0000
  0
SEQEND
  0
POLYLINE
  6
continous
  8
BYBLOCK
 70
0
 66
1
  0
VERTEX
  8
0
 10
2203.7988
 20
1579.4282
 30
0.0000
  0
VERTEX
  8
0
 10
2203.7243
 20
1580.2900
 30
0.0000
  0
VERTEX
  8
0
 10
2203.5017
 20
1581.1389
 30
0.0000
  0
VERTEX
  8
0
 10
2203.1346
 20
1581.9622
 30
0.0000
  0
VERTEX
  8
0
 10
2202.6283
 20
1582.7479
 30
0.0000
  0
VERTEX
  8
0
 10
2201.9903
 20
1583.4840
 30
0.0000
  0
VERTEX
  8
0
 10
2201.2302
 20
1584.1597
 30
0.0000
  0
VERTEX
  8
0
 10
2200.3594
 20
1584.7648
 30
0.0000
  0
VERTEX
  8
0
 10
2199.2452
 20
1585.3585
 30
0.0000
  0
VERTEX
  8
0
 10
2198.0250
 20
1585.8368
 30
0.0000
  0
VERTEX
  8
0
 10
2196.7225
 20
1586.1903
 30
0.0000
  0
VERTEX
  8
0
 10
2195.3631
 20
1586.4122
 30
0.0000
  0
VERTEX
  8
0
 10
2193.9733
 20
1586.4982
 30
0.0000
  0
VERTEX
  8
0
 10
2192.5801
 20
1586.4466
 30
0.0000
  0
VERTEX
  8
0
 10
2191.2106
 20
1586.2583
 30
0.0000
  0
VERTEX
  8
0
 10
2189.8915
 20
1585.9372
 30
0.0000
  0
VERTEX
  8
0
 10
2188.6484
 20
1585.4893
 30
0.0000
  0
VERTEX
  8
0
 10
2187.5056
 20
1584.9235
 30
0.0000
  0
VERTEX
  8
0
 10
2186.7277
 20
1584.4282
 30
0.0000
  0
SEQEND
  0
POLYLINE
  6
continous
  8
BYBLOCK
 70
0
 66
1
  0
VERTEX
  8
0
 10
2200.8699
 20
1574.4282
 30
0.0000
  0
VERTEX
  8
0
 10
2201.6789
 20
1575.0748
 30
0.0000
  0
VERTEX
  8
0
 10
2202.3705
 20
1575.7863
 30
0.0000
  0
VERTEX
  8
0
 10
2202.9342
 20
1576.5521
 30
0.0000
  0
VERTEX
  8
0
 10
2203.3618
 20
1577.3608
 30
0.0000
  0
VERTEX
  8
0
 10
2203.6469
 20
1578.2003
 30
0.0000
  0
VERTEX
  8
0
 10
2203.7851
 20
1579.0581
 30
0.0000
  0
VERTEX
  8
0
 10
2203.7988
 20
1579.4282
 30
0.0000
  0
SEQEND
  0
POLYLINE
  6
continous
  8
BYBLOCK
 70
0
 66
1
  0
VERTEX
  8
0
 10
2109.5526
 20
1526.9282
 30
0.0000
  0
VERTEX
  8
0
 10
2109.6271
 20
1526.0665
 30
0.0000
  0
VERTEX
  8
0
 10
2109.8496
 20
1525.2176
 30
0.0000
  0
VERTEX
  8
0
 10
2110.2168
 20
1524.3942
 30
0.0000
  0
VERTEX
  8
0
 10
2110.7231
 20
1523.6085
 30
0.0000
  0
VERTEX
  8
0
 10
2111.3611
 20
1522.8724
 30
0.0000
  0
VERTEX
  8
0
 10
2112.1211
 20
1522.1967
 30
0.0000
  0
VERTEX
  8
0
 10
2112.9920
 20
1521.5916
 30
0.0000
  0
VERTEX
  8
0
 10
2114.1062
 20
1520.9979
 30
0.0000
  0
VERTEX
  8
0
 10
2115.3264
 20
1520.5196
 30
0.0000
  0
VERTEX
  8
0
 10
2116.6289
 20
1520.1661
 30
0.0000
  0
VERTEX
  8
0
 10
2117.9882
 20
1519.9442
 30
0.0000
  0
VERTEX
  8
0
 10
2119.3781
 20
1519.8582
 30
0.0000
  0
VERTEX
  8
0
 10
2120.7713
 20
1519.9098
 30
0.0000
  0
VERTEX
  8
0
 10
2122.1408
 20
1520.0981
 30
0.0000
  0
VERTEX
  8
0
 10
2123.4599
 20
1520.4193
 30
0.0000
  0
VERTEX
  8
0
 10
2124.7030
 20
1520.8671
 30
0.0000
  0
VERTEX
  8
0
 10
2125.8458
 20
1521.4330
 30
0.0000
  0
VERTEX
  8
0
 10
2126.6236
 20
1521.9282
 30
0.0000
  0
SEQEND
  0
POLYLINE
  6
continous
  8
BYBLOCK
 70
0
 66
1
  0
VERTEX
  8
0
 10
2112.4815
 20
1531.9282
 30
0.0000
  0
VERTEX
  8
0
 10
2111.6725
 20
1531.2816
 30
0.0000
  0
VERTEX
  8
0
 10
2110.9809
 20
1530.5701
 30
0.0000
  0
VERTEX
  8
0
 10
2110.4171
 20
1529.8043
 30
0.0000
  0
VERTEX
  8
0
 10
2109.9895
 20
1528.9956
 30
0.0000
  0
VERTEX
  8
0
 10
2109.7045
 20
1528.1561
 30
0.0000
  0
VERTEX
  8
0
 10
2109.5663
 20
1527.2983
 30
0.0000
  0
VERTEX
  8
0
 10
2109.5526
 20
1526.9282
 30
0.0000
  0
SEQEND
  0
POLYLINE
  6
continous
  8
BYBLOCK
 70
0
 66
1
  0
VERTEX
  8
0
 10
2129.5526
 20
1526.9282
 30
0.0000
  0
VERTEX
  8
0
 10
2129.4780
 20
1527.7900
 30
0.0000
  0
VERTEX
  8
0
 10
2129.2555
 20
1528.6389
 30
0.0000
  0
VERTEX
  8
0
 10
2128.8884
 20
1529.4622
 30
0.0000
  0
VERTEX
  8
0
 10
2128.3821
 20
1530.2479
 30
0.0000
  0
VERTEX
  8
0
 10
2127.7441
 20
1530.9840
 30
0.0000
  0
VERTEX
  8
0
 10
2126.9840
 20
1531.6597
 30
0.0000
  0
VERTEX
  8
0
 10
2126.1132
 20
1532.2648
 30
0.0000
  0
VERTEX
  8
0
 10
2124.9990
 20
1532.8585
 30
0.0000
  0
VERTEX
  8
0
 10
2123.7788
 20
1533.3368
 30
0.0000
  0
VERTEX
  8
0
 10
2122.4763
 20
1533.6903
 30
0.0000
  0
VERTEX
  8
0
 10
2121.1169
 20
1533.9122
 30
0.0000
  0
VERTEX
  8
0
 10
2119.7271
 20
1533.9982
 30
0.0000
  0
VERTEX
  8
0
 10
2118.3339
 20
1533.9466
 30
0.0000
  0
VERTEX
  8
0
 10
2116.9644
 20
1533.7583
 30
0.0000
  0
VERTEX
  8
0
 10
2115.6453
 20
1533.4372
 30
0.0000
  0
VERTEX
  8
0
 10
2114.4022
 20
1532.9893
 30
0.0000
  0
VERTEX
  8
0
 10
2113.2594
 20
1532.4235
 30
0.0000
  0
VERTEX
  8
0
 10
2112.4815
 20
1531.9282
 30
0.0000
  0
SEQEND
  0
POLYLINE
  6
continous
  8
BYBLOCK
 70
0
 66
1
  0
VERTEX
  8
0
 10
2126.6236
 20
1521.9282
 30
0.0000
  0
VERTEX
  8
0
 10
2127.4327
 20
1522.5748
 30
0.0000
  0
VERTEX
  8
0
 10
2128.1242
 20
1523.2863
 30
0.0000
  0
VERTEX
  8
0
 10
2128.6880
 20
1524.0521
 30
0.0000
  0
VERTEX
  8
0
 10
2129.1156
 20
1524.8608
 30
0.0000
  0
VERTEX
  8
0
 10
2129.4007
 20
1525.7003
 30
0.0000
  0
VERTEX
  8
0
 10
2129.5389
 20
1526.5581
 30
0.0000
  0
VERTEX
  8
0
 10
2129.5526
 20
1526.9282
 30
0.0000
  0
SEQEND
  0
POLYLINE
  6
continous
  8
BYBLOCK
 70
0
 66
1
  0
VERTEX
  8
0
 10
2035.3064
 20
1474.4282
 30
0.0000
  0
VERTEX
  8
0
 10
2035.3809
 20
1473.5665
 30
0.0000
  0
VERTEX
  8
0
 10
2035.6034
 20
1472.7176
 30
0.0000
  0
VERTEX
  8
0
 10
2035.9706
 20
1471.8942
 30
0.0000
  0
VERTEX
  8
0
 10
2036.4769
 20
1471.1085
 30
0.0000
  0
VERTEX
  8
0
 10
2037.1148
 20
1470.3724
 30
0.0000
  0
VERTEX
  8
0
 10
2037.8749
 20
1469.6967
 30
0.0000
  0
VERTEX
  8
0
 10
2038.7458
 20
1469.0916
 30
0.0000
  0
VERTEX
  8
0
 10
2039.8600
 20
1468.4979
 30
0.0000
  0
VERTEX
  8
0
 10
2041.0802
 20
1468.0196
 30
0.0000
  0
VERTEX
  8
0
 10
2042.3826
 20
1467.6661
 30
0.0000
  0
VERTEX
  8
0
 10
2043.7420
 20
1467.4442
 30
0.0000
  0
VERTEX
  8
0
 10
2045.1318
 20
1467.3582
 30
0.0000
  0
VERTEX
  8
0
 10
2046.5251
 20
1467.4098
 30
0.0000
  0
VERTEX
  8
0
 10
2047.8946
 20
1467.5981
 30
0.0000
  0
VERTEX
  8
0
 10
2049.2137
 20
1467.9193
 30
0.0000
  0
VERTEX
  8
0
 10
2050.4567
 20
1468.3671
 30
0.0000
  0
VERTEX
  8
0
 10
2051.5996
 20
1468.9330
 30
0.0000
  0
VERTEX
  8
0
 10
2052.3774
 20
1469.4282
 30
0.0000
  0
SEQEND
  0
POLYLINE
  6
continous
  8
BYBLOCK
 70
0
 66
1
  0
VERTEX
  8
0
 10
2038.2353
 20
1479.4282
 30
0.0000
  0
VERTEX
  8
0
 10
2037.4263
 20
1478.7816
 30
0.0000
  0
VERTEX
  8
0
 10
2036.7347
 20
1478.0701
 30
0.0000
  0
VERTEX
  8
0
 10
2036.1709
 20
1477.3043
 30
0.0000
  0
VERTEX
  8
0
 10
2035.7433
 20
1476.4956
 30
0.0000
  0
VERTEX
  8
0
 10
2035.4583
 20
1475.6561
 30
0.0000
  0
VERTEX
  8
0
 10
2035.3201
 20
1474.7983
 30
0.0000
  0
VERTEX
  8
0
 10
2035.3064
 20
1474.4282
 30
0.0000
  0
SEQEND
  0
POLYLINE
  6
continous
  8
BYBLOCK
 70
0
 66
1
  0
VERTEX
  8
0
 10
2055.3064
 20
1474.4282
 30
0.0000
  0
VERTEX
  8
0
 10
2055.2318
 20
1475.2900
 30
0.0000
  0
VERTEX
  8
0
 10
2055.0093
 20
1476.1389
 30
0.0000
  0
VERTEX
  8
0
 10
2054.6422
 20
1476.9622
 30
0.0000
  0
VERTEX
  8
0
 10
2054.1358
 20
1477.7479
 30
0.0000
  0
VERTEX
  8
0
 10
2053.4979
 20
1478.4840
 30
0.0000
  0
VERTEX
  8
0
 10
2052.7378
 20
1479.1597
 30
0.0000
  0
VERTEX
  8
0
 10
2051.8670
 20
1479.7648
 30
0.0000
  0
VERTEX
  8
0
 10
2050.7528
 20
1480.3585
 30
0.0000
  0
VERTEX
  8
0
 10
2049.5325
 20
1480.8368
 30
0.0000
  0
VERTEX
  8
0
 10
2048.2301
 20
1481.1903
 30
0.0000
  0
VERTEX
  8
0
 10
2046.8707
 20
1481.4122
 30
0.0000
  0
VERTEX
  8
0
 10
2045.4809
 20
1481.4982
 30
0.0000
  0
VERTEX
  8
0
 10
2044.0877
 20
1481.4466
 30
0.0000
  0
VERTEX
  8
0
 10
2042.7182
 20
1481.2583
 30
0.0000
  0
VERTEX
  8
0
 10
2041.3991
 20
1480.9372
 30
0.0000
  0
VERTEX
  8
0
 10
2040.1560
 20
1480.4893
 30
0.0000
  0
VERTEX
  8
0
 10
2039.0132
 20
1479.9235
 30
0.0000
  0
VERTEX
  8
0
 10
2038.2353
 20
1479.4282
 30
0.0000
  0
SEQEND
  0
POLYLINE
  6
continous
  8
BYBLOCK
 70
0
 66
1
  0
VERTEX
  8
0
 10
2052.3774
 20
1469.4282
 30
0.0000
  0
VERTEX
  8
0
 10
2053.1865
 20
1470.0748
 30
0.0000
  0
VERTEX
  8
0
 10
2053.8780
 20
1470.7863
 30
0.0000
  0
VERTEX
  8
0
 10
2054.4418
 20
1471.5521
 30
0.0000
  0
VERTEX
  8
0
 10
2054.8694
 20
1472.3608
 30
0.0000
  0
VERTEX
  8
0
 10
2055.1544
 20
1473.2003
 30
0.0000
  0
VERTEX
  8
0
 10
2055.2927
 20
1474.0581
 30
0.0000
  0
VERTEX
  8
0
 10
2055.3064
 20
1474.4282
 30
0.0000
  0
SEQEND
  0
POLYLINE
  6
continous
  8
BYBLOCK
 70
0
 66
1
  0
VERTEX
  8
0
 10
1961.0602
 20
1421.9282
 30
0.0000
  0
VERTEX
  8
0
 10
1961.1347
 20
1421.0665
 30
0.0000
  0
VERTEX
  8
0
 10
1961.3572
 20
1420.2176
 30
0.0000
  0
VERTEX
  8
0
 10
1961.7243
 20
1419.3942
 30
0.0000
  0
VERTEX
  8
0
 10
1962.2307
 20
1418.6085
 30
0.0000
  0
VERTEX
  8
0
 10
1962.8686
 20
1417.8724
 30
0.0000
  0
VERTEX
  8
0
 10
1963.6287
 20
1417.1967
 30
0.0000
  0
VERTEX
  8
0
 10
1964.4996
 20
1416.5916
 30
0.0000
  0
VERTEX
  8
0
 10
1965.6138
 20
1415.9979
 30
0.0000
  0
VERTEX
  8
0
 10
1966.8340
 20
1415.5196
 30
0.0000
  0
VERTEX
  8
0
 10
1968.1364
 20
1415.1661
 30
0.0000
  0
VERTEX
  8
0
 10
1969.4958
 20
1414.9442
 30
0.0000
  0
VERTEX
  8
0
 10
1970.8856
 20
1414.8582
 30
0.0000
  0
VERTEX
  8
0
 10
1972.2788
 20
1414.9098
 30
0.0000
  0
VERTEX
  8
0
 10
1973.6483
 20
1415.0981
 30
0.0000
  0
VERTEX
  8
0
 10
1974.9675
 20
1415.4193
 30
0.0000
  0
VERTEX
  8
0
 10
1976.2105
 20
1415.8671
 30
0.0000
  0
VERTEX
  8
0
 10
1977.3534
 20
1416.4330
 30
0.0000
  0
VERTEX
  8
0
 10
1978.1312
 20
1416.9282
 30
0.0000
  0
SEQEND
  0
POLYLINE
  6
continous
  8
BYBLOCK
 70
0
 66
1
  0
VERTEX
  8
0
 10
1963.9891
 20
1426.9282
 30
0.0000
  0
VERTEX
  8
0
 10
1963.1800
 20
1426.2816
 30
0.0000
  0
VERTEX
  8
0
 10
1962.4885
 20
1425.5701
 30
0.0000
  0
VERTEX
  8
0
 10
1961.9247
 20
1424.8043
 30
0.0000
  0
VERTEX
  8
0
 10
1961.4971
 20
1423.9956
 30
0.0000
  0
VERTEX
  8
0
 10
1961.2121
 20
1423.1561
 30
0.0000
  0
VERTEX
  8
0
 10
1961.0739
 20
1422.2983
 30
0.0000
  0
VERTEX
  8
0
 10
1961.0602
 20
1421.9282
 30
0.0000
  0
SEQEND
  0
POLYLINE
  6
continous
  8
BYBLOCK
 70
0
 66
1
  0
VERTEX
  8
0
 10
1981.0602
 20
1421.9282
 30
0.0000
  0
VERTEX
  8
0
 10
1980.9856
 20
1422.7900
 30
0.0000
  0
VERTEX
  8
0
 10
1980.7631
 20
1423.6389
 30
0.0000
  0
VERTEX
  8
0
 10
1980.3960
 20
1424.4622
 30
0.0000
  0
VERTEX
  8
0
 10
1979.8896
 20
1425.2479
 30
0.0000
  0
VERTEX
  8
0
 10
1979.2517
 20
1425.9840
 30
0.0000
  0
VERTEX
  8
0
 10
1978.4916
 20
1426.6597
 30
0.0000
  0
VERTEX
  8
0
 10
1977.6207
 20
1427.2648
 30
0.0000
  0
VERTEX
  8
0
 10
1976.5065
 20
1427.8585
 30
0.0000
  0
VERTEX
  8
0
 10
1975.2863
 20
1428.3368
 30
0.0000
  0
VERTEX
  8
0
 10
1973.9839
 20
1428.6903
 30
0.0000
  0
VERTEX
  8
0
 10
1972.6245
 20
1428.9122
 30
0.0000
  0
VERTEX
  8
0
 10
1971.2347
 20
1428.9982
 30
0.0000
  0
VERTEX
  8
0
 10
1969.8415
 20
1428.9466
 30
0.0000
  0
VERTEX
  8
0
 10
1968.4720
 20
1428.7583
 30
0.0000
  0
VERTEX
  8
0
 10
1967.1528
 20
1428.4372
 30
0.0000
  0
VERTEX
  8
0
 10
1965.9098
 20
1427.9893
 30
0.0000
  0
VERTEX
  8
0
 10
1964.7669
 20
1427.4235
 30
0.0000
  0
VERTEX
  8
0
 10
1963.9891
 20
1426.9282
 30
0.0000
  0
SEQEND
  0
POLYLINE
  6
continous
  8
BYBLOCK
 70
0
 66
1
  0
VERTEX
  8
0
 10
1978.1312
 20
1416.9282
 30
0.0000
  0
VERTEX
  8
0
 10
1978.9403
 20
1417.5748
 30
0.0000
  0
VERTEX
  8
0
 10
1979.6318
 20
1418.2863
 30
0.0000
  0
VERTEX
  8
0
 10
1980.1956
 20
1419.0521
 30
0.0000
  0
VERTEX
  8
0
 10
1980.6232
 20
1419.8608
 30
0.0000
  0
VERTEX
  8
0
 10
1980.9082
 20
1420.7003
 30
0.0000
  0
VERTEX
  8
0
 10
1981.0464
 20
1421.5581
 30
0.0000
  0
VERTEX
  8
0
 10
1981.0602
 20
1421.9282
 30
0.0000
  0
SEQEND
  0
POLYLINE
  6
continous
  8
BYBLOCK
 70
0
 66
1
  0
VERTEX
  8
0
 10
1886.8139
 20
1369.4282
 30
0.0000
  0
VERTEX
  8
0
 10
1886.8885
 20
1368.5665
 30
0.0000
  0
VERTEX
  8
0
 10
1887.1110
 20
1367.7176
 30
0.0000
  0
VERTEX
  8
0
 10
1887.4781
 20
1366.8942
 30
0.0000
  0
VERTEX
  8
0
 10
1887.9845
 20
1366.1085
 30
0.0000
  0
VERTEX
  8
0
 10
1888.6224
 20
1365.3724
 30
0.0000
  0
VERTEX
  8
0
 10
1889.3825
 20
1364.6967
 30
0.0000
  0
VERTEX
  8
0
 10
1890.2534
 20
1364.0916
 30
0.0000
  0
VERTEX
  8
0
 10
1891.3676
 20
1363.4979
 30
0.0000
  0
VERTEX
  8
0
 10
1892.5878
 20
1363.0196
 30
0.0000
  0
VERTEX
  8
0
 10
1893.8902
 20
1362.6661
 30
0.0000
  0
VERTEX
  8
0
 10
1895.2496
 20
1362.4442
 30
0.0000
  0
VERTEX
  8
0
 10
1896.6394
 20
1362.3582
 30
0.0000
  0
VERTEX
  8
0
 10
1898.0326
 20
1362.4098
 30
0.0000
  0
VERTEX
  8
0
 10
1899.4021
 20
1362.5981
 30
0.0000
  0
VERTEX
  8
0
 10
1900.7213
 20
1362.9193
 30
0.0000
  0
VERTEX
  8
0
 10
1901.9643
 20
1363.3671
 30
0.0000
  0
VERTEX
  8
0
 10
1903.1071
 20
1363.9330
 30
0.0000
  0
VERTEX
  8
0
 10
1903.8850
 20
1364.4282
 30
0.0000
  0
SEQEND
  0
POLYLINE
  6
continous
  8
BYBLOCK
 70
0
 66
1
  0
VERTEX
  8
0
 10
1889.7429
 20
1374.4282
 30
0.0000
  0
VERTEX
  8
0
 10
1888.9338
 20
1373.7816
 30
0.0000
  0
VERTEX
  8
0
 10
1888.2423
 20
1373.0701
 30
0.0000
  0
VERTEX
  8
0
 10
1887.6785
 20
1372.3043
 30
0.0000
  0
VERTEX
  8
0
 10
1887.2509
 20
1371.4956
 30
0.0000
  0
VERTEX
  8
0
 10
1886.9659
 20
1370.6561
 30
0.0000
  0
VERTEX
  8
0
 10
1886.8276
 20
1369.7983
 30
0.0000
  0
VERTEX
  8
0
 10
1886.8139
 20
1369.4282
 30
0.0000
  0
SEQEND
  0
POLYLINE
  6
continous
  8
BYBLOCK
 70
0
 66
1
  0
VERTEX
  8
0
 10
1906.8139
 20
1369.4282
 30
0.0000
  0
VERTEX
  8
0
 10
1906.7394
 20
1370.2900
 30
0.0000
  0
VERTEX
  8
0
 10
1906.5169
 20
1371.1389
 30
0.0000
  0
VERTEX
  8
0
 10
1906.1497
 20
1371.9622
 30
0.0000
  0
VERTEX
  8
0
 10
1905.6434
 20
1372.7479
 30
0.0000
  0
VERTEX
  8
0
 10
1905.0055
 20
1373.4840
 30
0.0000
  0
VERTEX
  8
0
 10
1904.2454
 20
1374.1597
 30
0.0000
  0
VERTEX
  8
0
 10
1903.3745
 20
1374.7648
 30
0.0000
  0
VERTEX
  8
0
 10
1902.2603
 20
1375.3585
 30
0.0000
  0
VERTEX
  8
0
 10
1901.0401
 20
1375.8368
 30
0.0000
  0
VERTEX
  8
0
 10
1899.7377
 20
1376.1903
 30
0.0000
  0
VERTEX
  8
0
 10
1898.3783
 20
1376.4122
 30
0.0000
  0
VERTEX
  8
0
 10
1896.9885
 20
1376.4982
 30
0.0000
  0
VERTEX
  8
0
 10
1895.5952
 20
1376.4466
 30
0.0000
  0
VERTEX
  8
0
 10
1894.2258
 20
1376.2583
 30
0.0000
  0
VERTEX
  8
0
 10
1892.9066
 20
1375.9372
 30
0.0000
  0
VERTEX
  8
0
 10
1891.6636
 20
1375.4893
 30
0.0000
  0
VERTEX
  8
0
 10
1890.5207
 20
1374.9235
 30
0.0000
  0
VERTEX
  8
0
 10
1889.7429
 20
1374.4282
 30
0.0000
  0
SEQEND
  0
POLYLINE
  6
continous
  8
BYBLOCK
 70
0
 66
1
  0
VERTEX
  8
0
 10
1903.8850
 20
1364.4282
 30
0.0000
  0
VERTEX
  8
0
 10
1904.6940
 20
1365.0748
 30
0.0000
  0
VERTEX
  8
0
 10
1905.3856
 20
1365.7863
 30
0.0000
  0
VERTEX
  8
0
 10
1905.9494
 20
1366.5521
 30
0.0000
  0
VERTEX
  8
0
 10
1906.3770
 20
1367.3608
 30
0.0000
  0
VERTEX
  8
0
 10
1906.6620
 20
1368.2003
 30
0.0000
  0
VERTEX
  8
0
 10
1906.8002
 20
1369.0581
 30
0.0000
  0
VERTEX
  8
0
 10
1906.8139
 20
1369.4282
 30
0.0000
  0
SEQEND
  0
POLYLINE
  6
continous
  8
BYBLOCK
 70
0
 66
1
  0
VERTEX
  8
0
 10
1812.5677
 20
1316.9282
 30
0.0000
  0
VERTEX
  8
0
 10
1812.6423
 20
1316.0665
 30
0.0000
  0
VERTEX
  8
0
 10
1812.8648
 20
1315.2176
 30
0.0000
  0
VERTEX
  8
0
 10
1813.2319
 20
1314.3942
 30
0.0000
  0
VERTEX
  8
0
 10
1813.7383
 20
1313.6085
 30
0.0000
  0
VERTEX
  8
0
 10
1814.3762
 20
1312.8724
 30
0.0000
  0
VERTEX
  8
0
 10
1815.1363
 20
1312.1967
 30
0.0000
  0
VERTEX
  8
0
 10
1816.0071
 20
1311.5916
 30
0.0000
  0
VERTEX
  8
0
 10
1817.1213
 20
1310.9979
 30
0.0000
  0
VERTEX
  8
0
 10
1818.3415
 20
1310.5196
 30
0.0000
  0
VERTEX
  8
0
 10
1819.6440
 20
1310.1661
 30
0.0000
  0
VERTEX
  8
0
 10
1821.0034
 20
1309.9442
 30
0.0000
  0
VERTEX
  8
0
 10
1822.3932
 20
1309.8582
 30
0.0000
  0
VERTEX
  8
0
 10
1823.7864
 20
1309.9098
 30
0.0000
  0
VERTEX
  8
0
 10
1825.1559
 20
1310.0981
 30
0.0000
  0
VERTEX
  8
0
 10
1826.4750
 20
1310.4193
 30
0.0000
  0
VERTEX
  8
0
 10
1827.7181
 20
1310.8671
 30
0.0000
  0
VERTEX
  8
0
 10
1828.8609
 20
1311.4330
 30
0.0000
  0
VERTEX
  8
0
 10
1829.6388
 20
1311.9282
 30
0.0000
  0
SEQEND
  0
POLYLINE
  6
continous
  8
BYBLOCK
 70
0
 66
1
  0
VERTEX
  8
0
 10
1815.4967
 20
1321.9282
 30
0.0000
  0
VERTEX
  8
0
 10
1814.6876
 20
1321.2816
 30
0.0000
  0
VERTEX
  8
0
 10
1813.9961
 20
1320.5701
 30
0.0000
  0
VERTEX
  8
0
 10
1813.4323
 20
1319.8043
 30
0.0000
  0
VERTEX
  8
0
 10
1813.0047
 20
1318.9956
 30
0.0000
  0
VERTEX
  8
0
 10
1812.7197
 20
1318.1561
 30
0.0000
  0
VERTEX
  8
0
 10
1812.5814
 20
1317.2983
 30
0.0000
  0
VERTEX
  8
0
 10
1812.5677
 20
1316.9282
 30
0.0000
  0
SEQEND
  0
POLYLINE
  6
continous
  8
BYBLOCK
 70
0
 66
1
  0
VERTEX
  8
0
 10
1832.5677
 20
1316.9282
 30
0.0000
  0
VERTEX
  8
0
 10
1832.4932
 20
1317.7900
 30
0.0000
  0
VERTEX
  8
0
 10
1832.2707
 20
1318.6389
 30
0.0000
  0
VERTEX
  8
0
 10
1831.9035
 20
1319.4622
 30
0.0000
  0
VERTEX
  8
0
 10
1831.3972
 20
1320.2479
 30
0.0000
  0
VERTEX
  8
0
 10
1830.7592
 20
1320.9840
 30
0.0000
  0
VERTEX
  8
0
 10
1829.9992
 20
1321.6597
 30
0.0000
  0
VERTEX
  8
0
 10
1829.1283
 20
1322.2648
 30
0.0000
  0
VERTEX
  8
0
 10
1828.0141
 20
1322.8585
 30
0.0000
  0
VERTEX
  8
0
 10
1826.7939
 20
1323.3368
 30
0.0000
  0
VERTEX
  8
0
 10
1825.4914
 20
1323.6903
 30
0.0000
  0
VERTEX
  8
0
 10
1824.1321
 20
1323.9122
 30
0.0000
  0
VERTEX
  8
0
 10
1822.7423
 20
1323.9982
 30
0.0000
  0
VERTEX
  8
0
 10
1821.3490
 20
1323.9466
 30
0.0000
  0
VERTEX
  8
0
 10
1819.9795
 20
1323.7583
 30
0.0000
  0
VERTEX
  8
0
 10
1818.6604
 20
1323.4372
 30
0.0000
  0
VERTEX
  8
0
 10
1817.4173
 20
1322.9893
 30
0.0000
  0
VERTEX
  8
0
 10
1816.2745
 20
1322.4235
 30
0.0000
  0
VERTEX
  8
0
 10
1815.4967
 20
1321.9282
 30
0.0000
  0
SEQEND
  0
POLYLINE
  6
continous
  8
BYBLOCK
 70
0
 66
1
  0
VERTEX
  8
0
 10
1829.6388
 20
1311.9282
 30
0.0000
  0
VERTEX
  8
0
 10
1830.4478
 20
1312.5748
 30
0.0000
  0
VERTEX
  8
0
 10
1831.1394
 20
1313.2863
 30
0.0000
  0
VERTEX
  8
0
 10
1831.7032
 20
1314.0521
 30
0.0000
  0
VERTEX
  8
0
 10
1832.1308
 20
1314.8608
 30
0.0000
  0
VERTEX
  8
0
 10
1832.4158
 20
1315.7003
 30
0.0000
  0
VERTEX
  8
0
 10
1832.5540
 20
1316.5581
 30
0.0000
  0
VERTEX
  8
0
 10
1832.5677
 20
1316.9282
 30
0.0000
  0
SEQEND
  0
POLYLINE
  6
continous
  8
BYBLOCK
 70
0
 66
1
  0
VERTEX
  8
0
 10
1738.3215
 20
1264.4282
 30
0.0000
  0
VERTEX
  8
0
 10
1738.3961
 20
1263.5665
 30
0.0000
  0
VERTEX
  8
0
 10
1738.6186
 20
1262.7176
 30
0.0000
  0
VERTEX
  8
0
 10
1738.9857
 20
1261.8942
 30
0.0000
  0
VERTEX
  8
0
 10
1739.4920
 20
1261.1085
 30
0.0000
  0
VERTEX
  8
0
 10
1740.1300
 20
1260.3724
 30
0.0000
  0
VERTEX
  8
0
 10
1740.8901
 20
1259.6967
 30
0.0000
  0
VERTEX
  8
0
 10
1741.7609
 20
1259.0916
 30
0.0000
  0
VERTEX
  8
0
 10
1742.8751
 20
1258.4979
 30
0.0000
  0
VERTEX
  8
0
 10
1744.0953
 20
1258.0196
 30
0.0000
  0
VERTEX
  8
0
 10
1745.3978
 20
1257.6661
 30
0.0000
  0
VERTEX
  8
0
 10
1746.7572
 20
1257.4442
 30
0.0000
  0
VERTEX
  8
0
 10
1748.1470
 20
1257.3582
 30
0.0000
  0
VERTEX
  8
0
 10
1749.5402
 20
1257.4098
 30
0.0000
  0
VERTEX
  8
0
 10
1750.9097
 20
1257.5981
 30
0.0000
  0
VERTEX
  8
0
 10
1752.2288
 20
1257.9193
 30
0.0000
  0
VERTEX
  8
0
 10
1753.4719
 20
1258.3671
 30
0.0000
  0
VERTEX
  8
0
 10
1754.6147
 20
1258.9330
 30
0.0000
  0
VERTEX
  8
0
 10
1755.3926
 20
1259.4282
 30
0.0000
  0
SEQEND
  0
POLYLINE
  6
continous
  8
BYBLOCK
 70
0
 66
1
  0
VERTEX
  8
0
 10
1741.2504
 20
1269.4282
 30
0.0000
  0
VERTEX
  8
0
 10
1740.4414
 20
1268.7816
 30
0.0000
  0
VERTEX
  8
0
 10
1739.7498
 20
1268.0701
 30
0.0000
  0
VERTEX
  8
0
 10
1739.1861
 20
1267.3043
 30
0.0000
  0
VERTEX
  8
0
 10
1738.7585
 20
1266.4956
 30
0.0000
  0
VERTEX
  8
0
 10
1738.4734
 20
1265.6561
 30
0.0000
  0
VERTEX
  8
0
 10
1738.3352
 20
1264.7983
 30
0.0000
  0
VERTEX
  8
0
 10
1738.3215
 20
1264.4282
 30
0.0000
  0
SEQEND
  0
POLYLINE
  6
continous
  8
BYBLOCK
 70
0
 66
1
  0
VERTEX
  8
0
 10
1758.3215
 20
1264.4282
 30
0.0000
  0
VERTEX
  8
0
 10
1758.2470
 20
1265.2900
 30
0.0000
  0
VERTEX
  8
0
 10
1758.0245
 20
1266.1389
 30
0.0000
  0
VERTEX
  8
0
 10
1757.6573
 20
1266.9622
 30
0.0000
  0
VERTEX
  8
0
 10
1757.1510
 20
1267.7479
 30
0.0000
  0
VERTEX
  8
0
 10
1756.5130
 20
1268.4840
 30
0.0000
  0
VERTEX
  8
0
 10
1755.7530
 20
1269.1597
 30
0.0000
  0
VERTEX
  8
0
 10
1754.8821
 20
1269.7648
 30
0.0000
  0
VERTEX
  8
0
 10
1753.7679
 20
1270.3585
 30
0.0000
  0
VERTEX
  8
0
 10
1752.5477
 20
1270.8368
 30
0.0000
  0
VERTEX
  8
0
 10
1751.2452
 20
1271.1903
 30
0.0000
  0
VERTEX
  8
0
 10
1749.8859
 20
1271.4122
 30
0.0000
  0
VERTEX
  8
0
 10
1748.4960
 20
1271.4982
 30
0.0000
  0
VERTEX
  8
0
 10
1747.1028
 20
1271.4466
 30
0.0000
  0
VERTEX
  8
0
 10
1745.7333
 20
1271.2583
 30
0.0000
  0
VERTEX
  8
0
 10
1744.4142
 20
1270.9372
 30
0.0000
  0
VERTEX
  8
0
 10
1743.1711
 20
1270.4893
 30
0.0000
  0
VERTEX
  8
0
 10
1742.0283
 20
1269.9235
 30
0.0000
  0
VERTEX
  8
0
 10
1741.2504
 20
1269.4282
 30
0.0000
  0
SEQEND
  0
POLYLINE
  6
continous
  8
BYBLOCK
 70
0
 66
1
  0
VERTEX
  8
0
 10
1755.3926
 20
1259.4282
 30
0.0000
  0
VERTEX
  8
0
 10
1756.2016
 20
1260.0748
 30
0.0000
  0
VERTEX
  8
0
 10
1756.8932
 20
1260.7863
 30
0.0000
  0
VERTEX
  8
0
 10
1757.4570
 20
1261.5521
 30
0.0000
  0
VERTEX
  8
0
 10
1757.8846
 20
1262.3608
 30
0.0000
  0
VERTEX
  8
0
 10
1758.1696
 20
1263.2003
 30
0.0000
  0
VERTEX
  8
0
 10
1758.3078
 20
1264.0581
 30
0.0000
  0
VERTEX
  8
0
 10
1758.3215
 20
1264.4282
 30
0.0000
  0
SEQEND
  0
POLYLINE
  6
continous
  8
BYBLOCK
 70
0
 66
1
  0
VERTEX
  8
0
 10
1664.0753
 20
1211.9282
 30
0.0000
  0
VERTEX
  8
0
 10
1664.1498
 20
1211.0665
 30
0.0000
  0
VERTEX
  8
0
 10
1664.3723
 20
1210.2176
 30
0.0000
  0
VERTEX
  8
0
 10
1664.7395
 20
1209.3942
 30
0.0000
  0
VERTEX
  8
0
 10
1665.2458
 20
1208.6085
 30
0.0000
  0
VERTEX
  8
0
 10
1665.8838
 20
1207.8724
 30
0.0000
  0
VERTEX
  8
0
 10
1666.6439
 20
1207.1967
 30
0.0000
  0
VERTEX
  8
0
 10
1667.5147
 20
1206.5916
 30
0.0000
  0
VERTEX
  8
0
 10
1668.6289
 20
1205.9979
 30
0.0000
  0
VERTEX
  8
0
 10
1669.8491
 20
1205.5196
 30
0.0000
  0
VERTEX
  8
0
 10
1671.1516
 20
1205.1661
 30
0.0000
  0
VERTEX
  8
0
 10
1672.5110
 20
1204.9442
 30
0.0000
  0
VERTEX
  8
0
 10
1673.9008
 20
1204.8582
 30
0.0000
  0
VERTEX
  8
0
 10
1675.2940
 20
1204.9098
 30
0.0000
  0
VERTEX
  8
0
 10
1676.6635
 20
1205.0981
 30
0.0000
  0
VERTEX
  8
0
 10
1677.9826
 20
1205.4193
 30
0.0000
  0
VERTEX
  8
0
 10
1679.2257
 20
1205.8671
 30
0.0000
  0
VERTEX
  8
0
 10
1680.3685
 20
1206.4330
 30
0.0000
  0
VERTEX
  8
0
 10
1681.1464
 20
1206.9282
 30
0.0000
  0
SEQEND
  0
POLYLINE
  6
continous
  8
BYBLOCK
 70
0
 66
1
  0
VERTEX
  8
0
 10
1667.0042
 20
1216.9282
 30
0.0000
  0
VERTEX
  8
0
 10
1666.1952
 20
1216.2816
 30
0.0000
  0
VERTEX
  8
0
 10
1665.5036
 20
1215.5701
 30
0.0000
  0
VERTEX
  8
0
 10
1664.9398
 20
1214.8043
 30
0.0000
  0
VERTEX
  8
0
 10
1664.5123
 20
1213.9956
 30
0.0000
  0
VERTEX
  8
0
 10
1664.2272
 20
1213.1561
 30
0.0000
  0
VERTEX
  8
0
 10
1664.0890
 20
1212.2983
 30
0.0000
  0
VERTEX
  8
0
 10
1664.0753
 20
1211.9282
 30
0.0000
  0
SEQEND
  0
POLYLINE
  6
continous
  8
BYBLOCK
 70
0
 66
1
  0
VERTEX
  8
0
 10
1684.0753
 20
1211.9282
 30
0.0000
  0
VERTEX
  8
0
 10
1684.0008
 20
1212.7900
 30
0.0000
  0
VERTEX
  8
0
 10
1683.7783
 20
1213.6389
 30
0.0000
  0
VERTEX
  8
0
 10
1683.4111
 20
1214.4622
 30
0.0000
  0
VERTEX
  8
0
 10
1682.9048
 20
1215.2479
 30
0.0000
  0
VERTEX
  8
0
 10
1682.2668
 20
1215.9840
 30
0.0000
  0
VERTEX
  8
0
 10
1681.5068
 20
1216.6597
 30
0.0000
  0
VERTEX
  8
0
 10
1680.6359
 20
1217.2648
 30
0.0000
  0
VERTEX
  8
0
 10
1679.5217
 20
1217.8585
 30
0.0000
  0
VERTEX
  8
0
 10
1678.3015
 20
1218.3368
 30
0.0000
  0
VERTEX
  8
0
 10
1676.9990
 20
1218.6903
 30
0.0000
  0
VERTEX
  8
0
 10
1675.6396
 20
1218.9122
 30
0.0000
  0
VERTEX
  8
0
 10
1674.2498
 20
1218.9982
 30
0.0000
  0
VERTEX
  8
0
 10
1672.8566
 20
1218.9466
 30
0.0000
  0
VERTEX
  8
0
 10
1671.4871
 20
1218.7583
 30
0.0000
  0
VERTEX
  8
0
 10
1670.1680
 20
1218.4372
 30
0.0000
  0
VERTEX
  8
0
 10
1668.9249
 20
1217.9893
 30
0.0000
  0
VERTEX
  8
0
 10
1667.7821
 20
1217.4235
 30
0.0000
  0
VERTEX
  8
0
 10
1667.0042
 20
1216.9282
 30
0.0000
  0
SEQEND
  0
POLYLINE
  6
continous
  8
BYBLOCK
 70
0
 66
1
  0
VERTEX
  8
0
 10
1681.1464
 20
1206.9282
 30
0.0000
  0
VERTEX
  8
0
 10
1681.9554
 20
1207.5748
 30
0.0000
  0
VERTEX
  8
0
 10
1682.6470
 20
1208.2863
 30
0.0000
  0
VERTEX
  8
0
 10
1683.2108
 20
1209.0521
 30
0.0000
  0
VERTEX
  8
0
 10
1683.6384
 20
1209.8608
 30
0.0000
  0
VERTEX
  8
0
 10
1683.9234
 20
1210.7003
 30
0.0000
  0
VERTEX
  8
0
 10
1684.0616
 20
1211.5581
 30
0.0000
  0
VERTEX
  8
0
 10
1684.0753
 20
1211.9282
 30
0.0000
  0
SEQEND
  0
POLYLINE
  6
continous
  8
BYBLOCK
 70
0
 66
1
  0
VERTEX
  8
0
 10
1589.8291
 20
1159.4282
 30
0.0000
  0
VERTEX
  8
0
 10
1589.9036
 20
1158.5665
 30
0.0000
  0
VERTEX
  8
0
 10
1590.1261
 20
1157.7176
 30
0.0000
  0
VERTEX
  8
0
 10
1590.4933
 20
1156.8942
 30
0.0000
  0
VERTEX
  8
0
 10
1590.9996
 20
1156.1085
 30
0.0000
  0
VERTEX
  8
0
 10
1591.6376
 20
1155.3724
 30
0.0000
  0
VERTEX
  8
0
 10
1592.3976
 20
1154.6967
 30
0.0000
  0
VERTEX
  8
0
 10
1593.2685
 20
1154.0916
 30
0.0000
  0
VERTEX
  8
0
 10
1594.3827
 20
1153.4979
 30
0.0000
  0
VERTEX
  8
0
 10
1595.6029
 20
1153.0196
 30
0.0000
  0
VERTEX
  8
0
 10
1596.9054
 20
1152.6661
 30
0.0000
  0
VERTEX
  8
0
 10
1598.2647
 20
1152.4442
 30
0.0000
  0
VERTEX
  8
0
 10
1599.6546
 20
1152.3582
 30
0.0000
  0
VERTEX
  8
0
 10
1601.0478
 20
1152.4098
 30
0.0000
  0
VERTEX
  8
0
 10
1602.4173
 20
1152.5981
 30
0.0000
  0
VERTEX
  8
0
 10
1603.7364
 20
1152.9193
 30
0.0000
  0
VERTEX
  8
0
 10
1604.9795
 20
1153.3671
 30
0.0000
  0
VERTEX
  8
0
 10
1606.1223
 20
1153.9330
 30
0.0000
  0
VERTEX
  8
0
 10
1606.9002
 20
1154.4282
 30
0.0000
  0
SEQEND
  0
POLYLINE
  6
continous
  8
BYBLOCK
 70
0
 66
1
  0
VERTEX
  8
0
 10
1592.7580
 20
1164.4282
 30
0.0000
  0
VERTEX
  8
0
 10
1591.9490
 20
1163.7816
 30
0.0000
  0
VERTEX
  8
0
 10
1591.2574
 20
1163.0701
 30
0.0000
  0
VERTEX
  8
0
 10
1590.6936
 20
1162.3043
 30
0.0000
  0
VERTEX
  8
0
 10
1590.2660
 20
1161.4956
 30
0.0000
  0
VERTEX
  8
0
 10
1589.9810
 20
1160.6561
 30
0.0000
  0
VERTEX
  8
0
 10
1589.8428
 20
1159.7983
 30
0.0000
  0
VERTEX
  8
0
 10
1589.8291
 20
1159.4282
 30
0.0000
  0
SEQEND
  0
POLYLINE
  6
continous
  8
BYBLOCK
 70
0
 66
1
  0
VERTEX
  8
0
 10
1609.8291
 20
1159.4282
 30
0.0000
  0
VERTEX
  8
0
 10
1609.7546
 20
1160.2900
 30
0.0000
  0
VERTEX
  8
0
 10
1609.5320
 20
1161.1389
 30
0.0000
  0
VERTEX
  8
0
 10
1609.1649
 20
1161.9622
 30
0.0000
  0
VERTEX
  8
0
 10
1608.6586
 20
1162.7479
 30
0.0000
  0
VERTEX
  8
0
 10
1608.0206
 20
1163.4840
 30
0.0000
  0
VERTEX
  8
0
 10
1607.2605
 20
1164.1597
 30
0.0000
  0
VERTEX
  8
0
 10
1606.3897
 20
1164.7648
 30
0.0000
  0
VERTEX
  8
0
 10
1605.2755
 20
1165.3585
 30
0.0000
  0
VERTEX
  8
0
 10
1604.0553
 20
1165.8368
 30
0.0000
  0
VERTEX
  8
0
 10
1602.7528
 20
1166.1903
 30
0.0000
  0
VERTEX
  8
0
 10
1601.3934
 20
1166.4122
 30
0.0000
  0
VERTEX
  8
0
 10
1600.0036
 20
1166.4982
 30
0.0000
  0
VERTEX
  8
0
 10
1598.6104
 20
1166.4466
 30
0.0000
  0
VERTEX
  8
0
 10
1597.2409
 20
1166.2583
 30
0.0000
  0
VERTEX
  8
0
 10
1595.9218
 20
1165.9372
 30
0.0000
  0
VERTEX
  8
0
 10
1594.6787
 20
1165.4893
 30
0.0000
  0
VERTEX
  8
0
 10
1593.5359
 20
1164.9235
 30
0.0000
  0
VERTEX
  8
0
 10
1592.7580
 20
1164.4282
 30
0.0000
  0
SEQEND
  0
POLYLINE
  6
continous
  8
BYBLOCK
 70
0
 66
1
  0
VERTEX
  8
0
 10
1606.9002
 20
1154.4282
 30
0.0000
  0
VERTEX
  8
0
 10
1607.7092
 20
1155.0748
 30
0.0000
  0
VERTEX
  8
0
 10
1608.4008
 20
1155.7863
 30
0.0000
  0
VERTEX
  8
0
 10
1608.9645
 20
1156.5521
 30
0.0000
  0
VERTEX
  8
0
 10
1609.3921
 20
1157.3608
 30
0.0000
  0
VERTEX
  8
0
 10
1609.6772
 20
1158.2003
 30
0.0000
  0
VERTEX
  8
0
 10
1609.8154
 20
1159.0581
 30
0.0000
  0
VERTEX
  8
0
 10
1609.8291
 20
1159.4282
 30
0.0000
  0
SEQEND
  0
POLYLINE
  6
continous
  8
BYBLOCK
 70
0
 66
1
  0
VERTEX
  8
0
 10
1515.5829
 20
1106.9282
 30
0.0000
  0
VERTEX
  8
0
 10
1515.6574
 20
1106.0665
 30
0.0000
  0
VERTEX
  8
0
 10
1515.8799
 20
1105.2176
 30
0.0000
  0
VERTEX
  8
0
 10
1516.2471
 20
1104.3942
 30
0.0000
  0
VERTEX
  8
0
 10
1516.7534
 20
1103.6085
 30
0.0000
  0
VERTEX
  8
0
 10
1517.3914
 20
1102.8724
 30
0.0000
  0
VERTEX
  8
0
 10
1518.1514
 20
1102.1967
 30
0.0000
  0
VERTEX
  8
0
 10
1519.0223
 20
1101.5916
 30
0.0000
  0
VERTEX
  8
0
 10
1520.1365
 20
1100.9979
 30
0.0000
  0
VERTEX
  8
0
 10
1521.3567
 20
1100.5196
 30
0.0000
  0
VERTEX
  8
0
 10
1522.6592
 20
1100.1661
 30
0.0000
  0
VERTEX
  8
0
 10
1524.0185
 20
1099.9442
 30
0.0000
  0
VERTEX
  8
0
 10
1525.4084
 20
1099.8582
 30
0.0000
  0
VERTEX
  8
0
 10
1526.8016
 20
1099.9098
 30
0.0000
  0
VERTEX
  8
0
 10
1528.1711
 20
1100.0981
 30
0.0000
  0
VERTEX
  8
0
 10
1529.4902
 20
1100.4193
 30
0.0000
  0
VERTEX
  8
0
 10
1530.7333
 20
1100.8671
 30
0.0000
  0
VERTEX
  8
0
 10
1531.8761
 20
1101.4330
 30
0.0000
  0
VERTEX
  8
0
 10
1532.6539
 20
1101.9282
 30
0.0000
  0
SEQEND
  0
POLYLINE
  6
continous
  8
BYBLOCK
 70
0
 66
1
  0
VERTEX
  8
0
 10
1518.5118
 20
1111.9282
 30
0.0000
  0
VERTEX
  8
0
 10
1517.7028
 20
1111.2816
 30
0.0000
  0
VERTEX
  8
0
 10
1517.0112
 20
1110.5701
 30
0.0000
  0
VERTEX
  8
0
 10
1516.4474
 20
1109.8043
 30
0.0000
  0
VERTEX
  8
0
 10
1516.0198
 20
1108.9956
 30
0.0000
  0
VERTEX
  8
0
 10
1515.7348
 20
1108.1561
 30
0.0000
  0
VERTEX
  8
0
 10
1515.5966
 20
1107.2983
 30
0.0000
  0
VERTEX
  8
0
 10
1515.5829
 20
1106.9282
 30
0.0000
  0
SEQEND
  0
POLYLINE
  6
continous
  8
BYBLOCK
 70
0
 66
1
  0
VERTEX
  8
0
 10
1535.5829
 20
1106.9282
 30
0.0000
  0
VERTEX
  8
0
 10
1535.5083
 20
1107.7900
 30
0.0000
  0
VERTEX
  8
0
 10
1535.2858
 20
1108.6389
 30
0.0000
  0
VERTEX
  8
0
 10
1534.9187
 20
1109.4622
 30
0.0000
  0
VERTEX
  8
0
 10
1534.4124
 20
1110.2479
 30
0.0000
  0
VERTEX
  8
0
 10
1533.7744
 20
1110.9840
 30
0.0000
  0
VERTEX
  8
0
 10
1533.0143
 20
1111.6597
 30
0.0000
  0
VERTEX
  8
0
 10
1532.1435
 20
1112.2648
 30
0.0000
  0
VERTEX
  8
0
 10
1531.0293
 20
1112.8585
 30
0.0000
  0
VERTEX
  8
0
 10
1529.8091
 20
1113.3368
 30
0.0000
  0
VERTEX
  8
0
 10
1528.5066
 20
1113.6903
 30
0.0000
  0
VERTEX
  8
0
 10
1527.1472
 20
1113.9122
 30
0.0000
  0
VERTEX
  8
0
 10
1525.7574
 20
1113.9982
 30
0.0000
  0
VERTEX
  8
0
 10
1524.3642
 20
1113.9466
 30
0.0000
  0
VERTEX
  8
0
 10
1522.9947
 20
1113.7583
 30
0.0000
  0
VERTEX
  8
0
 10
1521.6756
 20
1113.4372
 30
0.0000
  0
VERTEX
  8
0
 10
1520.4325
 20
1112.9893
 30
0.0000
  0
VERTEX
  8
0
 10
1519.2897
 20
1112.4235
 30
0.0000
  0
VERTEX
  8
0
 10
1518.5118
 20
1111.9282
 30
0.0000
  0
SEQEND
  0
POLYLINE
  6
continous
  8
BYBLOCK
 70
0
 66
1
  0
VERTEX
  8
0
 10
1532.6539
 20
1101.9282
 30
0.0000
  0
VERTEX
  8
0
 10
1533.4630
 20
1102.5748
 30
0.0000
  0
VERTEX
  8
0
 10
1534.1546
 20
1103.2863
 30
0.0000
  0
VERTEX
  8
0
 10
1534.7183
 20
1104.0521
 30
0.0000
  0
VERTEX
  8
0
 10
1535.1459
 20
1104.8608
 30
0.0000
  0
VERTEX
  8
0
 10
1535.4310
 20
1105.7003
 30
0.0000
  0
VERTEX
  8
0
 10
1535.5692
 20
1106.5581
 30
0.0000
  0
VERTEX
  8
0
 10
1535.5829
 20
1106.9282
 30
0.0000
  0
SEQEND
  0
POLYLINE
  6
continous
  8
BYBLOCK
 70
0
 66
1
  0
VERTEX
  8
0
 10
1441.3367
 20
1054.4282
 30
0.0000
  0
VERTEX
  8
0
 10
1441.4112
 20
1053.5665
 30
0.0000
  0
VERTEX
  8
0
 10
1441.6337
 20
1052.7176
 30
0.0000
  0
VERTEX
  8
0
 10
1442.0009
 20
1051.8942
 30
0.0000
  0
VERTEX
  8
0
 10
1442.5072
 20
1051.1085
 30
0.0000
  0
VERTEX
  8
0
 10
1443.1451
 20
1050.3724
 30
0.0000
  0
VERTEX
  8
0
 10
1443.9052
 20
1049.6967
 30
0.0000
  0
VERTEX
  8
0
 10
1444.7761
 20
1049.0916
 30
0.0000
  0
VERTEX
  8
0
 10
1445.8903
 20
1048.4979
 30
0.0000
  0
VERTEX
  8
0
 10
1447.1105
 20
1048.0196
 30
0.0000
  0
VERTEX
  8
0
 10
1448.4130
 20
1047.6661
 30
0.0000
  0
VERTEX
  8
0
 10
1449.7723
 20
1047.4442
 30
0.0000
  0
VERTEX
  8
0
 10
1451.1621
 20
1047.3582
 30
0.0000
  0
VERTEX
  8
0
 10
1452.5554
 20
1047.4098
 30
0.0000
  0
VERTEX
  8
0
 10
1453.9249
 20
1047.5981
 30
0.0000
  0
VERTEX
  8
0
 10
1455.2440
 20
1047.9193
 30
0.0000
  0
VERTEX
  8
0
 10
1456.4870
 20
1048.3671
 30
0.0000
  0
VERTEX
  8
0
 10
1457.6299
 20
1048.9330
 30
0.0000
  0
VERTEX
  8
0
 10
1458.4077
 20
1049.4282
 30
0.0000
  0
SEQEND
  0
POLYLINE
  6
continous
  8
BYBLOCK
 70
0
 66
1
  0
VERTEX
  8
0
 10
1444.2656
 20
1059.4282
 30
0.0000
  0
VERTEX
  8
0
 10
1443.4566
 20
1058.7816
 30
0.0000
  0
VERTEX
  8
0
 10
1442.7650
 20
1058.0701
 30
0.0000
  0
VERTEX
  8
0
 10
1442.2012
 20
1057.3043
 30
0.0000
  0
VERTEX
  8
0
 10
1441.7736
 20
1056.4956
 30
0.0000
  0
VERTEX
  8
0
 10
1441.4886
 20
1055.6561
 30
0.0000
  0
VERTEX
  8
0
 10
1441.3504
 20
1054.7983
 30
0.0000
  0
VERTEX
  8
0
 10
1441.3367
 20
1054.4282
 30
0.0000
  0
SEQEND
  0
POLYLINE
  6
continous
  8
BYBLOCK
 70
0
 66
1
  0
VERTEX
  8
0
 10
1461.3367
 20
1054.4282
 30
0.0000
  0
VERTEX
  8
0
 10
1461.2621
 20
1055.2900
 30
0.0000
  0
VERTEX
  8
0
 10
1461.0396
 20
1056.1389
 30
0.0000
  0
VERTEX
  8
0
 10
1460.6725
 20
1056.9622
 30
0.0000
  0
VERTEX
  8
0
 10
1460.1661
 20
1057.7479
 30
0.0000
  0
VERTEX
  8
0
 10
1459.5282
 20
1058.4840
 30
0.0000
  0
VERTEX
  8
0
 10
1458.7681
 20
1059.1597
 30
0.0000
  0
VERTEX
  8
0
 10
1457.8973
 20
1059.7648
 30
0.0000
  0
VERTEX
  8
0
 10
1456.7831
 20
1060.3585
 30
0.0000
  0
VERTEX
  8
0
 10
1455.5629
 20
1060.8368
 30
0.0000
  0
VERTEX
  8
0
 10
1454.2604
 20
1061.1903
 30
0.0000
  0
VERTEX
  8
0
 10
1452.9010
 20
1061.4122
 30
0.0000
  0
VERTEX
  8
0
 10
1451.5112
 20
1061.4982
 30
0.0000
  0
VERTEX
  8
0
 10
1450.1180
 20
1061.4466
 30
0.0000
  0
VERTEX
  8
0
 10
1448.7485
 20
1061.2583
 30
0.0000
  0
VERTEX
  8
0
 10
1447.4294
 20
1060.9372
 30
0.0000
  0
VERTEX
  8
0
 10
1446.1863
 20
1060.4893
 30
0.0000
  0
VERTEX
  8
0
 10
1445.0435
 20
1059.9235
 30
0.0000
  0
VERTEX
  8
0
 10
1444.2656
 20
1059.4282
 30
0.0000
  0
SEQEND
  0
POLYLINE
  6
continous
  8
BYBLOCK
 70
0
 66
1
  0
VERTEX
  8
0
 10
1458.4077
 20
1049.4282
 30
0.0000
  0
VERTEX
  8
0
 10
1459.2168
 20
1050.0748
 30
0.0000
  0
VERTEX
  8
0
 10
1459.9083
 20
1050.7863
 30
0.0000
  0
VERTEX
  8
0
 10
1460.4721
 20
1051.5521
 30
0.0000
  0
VERTEX
  8
0
 10
1460.8997
 20
1052.3608
 30
0.0000
  0
VERTEX
  8
0
 10
1461.1847
 20
1053.2003
 30
0.0000
  0
VERTEX
  8
0
 10
1461.3230
 20
1054.0581
 30
0.0000
  0
VERTEX
  8
0
 10
1461.3367
 20
1054.4282
 30
0.0000
  0
SEQEND
  0
POLYLINE
  6
continous
  8
BYBLOCK
 70
0
 66
1
  0
VERTEX
  8
0
 10
1367.0905
 20
1001.9282
 30
0.0000
  0
VERTEX
  8
0
 10
1367.1650
 20
1001.0665
 30
0.0000
  0
VERTEX
  8
0
 10
1367.3875
 20
1000.2176
 30
0.0000
  0
VERTEX
  8
0
 10
1367.7547
 20
999.3942
 30
0.0000
  0
VERTEX
  8
0
 10
1368.2610
 20
998.6085
 30
0.0000
  0
VERTEX
  8
0
 10
1368.8989
 20
997.8724
 30
0.0000
  0
VERTEX
  8
0
 10
1369.6590
 20
997.1967
 30
0.0000
  0
VERTEX
  8
0
 10
1370.5299
 20
996.5916
 30
0.0000
  0
VERTEX
  8
0
 10
1371.6441
 20
995.9979
 30
0.0000
  0
VERTEX
  8
0
 10
1372.8643
 20
995.5196
 30
0.0000
  0
VERTEX
  8
0
 10
1374.1667
 20
995.1661
 30
0.0000
  0
VERTEX
  8
0
 10
1375.5261
 20
994.9442
 30
0.0000
  0
VERTEX
  8
0
 10
1376.9159
 20
994.8582
 30
0.0000
  0
VERTEX
  8
0
 10
1378.3091
 20
994.9098
 30
0.0000
  0
VERTEX
  8
0
 10
1379.6786
 20
995.0981
 30
0.0000
  0
VERTEX
  8
0
 10
1380.9978
 20
995.4193
 30
0.0000
  0
VERTEX
  8
0
 10
1382.2408
 20
995.8671
 30
0.0000
  0
VERTEX
  8
0
 10
1383.3837
 20
996.4330
 30
0.0000
  0
VERTEX
  8
0
 10
1384.1615
 20
996.9282
 30
0.0000
  0
SEQEND
  0
POLYLINE
  6
continous
  8
BYBLOCK
 70
0
 66
1
  0
VERTEX
  8
0
 10
1370.0194
 20
1006.9282
 30
0.0000
  0
VERTEX
  8
0
 10
1369.2103
 20
1006.2816
 30
0.0000
  0
VERTEX
  8
0
 10
1368.5188
 20
1005.5701
 30
0.0000
  0
VERTEX
  8
0
 10
1367.9550
 20
1004.8043
 30
0.0000
  0
VERTEX
  8
0
 10
1367.5274
 20
1003.9956
 30
0.0000
  0
VERTEX
  8
0
 10
1367.2424
 20
1003.1561
 30
0.0000
  0
VERTEX
  8
0
 10
1367.1042
 20
1002.2983
 30
0.0000
  0
VERTEX
  8
0
 10
1367.0905
 20
1001.9282
 30
0.0000
  0
SEQEND
  0
POLYLINE
  6
continous
  8
BYBLOCK
 70
0
 66
1
  0
VERTEX
  8
0
 10
1387.0905
 20
1001.9282
 30
0.0000
  0
VERTEX
  8
0
 10
1387.0159
 20
1002.7900
 30
0.0000
  0
VERTEX
  8
0
 10
1386.7934
 20
1003.6389
 30
0.0000
  0
VERTEX
  8
0
 10
1386.4263
 20
1004.4622
 30
0.0000
  0
VERTEX
  8
0
 10
1385.9199
 20
1005.2479
 30
0.0000
  0
VERTEX
  8
0
 10
1385.2820
 20
1005.9840
 30
0.0000
  0
VERTEX
  8
0
 10
1384.5219
 20
1006.6597
 30
0.0000
  0
VERTEX
  8
0
 10
1383.6510
 20
1007.2648
 30
0.0000
  0
VERTEX
  8
0
 10
1382.5368
 20
1007.8585
 30
0.0000
  0
VERTEX
  8
0
 10
1381.3166
 20
1008.3368
 30
0.0000
  0
VERTEX
  8
0
 10
1380.0142
 20
1008.6903
 30
0.0000
  0
VERTEX
  8
0
 10
1378.6548
 20
1008.9122
 30
0.0000
  0
VERTEX
  8
0
 10
1377.2650
 20
1008.9982
 30
0.0000
  0
VERTEX
  8
0
 10
1375.8718
 20
1008.9466
 30
0.0000
  0
VERTEX
  8
0
 10
1374.5023
 20
1008.7583
 30
0.0000
  0
VERTEX
  8
0
 10
1373.1831
 20
1008.4372
 30
0.0000
  0
VERTEX
  8
0
 10
1371.9401
 20
1007.9893
 30
0.0000
  0
VERTEX
  8
0
 10
1370.7973
 20
1007.4235
 30
0.0000
  0
VERTEX
  8
0
 10
1370.0194
 20
1006.9282
 30
0.0000
  0
SEQEND
  0
POLYLINE
  6
continous
  8
BYBLOCK
 70
0
 66
1
  0
VERTEX
  8
0
 10
1384.1615
 20
996.9282
 30
0.0000
  0
VERTEX
  8
0
 10
1384.9706
 20
997.5748
 30
0.0000
  0
VERTEX
  8
0
 10
1385.6621
 20
998.2863
 30
0.0000
  0
VERTEX
  8
0
 10
1386.2259
 20
999.0521
 30
0.0000
  0
VERTEX
  8
0
 10
1386.6535
 20
999.8608
 30
0.0000
  0
VERTEX
  8
0
 10
1386.9385
 20
1000.7003
 30
0.0000
  0
VERTEX
  8
0
 10
1387.0768
 20
1001.5581
 30
0.0000
  0
VERTEX
  8
0
 10
1387.0905
 20
1001.9282
 30
0.0000
  0
SEQEND
  0
POLYLINE
  6
continous
  8
BYBLOCK
 70
0
 66
1
  0
VERTEX
  8
0
 10
1292.8442
 20
949.4282
 30
0.0000
  0
VERTEX
  8
0
 10
1292.9188
 20
948.5665
 30
0.0000
  0
VERTEX
  8
0
 10
1293.1413
 20
947.7176
 30
0.0000
  0
VERTEX
  8
0
 10
1293.5084
 20
946.8942
 30
0.0000
  0
VERTEX
  8
0
 10
1294.0148
 20
946.1085
 30
0.0000
  0
VERTEX
  8
0
 10
1294.6527
 20
945.3724
 30
0.0000
  0
VERTEX
  8
0
 10
1295.4128
 20
944.6967
 30
0.0000
  0
VERTEX
  8
0
 10
1296.2837
 20
944.0916
 30
0.0000
  0
VERTEX
  8
0
 10
1297.3979
 20
943.4979
 30
0.0000
  0
VERTEX
  8
0
 10
1298.6181
 20
943.0196
 30
0.0000
  0
VERTEX
  8
0
 10
1299.9205
 20
942.6661
 30
0.0000
  0
VERTEX
  8
0
 10
1301.2799
 20
942.4442
 30
0.0000
  0
VERTEX
  8
0
 10
1302.6697
 20
942.3582
 30
0.0000
  0
VERTEX
  8
0
 10
1304.0629
 20
942.4098
 30
0.0000
  0
VERTEX
  8
0
 10
1305.4324
 20
942.5981
 30
0.0000
  0
VERTEX
  8
0
 10
1306.7516
 20
942.9193
 30
0.0000
  0
VERTEX
  8
0
 10
1307.9946
 20
943.3671
 30
0.0000
  0
VERTEX
  8
0
 10
1309.1374
 20
943.9330
 30
0.0000
  0
VERTEX
  8
0
 10
1309.9153
 20
944.4282
 30
0.0000
  0
SEQEND
  0
POLYLINE
  6
continous
  8
BYBLOCK
 70
0
 66
1
  0
VERTEX
  8
0
 10
1295.7732
 20
954.4282
 30
0.0000
  0
VERTEX
  8
0
 10
1294.9641
 20
953.7816
 30
0.0000
  0
VERTEX
  8
0
 10
1294.2726
 20
953.0701
 30
0.0000
  0
VERTEX
  8
0
 10
1293.7088
 20
952.3043
 30
0.0000
  0
VERTEX
  8
0
 10
1293.2812
 20
951.4956
 30
0.0000
  0
VERTEX
  8
0
 10
1292.9962
 20
950.6561
 30
0.0000
  0
VERTEX
  8
0
 10
1292.8579
 20
949.7983
 30
0.0000
  0
VERTEX
  8
0
 10
1292.8442
 20
949.4282
 30
0.0000
  0
SEQEND
  0
POLYLINE
  6
continous
  8
BYBLOCK
 70
0
 66
1
  0
VERTEX
  8
0
 10
1312.8442
 20
949.4282
 30
0.0000
  0
VERTEX
  8
0
 10
1312.7697
 20
950.2900
 30
0.0000
  0
VERTEX
  8
0
 10
1312.5472
 20
951.1389
 30
0.0000
  0
VERTEX
  8
0
 10
1312.1800
 20
951.9622
 30
0.0000
  0
VERTEX
  8
0
 10
1311.6737
 20
952.7479
 30
0.0000
  0
VERTEX
  8
0
 10
1311.0358
 20
953.4840
 30
0.0000
  0
VERTEX
  8
0
 10
1310.2757
 20
954.1597
 30
0.0000
  0
VERTEX
  8
0
 10
1309.4048
 20
954.7648
 30
0.0000
  0
VERTEX
  8
0
 10
1308.2906
 20
955.3585
 30
0.0000
  0
VERTEX
  8
0
 10
1307.0704
 20
955.8368
 30
0.0000
  0
VERTEX
  8
0
 10
1305.7680
 20
956.1903
 30
0.0000
  0
VERTEX
  8
0
 10
1304.4086
 20
956.4122
 30
0.0000
  0
VERTEX
  8
0
 10
1303.0188
 20
956.4982
 30
0.0000
  0
VERTEX
  8
0
 10
1301.6256
 20
956.4466
 30
0.0000
  0
VERTEX
  8
0
 10
1300.2561
 20
956.2583
 30
0.0000
  0
VERTEX
  8
0
 10
1298.9369
 20
955.9372
 30
0.0000
  0
VERTEX
  8
0
 10
1297.6939
 20
955.4893
 30
0.0000
  0
VERTEX
  8
0
 10
1296.5510
 20
954.9235
 30
0.0000
  0
VERTEX
  8
0
 10
1295.7732
 20
954.4282
 30
0.0000
  0
SEQEND
  0
POLYLINE
  6
continous
  8
BYBLOCK
 70
0
 66
1
  0
VERTEX
  8
0
 10
1309.9153
 20
944.4282
 30
0.0000
  0
VERTEX
  8
0
 10
1310.7244
 20
945.0748
 30
0.0000
  0
VERTEX
  8
0
 10
1311.4159
 20
945.7863
 30
0.0000
  0
VERTEX
  8
0
 10
1311.9797
 20
946.5521
 30
0.0000
  0
VERTEX
  8
0
 10
1312.4073
 20
947.3608
 30
0.0000
  0
VERTEX
  8
0
 10
1312.6923
 20
948.2003
 30
0.0000
  0
VERTEX
  8
0
 10
1312.8305
 20
949.0581
 30
0.0000
  0
VERTEX
  8
0
 10
1312.8442
 20
949.4282
 30
0.0000
  0
SEQEND
  0
POLYLINE
  6
continous
  8
BYBLOCK
 70
0
 66
1
  0
VERTEX
  8
0
 10
1218.5980
 20
896.9282
 30
0.0000
  0
VERTEX
  8
0
 10
1218.6726
 20
896.0665
 30
0.0000
  0
VERTEX
  8
0
 10
1218.8951
 20
895.2176
 30
0.0000
  0
VERTEX
  8
0
 10
1219.2622
 20
894.3942
 30
0.0000
  0
VERTEX
  8
0
 10
1219.7686
 20
893.6085
 30
0.0000
  0
VERTEX
  8
0
 10
1220.4065
 20
892.8724
 30
0.0000
  0
VERTEX
  8
0
 10
1221.1666
 20
892.1967
 30
0.0000
  0
VERTEX
  8
0
 10
1222.0374
 20
891.5916
 30
0.0000
  0
VERTEX
  8
0
 10
1223.1516
 20
890.9979
 30
0.0000
  0
VERTEX
  8
0
 10
1224.3718
 20
890.5196
 30
0.0000
  0
VERTEX
  8
0
 10
1225.6743
 20
890.1661
 30
0.0000
  0
VERTEX
  8
0
 10
1227.0337
 20
889.9442
 30
0.0000
  0
VERTEX
  8
0
 10
1228.4235
 20
889.8582
 30
0.0000
  0
VERTEX
  8
0
 10
1229.8167
 20
889.9098
 30
0.0000
  0
VERTEX
  8
0
 10
1231.1862
 20
890.0981
 30
0.0000
  0
VERTEX
  8
0
 10
1232.5053
 20
890.4193
 30
0.0000
  0
VERTEX
  8
0
 10
1233.7484
 20
890.8671
 30
0.0000
  0
VERTEX
  8
0
 10
1234.8912
 20
891.4330
 30
0.0000
  0
VERTEX
  8
0
 10
1235.6691
 20
891.9282
 30
0.0000
  0
SEQEND
  0
POLYLINE
  6
continous
  8
BYBLOCK
 70
0
 66
1
  0
VERTEX
  8
0
 10
1221.5270
 20
901.9282
 30
0.0000
  0
VERTEX
  8
0
 10
1220.7179
 20
901.2816
 30
0.0000
  0
VERTEX
  8
0
 10
1220.0264
 20
900.5701
 30
0.0000
  0
VERTEX
  8
0
 10
1219.4626
 20
899.8043
 30
0.0000
  0
VERTEX
  8
0
 10
1219.0350
 20
898.9956
 30
0.0000
  0
VERTEX
  8
0
 10
1218.7500
 20
898.1561
 30
0.0000
  0
VERTEX
  8
0
 10
1218.6117
 20
897.2983
 30
0.0000
  0
VERTEX
  8
0
 10
1218.5980
 20
896.9282
 30
0.0000
  0
SEQEND
  0
POLYLINE
  6
continous
  8
BYBLOCK
 70
0
 66
1
  0
VERTEX
  8
0
 10
1238.5980
 20
896.9282
 30
0.0000
  0
VERTEX
  8
0
 10
1238.5235
 20
897.7900
 30
0.0000
  0
VERTEX
  8
0
 10
1238.3010
 20
898.6389
 30
0.0000
  0
VERTEX
  8
0
 10
1237.9338
 20
899.4622
 30
0.0000
  0
VERTEX
  8
0
 10
1237.4275
 20
900.2479
 30
0.0000
  0
VERTEX
  8
0
 10
1236.7896
 20
900.9840
 30
0.0000
  0
VERTEX
  8
0
 10
1236.0295
 20
901.6597
 30
0.0000
  0
VERTEX
  8
0
 10
1235.1586
 20
902.2648
 30
0.0000
  0
VERTEX
  8
0
 10
1234.0444
 20
902.8585
 30
0.0000
  0
VERTEX
  8
0
 10
1232.8242
 20
903.3368
 30
0.0000
  0
VERTEX
  8
0
 10
1231.5217
 20
903.6903
 30
0.0000
  0
VERTEX
  8
0
 10
1230.1624
 20
903.9122
 30
0.0000
  0
VERTEX
  8
0
 10
1228.7726
 20
903.9982
 30
0.0000
  0
VERTEX
  8
0
 10
1227.3793
 20
903.9466
 30
0.0000
  0
VERTEX
  8
0
 10
1226.0098
 20
903.7583
 30
0.0000
  0
VERTEX
  8
0
 10
1224.6907
 20
903.4372
 30
0.0000
  0
VERTEX
  8
0
 10
1223.4477
 20
902.9893
 30
0.0000
  0
VERTEX
  8
0
 10
1222.3048
 20
902.4235
 30
0.0000
  0
VERTEX
  8
0
 10
1221.5270
 20
901.9282
 30
0.0000
  0
SEQEND
  0
POLYLINE
  6
continous
  8
BYBLOCK
 70
0
 66
1
  0
VERTEX
  8
0
 10
1235.6691
 20
891.9282
 30
0.0000
  0
VERTEX
  8
0
 10
1236.4781
 20
892.5748
 30
0.0000
  0
VERTEX
  8
0
 10
1237.1697
 20
893.2863
 30
0.0000
  0
VERTEX
  8
0
 10
1237.7335
 20
894.0521
 30
0.0000
  0
VERTEX
  8
0
 10
1238.1611
 20
894.8608
 30
0.0000
  0
VERTEX
  8
0
 10
1238.4461
 20
895.7003
 30
0.0000
  0
VERTEX
  8
0
 10
1238.5843
 20
896.5581
 30
0.0000
  0
VERTEX
  8
0
 10
1238.5980
 20
896.9282
 30
0.0000
  0
SEQEND
  0
POLYLINE
  6
continous
  8
BYBLOCK
 70
0
 66
1
  0
VERTEX
  8
0
 10
1144.3518
 20
844.4282
 30
0.0000
  0
VERTEX
  8
0
 10
1144.4264
 20
843.5665
 30
0.0000
  0
VERTEX
  8
0
 10
1144.6489
 20
842.7176
 30
0.0000
  0
VERTEX
  8
0
 10
1145.0160
 20
841.8942
 30
0.0000
  0
VERTEX
  8
0
 10
1145.5223
 20
841.1085
 30
0.0000
  0
VERTEX
  8
0
 10
1146.1603
 20
840.3724
 30
0.0000
  0
VERTEX
  8
0
 10
1146.9204
 20
839.6967
 30
0.0000
  0
VERTEX
  8
0
 10
1147.7912
 20
839.0916
 30
0.0000
  0
VERTEX
  8
0
 10
1148.9054
 20
838.4979
 30
0.0000
  0
VERTEX
  8
0
 10
1150.1256
 20
838.0196
 30
0.0000
  0
VERTEX
  8
0
 10
1151.4281
 20
837.6661
 30
0.0000
  0
VERTEX
  8
0
 10
1152.7875
 20
837.4442
 30
0.0000
  0
VERTEX
  8
0
 10
1154.1773
 20
837.3582
 30
0.0000
  0
VERTEX
  8
0
 10
1155.5705
 20
837.4098
 30
0.0000
  0
VERTEX
  8
0
 10
1156.9400
 20
837.5981
 30
0.0000
  0
VERTEX
  8
0
 10
1158.2591
 20
837.9193
 30
0.0000
  0
VERTEX
  8
0
 10
1159.5022
 20
838.3671
 30
0.0000
  0
VERTEX
  8
0
 10
1160.6450
 20
838.9330
 30
0.0000
  0
VERTEX
  8
0
 10
1161.4229
 20
839.4282
 30
0.0000
  0
SEQEND
  0
POLYLINE
  6
continous
  8
BYBLOCK
 70
0
 66
1
  0
VERTEX
  8
0
 10
1147.2808
 20
849.4282
 30
0.0000
  0
VERTEX
  8
0
 10
1146.4717
 20
848.7816
 30
0.0000
  0
VERTEX
  8
0
 10
1145.7801
 20
848.0701
 30
0.0000
  0
VERTEX
  8
0
 10
1145.2164
 20
847.3043
 30
0.0000
  0
VERTEX
  8
0
 10
1144.7888
 20
846.4956
 30
0.0000
  0
VERTEX
  8
0
 10
1144.5037
 20
845.6561
 30
0.0000
  0
VERTEX
  8
0
 10
1144.3655
 20
844.7983
 30
0.0000
  0
VERTEX
  8
0
 10
1144.3518
 20
844.4282
 30
0.0000
  0
SEQEND
  0
POLYLINE
  6
continous
  8
BYBLOCK
 70
0
 66
1
  0
VERTEX
  8
0
 10
1164.3518
 20
844.4282
 30
0.0000
  0
VERTEX
  8
0
 10
1164.2773
 20
845.2900
 30
0.0000
  0
VERTEX
  8
0
 10
1164.0548
 20
846.1389
 30
0.0000
  0
VERTEX
  8
0
 10
1163.6876
 20
846.9622
 30
0.0000
  0
VERTEX
  8
0
 10
1163.1813
 20
847.7479
 30
0.0000
  0
VERTEX
  8
0
 10
1162.5433
 20
848.4840
 30
0.0000
  0
VERTEX
  8
0
 10
1161.7833
 20
849.1597
 30
0.0000
  0
VERTEX
  8
0
 10
1160.9124
 20
849.7648
 30
0.0000
  0
VERTEX
  8
0
 10
1159.7982
 20
850.3585
 30
0.0000
  0
VERTEX
  8
0
 10
1158.5780
 20
850.8368
 30
0.0000
  0
VERTEX
  8
0
 10
1157.2755
 20
851.1903
 30
0.0000
  0
VERTEX
  8
0
 10
1155.9162
 20
851.4122
 30
0.0000
  0
VERTEX
  8
0
 10
1154.5263
 20
851.4982
 30
0.0000
  0
VERTEX
  8
0
 10
1153.1331
 20
851.4466
 30
0.0000
  0
VERTEX
  8
0
 10
1151.7636
 20
851.2583
 30
0.0000
  0
VERTEX
  8
0
 10
1150.4445
 20
850.9372
 30
0.0000
  0
VERTEX
  8
0
 10
1149.2014
 20
850.4893
 30
0.0000
  0
VERTEX
  8
0
 10
1148.0586
 20
849.9235
 30
0.0000
  0
VERTEX
  8
0
 10
1147.2808
 20
849.4282
 30
0.0000
  0
SEQEND
  0
POLYLINE
  6
continous
  8
BYBLOCK
 70
0
 66
1
  0
VERTEX
  8
0
 10
1161.4229
 20
839.4282
 30
0.0000
  0
VERTEX
  8
0
 10
1162.2319
 20
840.0748
 30
0.0000
  0
VERTEX
  8
0
 10
1162.9235
 20
840.7863
 30
0.0000
  0
VERTEX
  8
0
 10
1163.4873
 20
841.5521
 30
0.0000
  0
VERTEX
  8
0
 10
1163.9149
 20
842.3608
 30
0.0000
  0
VERTEX
  8
0
 10
1164.1999
 20
843.2003
 30
0.0000
  0
VERTEX
  8
0
 10
1164.3381
 20
844.0581
 30
0.0000
  0
VERTEX
  8
0
 10
1164.3518
 20
844.4282
 30
0.0000
  0
SEQEND
  0
POLYLINE
  6
continous
  8
BYBLOCK
 70
0
 66
1
  0
VERTEX
  8
0
 10
1070.1056
 20
791.9282
 30
0.0000
  0
VERTEX
  8
0
 10
1070.1801
 20
791.0665
 30
0.0000
  0
VERTEX
  8
0
 10
1070.4027
 20
790.2176
 30
0.0000
  0
VERTEX
  8
0
 10
1070.7698
 20
789.3942
 30
0.0000
  0
VERTEX
  8
0
 10
1071.2761
 20
788.6085
 30
0.0000
  0
VERTEX
  8
0
 10
1071.9141
 20
787.8724
 30
0.0000
  0
VERTEX
  8
0
 10
1072.6742
 20
787.1967
 30
0.0000
  0
VERTEX
  8
0
 10
1073.5450
 20
786.5916
 30
0.0000
  0
VERTEX
  8
0
 10
1074.6592
 20
785.9979
 30
0.0000
  0
VERTEX
  8
0
 10
1075.8794
 20
785.5196
 30
0.0000
  0
VERTEX
  8
0
 10
1077.1819
 20
785.1661
 30
0.0000
  0
VERTEX
  8
0
 10
1078.5413
 20
784.9442
 30
0.0000
  0
VERTEX
  8
0
 10
1079.9311
 20
784.8582
 30
0.0000
  0
VERTEX
  8
0
 10
1081.3243
 20
784.9098
 30
0.0000
  0
VERTEX
  8
0
 10
1082.6938
 20
785.0981
 30
0.0000
  0
VERTEX
  8
0
 10
1084.0129
 20
785.4193
 30
0.0000
  0
VERTEX
  8
0
 10
1085.2560
 20
785.8671
 30
0.0000
  0
VERTEX
  8
0
 10
1086.3988
 20
786.4330
 30
0.0000
  0
VERTEX
  8
0
 10
1087.1767
 20
786.9282
 30
0.0000
  0
SEQEND
  0
POLYLINE
  6
continous
  8
BYBLOCK
 70
0
 66
1
  0
VERTEX
  8
0
 10
1073.0345
 20
796.9282
 30
0.0000
  0
VERTEX
  8
0
 10
1072.2255
 20
796.2816
 30
0.0000
  0
VERTEX
  8
0
 10
1071.5339
 20
795.5701
 30
0.0000
  0
VERTEX
  8
0
 10
1070.9702
 20
794.8043
 30
0.0000
  0
VERTEX
  8
0
 10
1070.5426
 20
793.9956
 30
0.0000
  0
VERTEX
  8
0
 10
1070.2575
 20
793.1561
 30
0.0000
  0
VERTEX
  8
0
 10
1070.1193
 20
792.2983
 30
0.0000
  0
VERTEX
  8
0
 10
1070.1056
 20
791.9282
 30
0.0000
  0
SEQEND
  0
POLYLINE
  6
continous
  8
BYBLOCK
 70
0
 66
1
  0
VERTEX
  8
0
 10
1090.1056
 20
791.9282
 30
0.0000
  0
VERTEX
  8
0
 10
1090.0311
 20
792.7900
 30
0.0000
  0
VERTEX
  8
0
 10
1089.8086
 20
793.6389
 30
0.0000
  0
VERTEX
  8
0
 10
1089.4414
 20
794.4622
 30
0.0000
  0
VERTEX
  8
0
 10
1088.9351
 20
795.2479
 30
0.0000
  0
VERTEX
  8
0
 10
1088.2971
 20
795.9840
 30
0.0000
  0
VERTEX
  8
0
 10
1087.5371
 20
796.6597
 30
0.0000
  0
VERTEX
  8
0
 10
1086.6662
 20
797.2648
 30
0.0000
  0
VERTEX
  8
0
 10
1085.5520
 20
797.8585
 30
0.0000
  0
VERTEX
  8
0
 10
1084.3318
 20
798.3368
 30
0.0000
  0
VERTEX
  8
0
 10
1083.0293
 20
798.6903
 30
0.0000
  0
VERTEX
  8
0
 10
1081.6700
 20
798.9122
 30
0.0000
  0
VERTEX
  8
0
 10
1080.2801
 20
798.9982
 30
0.0000
  0
VERTEX
  8
0
 10
1078.8869
 20
798.9466
 30
0.0000
  0
VERTEX
  8
0
 10
1077.5174
 20
798.7583
 30
0.0000
  0
VERTEX
  8
0
 10
1076.1983
 20
798.4372
 30
0.0000
  0
VERTEX
  8
0
 10
1074.9552
 20
797.9893
 30
0.0000
  0
VERTEX
  8
0
 10
1073.8124
 20
797.4235
 30
0.0000
  0
VERTEX
  8
0
 10
1073.0345
 20
796.9282
 30
0.0000
  0
SEQEND
  0
POLYLINE
  6
continous
  8
BYBLOCK
 70
0
 66
1
  0
VERTEX
  8
0
 10
1087.1767
 20
786.9282
 30
0.0000
  0
VERTEX
  8
0
 10
1087.9857
 20
787.5748
 30
0.0000
  0
VERTEX
  8
0
 10
1088.6773
 20
788.2863
 30
0.0000
  0
VERTEX
  8
0
 10
1089.2411
 20
789.0521
 30
0.0000
  0
VERTEX
  8
0
 10
1089.6687
 20
789.8608
 30
0.0000
  0
VERTEX
  8
0
 10
1089.9537
 20
790.7003
 30
0.0000
  0
VERTEX
  8
0
 10
1090.0919
 20
791.5581
 30
0.0000
  0
VERTEX
  8
0
 10
1090.1056
 20
791.9282
 30
0.0000
  0
SEQEND
  0
POLYLINE
  6
continous
  8
BYBLOCK
 70
0
 66
1
  0
VERTEX
  8
0
 10
995.8594
 20
739.4282
 30
0.0000
  0
VERTEX
  8
0
 10
995.9339
 20
738.5665
 30
0.0000
  0
VERTEX
  8
0
 10
996.1564
 20
737.7176
 30
0.0000
  0
VERTEX
  8
0
 10
996.5236
 20
736.8942
 30
0.0000
  0
VERTEX
  8
0
 10
997.0299
 20
736.1085
 30
0.0000
  0
VERTEX
  8
0
 10
997.6679
 20
735.3724
 30
0.0000
  0
VERTEX
  8
0
 10
998.4279
 20
734.6967
 30
0.0000
  0
VERTEX
  8
0
 10
999.2988
 20
734.0916
 30
0.0000
  0
VERTEX
  8
0
 10
1000.4130
 20
733.4979
 30
0.0000
  0
VERTEX
  8
0
 10
1001.6332
 20
733.0196
 30
0.0000
  0
VERTEX
  8
0
 10
1002.9357
 20
732.6661
 30
0.0000
  0
VERTEX
  8
0
 10
1004.2951
 20
732.4442
 30
0.0000
  0
VERTEX
  8
0
 10
1005.6849
 20
732.3582
 30
0.0000
  0
VERTEX
  8
0
 10
1007.0781
 20
732.4098
 30
0.0000
  0
VERTEX
  8
0
 10
1008.4476
 20
732.5981
 30
0.0000
  0
VERTEX
  8
0
 10
1009.7667
 20
732.9193
 30
0.0000
  0
VERTEX
  8
0
 10
1011.0098
 20
733.3671
 30
0.0000
  0
VERTEX
  8
0
 10
1012.1526
 20
733.9330
 30
0.0000
  0
VERTEX
  8
0
 10
1012.9305
 20
734.4282
 30
0.0000
  0
SEQEND
  0
POLYLINE
  6
continous
  8
BYBLOCK
 70
0
 66
1
  0
VERTEX
  8
0
 10
998.7883
 20
744.4282
 30
0.0000
  0
VERTEX
  8
0
 10
997.9793
 20
743.7816
 30
0.0000
  0
VERTEX
  8
0
 10
997.2877
 20
743.0701
 30
0.0000
  0
VERTEX
  8
0
 10
996.7239
 20
742.3043
 30
0.0000
  0
VERTEX
  8
0
 10
996.2963
 20
741.4956
 30
0.0000
  0
VERTEX
  8
0
 10
996.0113
 20
740.6561
 30
0.0000
  0
VERTEX
  8
0
 10
995.8731
 20
739.7983
 30
0.0000
  0
VERTEX
  8
0
 10
995.8594
 20
739.4282
 30
0.0000
  0
SEQEND
  0
POLYLINE
  6
continous
  8
BYBLOCK
 70
0
 66
1
  0
VERTEX
  8
0
 10
1015.8594
 20
739.4282
 30
0.0000
  0
VERTEX
  8
0
 10
1015.7849
 20
740.2900
 30
0.0000
  0
VERTEX
  8
0
 10
1015.5624
 20
741.1389
 30
0.0000
  0
VERTEX
  8
0
 10
1015.1952
 20
741.9622
 30
0.0000
  0
VERTEX
  8
0
 10
1014.6889
 20
742.7479
 30
0.0000
  0
VERTEX
  8
0
 10
1014.0509
 20
743.4840
 30
0.0000
  0
VERTEX
  8
0
 10
1013.2908
 20
744.1597
 30
0.0000
  0
VERTEX
  8
0
 10
1012.4200
 20
744.7648
 30
0.0000
  0
VERTEX
  8
0
 10
1011.3058
 20
745.3585
 30
0.0000
  0
VERTEX
  8
0
 10
1010.0856
 20
745.8368
 30
0.0000
  0
VERTEX
  8
0
 10
1008.7831
 20
746.1903
 30
0.0000
  0
VERTEX
  8
0
 10
1007.4237
 20
746.4122
 30
0.0000
  0
VERTEX
  8
0
 10
1006.0339
 20
746.4982
 30
0.0000
  0
VERTEX
  8
0
 10
1004.6407
 20
746.4466
 30
0.0000
  0
VERTEX
  8
0
 10
1003.2712
 20
746.2583
 30
0.0000
  0
VERTEX
  8
0
 10
1001.9521
 20
745.9372
 30
0.0000
  0
VERTEX
  8
0
 10
1000.7090
 20
745.4893
 30
0.0000
  0
VERTEX
  8
0
 10
999.5662
 20
744.9235
 30
0.0000
  0
VERTEX
  8
0
 10
998.7883
 20
744.4282
 30
0.0000
  0
SEQEND
  0
POLYLINE
  6
continous
  8
BYBLOCK
 70
0
 66
1
  0
VERTEX
  8
0
 10
1012.9305
 20
734.4282
 30
0.0000
  0
VERTEX
  8
0
 10
1013.7395
 20
735.0748
 30
0.0000
  0
VERTEX
  8
0
 10
1014.4311
 20
735.7863
 30
0.0000
  0
VERTEX
  8
0
 10
1014.9949
 20
736.5521
 30
0.0000
  0
VERTEX
  8
0
 10
1015.4224
 20
737.3608
 30
0.0000
  0
VERTEX
  8
0
 10
1015.7075
 20
738.2003
 30
0.0000
  0
VERTEX
  8
0
 10
1015.8457
 20
739.0581
 30
0.0000
  0
VERTEX
  8
0
 10
1015.8594
 20
739.4282
 30
0.0000
  0
SEQEND
  0
POLYLINE
  6
continous
  8
BYBLOCK
 70
0
 66
1
  0
VERTEX
  8
0
 10
921.6132
 20
686.9282
 30
0.0000
  0
VERTEX
  8
0
 10
921.6877
 20
686.0665
 30
0.0000
  0
VERTEX
  8
0
 10
921.9102
 20
685.2176
 30
0.0000
  0
VERTEX
  8
0
 10
922.2774
 20
684.3942
 30
0.0000
  0
VERTEX
  8
0
 10
922.7837
 20
683.6085
 30
0.0000
  0
VERTEX
  8
0
 10
923.4217
 20
682.8724
 30
0.0000
  0
VERTEX
  8
0
 10
924.1817
 20
682.1967
 30
0.0000
  0
VERTEX
  8
0
 10
925.0526
 20
681.5916
 30
0.0000
  0
VERTEX
  8
0
 10
926.1668
 20
680.9979
 30
0.0000
  0
VERTEX
  8
0
 10
927.3870
 20
680.5196
 30
0.0000
  0
VERTEX
  8
0
 10
928.6895
 20
680.1661
 30
0.0000
  0
VERTEX
  8
0
 10
930.0488
 20
679.9442
 30
0.0000
  0
VERTEX
  8
0
 10
931.4387
 20
679.8582
 30
0.0000
  0
VERTEX
  8
0
 10
932.8319
 20
679.9098
 30
0.0000
  0
VERTEX
  8
0
 10
934.2014
 20
680.0981
 30
0.0000
  0
VERTEX
  8
0
 10
935.5205
 20
680.4193
 30
0.0000
  0
VERTEX
  8
0
 10
936.7636
 20
680.8671
 30
0.0000
  0
VERTEX
  8
0
 10
937.9064
 20
681.4330
 30
0.0000
  0
VERTEX
  8
0
 10
938.6843
 20
681.9282
 30
0.0000
  0
SEQEND
  0
POLYLINE
  6
continous
  8
BYBLOCK
 70
0
 66
1
  0
VERTEX
  8
0
 10
924.5421
 20
691.9282
 30
0.0000
  0
VERTEX
  8
0
 10
923.7331
 20
691.2816
 30
0.0000
  0
VERTEX
  8
0
 10
923.0415
 20
690.5701
 30
0.0000
  0
VERTEX
  8
0
 10
922.4777
 20
689.8043
 30
0.0000
  0
VERTEX
  8
0
 10
922.0501
 20
688.9956
 30
0.0000
  0
VERTEX
  8
0
 10
921.7651
 20
688.1561
 30
0.0000
  0
VERTEX
  8
0
 10
921.6269
 20
687.2983
 30
0.0000
  0
VERTEX
  8
0
 10
921.6132
 20
686.9282
 30
0.0000
  0
SEQEND
  0
POLYLINE
  6
continous
  8
BYBLOCK
 70
0
 66
1
  0
VERTEX
  8
0
 10
941.6132
 20
686.9282
 30
0.0000
  0
VERTEX
  8
0
 10
941.5386
 20
687.7900
 30
0.0000
  0
VERTEX
  8
0
 10
941.3161
 20
688.6389
 30
0.0000
  0
VERTEX
  8
0
 10
940.9490
 20
689.4622
 30
0.0000
  0
VERTEX
  8
0
 10
940.4427
 20
690.2479
 30
0.0000
  0
VERTEX
  8
0
 10
939.8047
 20
690.9840
 30
0.0000
  0
VERTEX
  8
0
 10
939.0446
 20
691.6597
 30
0.0000
  0
VERTEX
  8
0
 10
938.1738
 20
692.2648
 30
0.0000
  0
VERTEX
  8
0
 10
937.0596
 20
692.8585
 30
0.0000
  0
VERTEX
  8
0
 10
935.8394
 20
693.3368
 30
0.0000
  0
VERTEX
  8
0
 10
934.5369
 20
693.6903
 30
0.0000
  0
VERTEX
  8
0
 10
933.1775
 20
693.9122
 30
0.0000
  0
VERTEX
  8
0
 10
931.7877
 20
693.9982
 30
0.0000
  0
VERTEX
  8
0
 10
930.3945
 20
693.9466
 30
0.0000
  0
VERTEX
  8
0
 10
929.0250
 20
693.7583
 30
0.0000
  0
VERTEX
  8
0
 10
927.7059
 20
693.4372
 30
0.0000
  0
VERTEX
  8
0
 10
926.4628
 20
692.9893
 30
0.0000
  0
VERTEX
  8
0
 10
925.3200
 20
692.4235
 30
0.0000
  0
VERTEX
  8
0
 10
924.5421
 20
691.9282
 30
0.0000
  0
SEQEND
  0
POLYLINE
  6
continous
  8
BYBLOCK
 70
0
 66
1
  0
VERTEX
  8
0
 10
938.6843
 20
681.9282
 30
0.0000
  0
VERTEX
  8
0
 10
939.4933
 20
682.5748
 30
0.0000
  0
VERTEX
  8
0
 10
940.1849
 20
683.2863
 30
0.0000
  0
VERTEX
  8
0
 10
940.7486
 20
684.0521
 30
0.0000
  0
VERTEX
  8
0
 10
941.1762
 20
684.8608
 30
0.0000
  0
VERTEX
  8
0
 10
941.4613
 20
685.7003
 30
0.0000
  0
VERTEX
  8
0
 10
941.5995
 20
686.5581
 30
0.0000
  0
VERTEX
  8
0
 10
941.6132
 20
686.9282
 30
0.0000
  0
SEQEND
  0
POLYLINE
  6
continous
  8
BYBLOCK
 70
0
 66
1
  0
VERTEX
  8
0
 10
847.3670
 20
634.4282
 30
0.0000
  0
VERTEX
  8
0
 10
847.4415
 20
633.5665
 30
0.0000
  0
VERTEX
  8
0
 10
847.6640
 20
632.7176
 30
0.0000
  0
VERTEX
  8
0
 10
848.0312
 20
631.8942
 30
0.0000
  0
VERTEX
  8
0
 10
848.5375
 20
631.1085
 30
0.0000
  0
VERTEX
  8
0
 10
849.1755
 20
630.3724
 30
0.0000
  0
VERTEX
  8
0
 10
849.9355
 20
629.6967
 30
0.0000
  0
VERTEX
  8
0
 10
850.8064
 20
629.0916
 30
0.0000
  0
VERTEX
  8
0
 10
851.9206
 20
628.4979
 30
0.0000
  0
VERTEX
  8
0
 10
853.1408
 20
628.0196
 30
0.0000
  0
VERTEX
  8
0
 10
854.4433
 20
627.6661
 30
0.0000
  0
VERTEX
  8
0
 10
855.8026
 20
627.4442
 30
0.0000
  0
VERTEX
  8
0
 10
857.1924
 20
627.3582
 30
0.0000
  0
VERTEX
  8
0
 10
858.5857
 20
627.4098
 30
0.0000
  0
VERTEX
  8
0
 10
859.9552
 20
627.5981
 30
0.0000
  0
VERTEX
  8
0
 10
861.2743
 20
627.9193
 30
0.0000
  0
VERTEX
  8
0
 10
862.5174
 20
628.3671
 30
0.0000
  0
VERTEX
  8
0
 10
863.6602
 20
628.9330
 30
0.0000
  0
VERTEX
  8
0
 10
864.4380
 20
629.4282
 30
0.0000
  0
SEQEND
  0
POLYLINE
  6
continous
  8
BYBLOCK
 70
0
 66
1
  0
VERTEX
  8
0
 10
850.2959
 20
639.4282
 30
0.0000
  0
VERTEX
  8
0
 10
849.4869
 20
638.7816
 30
0.0000
  0
VERTEX
  8
0
 10
848.7953
 20
638.0701
 30
0.0000
  0
VERTEX
  8
0
 10
848.2315
 20
637.3043
 30
0.0000
  0
VERTEX
  8
0
 10
847.8039
 20
636.4956
 30
0.0000
  0
VERTEX
  8
0
 10
847.5189
 20
635.6561
 30
0.0000
  0
VERTEX
  8
0
 10
847.3807
 20
634.7983
 30
0.0000
  0
VERTEX
  8
0
 10
847.3670
 20
634.4282
 30
0.0000
  0
SEQEND
  0
POLYLINE
  6
continous
  8
BYBLOCK
 70
0
 66
1
  0
VERTEX
  8
0
 10
867.3670
 20
634.4282
 30
0.0000
  0
VERTEX
  8
0
 10
867.2924
 20
635.2900
 30
0.0000
  0
VERTEX
  8
0
 10
867.0699
 20
636.1389
 30
0.0000
  0
VERTEX
  8
0
 10
866.7028
 20
636.9622
 30
0.0000
  0
VERTEX
  8
0
 10
866.1964
 20
637.7479
 30
0.0000
  0
VERTEX
  8
0
 10
865.5585
 20
638.4840
 30
0.0000
  0
VERTEX
  8
0
 10
864.7984
 20
639.1597
 30
0.0000
  0
VERTEX
  8
0
 10
863.9276
 20
639.7648
 30
0.0000
  0
VERTEX
  8
0
 10
862.8134
 20
640.3585
 30
0.0000
  0
VERTEX
  8
0
 10
861.5932
 20
640.8368
 30
0.0000
  0
VERTEX
  8
0
 10
860.2907
 20
641.1903
 30
0.0000
  0
VERTEX
  8
0
 10
858.9313
 20
641.4122
 30
0.0000
  0
VERTEX
  8
0
 10
857.5415
 20
641.4982
 30
0.0000
  0
VERTEX
  8
0
 10
856.1483
 20
641.4466
 30
0.0000
  0
VERTEX
  8
0
 10
854.7788
 20
641.2583
 30
0.0000
  0
VERTEX
  8
0
 10
853.4597
 20
640.9372
 30
0.0000
  0
VERTEX
  8
0
 10
852.2166
 20
640.4893
 30
0.0000
  0
VERTEX
  8
0
 10
851.0738
 20
639.9235
 30
0.0000
  0
VERTEX
  8
0
 10
850.2959
 20
639.4282
 30
0.0000
  0
SEQEND
  0
POLYLINE
  6
continous
  8
BYBLOCK
 70
0
 66
1
  0
VERTEX
  8
0
 10
864.4380
 20
629.4282
 30
0.0000
  0
VERTEX
  8
0
 10
865.2471
 20
630.0748
 30
0.0000
  0
VERTEX
  8
0
 10
865.9386
 20
630.7863
 30
0.0000
  0
VERTEX
  8
0
 10
866.5024
 20
631.5521
 30
0.0000
  0
VERTEX
  8
0
 10
866.9300
 20
632.3608
 30
0.0000
  0
VERTEX
  8
0
 10
867.2150
 20
633.2003
 30
0.0000
  0
VERTEX
  8
0
 10
867.3533
 20
634.0581
 30
0.0000
  0
VERTEX
  8
0
 10
867.3670
 20
634.4282
 30
0.0000
  0
SEQEND
  0
POLYLINE
  6
continous
  8
BYBLOCK
 70
0
 66
1
  0
VERTEX
  8
0
 10
773.1208
 20
581.9282
 30
0.0000
  0
VERTEX
  8
0
 10
773.1953
 20
581.0665
 30
0.0000
  0
VERTEX
  8
0
 10
773.4178
 20
580.2176
 30
0.0000
  0
VERTEX
  8
0
 10
773.7850
 20
579.3942
 30
0.0000
  0
VERTEX
  8
0
 10
774.2913
 20
578.6085
 30
0.0000
  0
VERTEX
  8
0
 10
774.9292
 20
577.8724
 30
0.0000
  0
VERTEX
  8
0
 10
775.6893
 20
577.1967
 30
0.0000
  0
VERTEX
  8
0
 10
776.5602
 20
576.5916
 30
0.0000
  0
VERTEX
  8
0
 10
777.6744
 20
575.9979
 30
0.0000
  0
VERTEX
  8
0
 10
778.8946
 20
575.5196
 30
0.0000
  0
VERTEX
  8
0
 10
780.1970
 20
575.1661
 30
0.0000
  0
VERTEX
  8
0
 10
781.5564
 20
574.9442
 30
0.0000
  0
VERTEX
  8
0
 10
782.9462
 20
574.8582
 30
0.0000
  0
VERTEX
  8
0
 10
784.3395
 20
574.9098
 30
0.0000
  0
VERTEX
  8
0
 10
785.7090
 20
575.0981
 30
0.0000
  0
VERTEX
  8
0
 10
787.0281
 20
575.4193
 30
0.0000
  0
VERTEX
  8
0
 10
788.2711
 20
575.8671
 30
0.0000
  0
VERTEX
  8
0
 10
789.4140
 20
576.4330
 30
0.0000
  0
VERTEX
  8
0
 10
790.1918
 20
576.9282
 30
0.0000
  0
SEQEND
  0
POLYLINE
  6
continous
  8
BYBLOCK
 70
0
 66
1
  0
VERTEX
  8
0
 10
776.0497
 20
586.9282
 30
0.0000
  0
VERTEX
  8
0
 10
775.2407
 20
586.2816
 30
0.0000
  0
VERTEX
  8
0
 10
774.5491
 20
585.5701
 30
0.0000
  0
VERTEX
  8
0
 10
773.9853
 20
584.8043
 30
0.0000
  0
VERTEX
  8
0
 10
773.5577
 20
583.9956
 30
0.0000
  0
VERTEX
  8
0
 10
773.2727
 20
583.1561
 30
0.0000
  0
VERTEX
  8
0
 10
773.1345
 20
582.2983
 30
0.0000
  0
VERTEX
  8
0
 10
773.1208
 20
581.9282
 30
0.0000
  0
SEQEND
  0
POLYLINE
  6
continous
  8
BYBLOCK
 70
0
 66
1
  0
VERTEX
  8
0
 10
793.1208
 20
581.9282
 30
0.0000
  0
VERTEX
  8
0
 10
793.0462
 20
582.7900
 30
0.0000
  0
VERTEX
  8
0
 10
792.8237
 20
583.6389
 30
0.0000
  0
VERTEX
  8
0
 10
792.4566
 20
584.4622
 30
0.0000
  0
VERTEX
  8
0
 10
791.9502
 20
585.2479
 30
0.0000
  0
VERTEX
  8
0
 10
791.3123
 20
585.9840
 30
0.0000
  0
VERTEX
  8
0
 10
790.5522
 20
586.6597
 30
0.0000
  0
VERTEX
  8
0
 10
789.6814
 20
587.2648
 30
0.0000
  0
VERTEX
  8
0
 10
788.5672
 20
587.8585
 30
0.0000
  0
VERTEX
  8
0
 10
787.3469
 20
588.3368
 30
0.0000
  0
VERTEX
  8
0
 10
786.0445
 20
588.6903
 30
0.0000
  0
VERTEX
  8
0
 10
784.6851
 20
588.9122
 30
0.0000
  0
VERTEX
  8
0
 10
783.2953
 20
588.9982
 30
0.0000
  0
VERTEX
  8
0
 10
781.9021
 20
588.9466
 30
0.0000
  0
VERTEX
  8
0
 10
780.5326
 20
588.7583
 30
0.0000
  0
VERTEX
  8
0
 10
779.2134
 20
588.4372
 30
0.0000
  0
VERTEX
  8
0
 10
777.9704
 20
587.9893
 30
0.0000
  0
VERTEX
  8
0
 10
776.8276
 20
587.4235
 30
0.0000
  0
VERTEX
  8
0
 10
776.0497
 20
586.9282
 30
0.0000
  0
SEQEND
  0
POLYLINE
  6
continous
  8
BYBLOCK
 70
0
 66
1
  0
VERTEX
  8
0
 10
790.1918
 20
576.9282
 30
0.0000
  0
VERTEX
  8
0
 10
791.0009
 20
577.5748
 30
0.0000
  0
VERTEX
  8
0
 10
791.6924
 20
578.2863
 30
0.0000
  0
VERTEX
  8
0
 10
792.2562
 20
579.0521
 30
0.0000
  0
VERTEX
  8
0
 10
792.6838
 20
579.8608
 30
0.0000
  0
VERTEX
  8
0
 10
792.9688
 20
580.7003
 30
0.0000
  0
VERTEX
  8
0
 10
793.1071
 20
581.5581
 30
0.0000
  0
VERTEX
  8
0
 10
793.1208
 20
581.9282
 30
0.0000
  0
SEQEND
  0
POLYLINE
  6
continous
  8
BYBLOCK
 70
0
 66
1
  0
VERTEX
  8
0
 10
698.8745
 20
529.4282
 30
0.0000
  0
VERTEX
  8
0
 10
698.9491
 20
528.5665
 30
0.0000
  0
VERTEX
  8
0
 10
699.1716
 20
527.7176
 30
0.0000
  0
VERTEX
  8
0
 10
699.5387
 20
526.8942
 30
0.0000
  0
VERTEX
  8
0
 10
700.0451
 20
526.1085
 30
0.0000
  0
VERTEX
  8
0
 10
700.6830
 20
525.3724
 30
0.0000
  0
VERTEX
  8
0
 10
701.4431
 20
524.6967
 30
0.0000
  0
VERTEX
  8
0
 10
702.3140
 20
524.0916
 30
0.0000
  0
VERTEX
  8
0
 10
703.4282
 20
523.4979
 30
0.0000
  0
VERTEX
  8
0
 10
704.6484
 20
523.0196
 30
0.0000
  0
VERTEX
  8
0
 10
705.9508
 20
522.6661
 30
0.0000
  0
VERTEX
  8
0
 10
707.3102
 20
522.4442
 30
0.0000
  0
VERTEX
  8
0
 10
708.7000
 20
522.3582
 30
0.0000
  0
VERTEX
  8
0
 10
710.0932
 20
522.4098
 30
0.0000
  0
VERTEX
  8
0
 10
711.4627
 20
522.5981
 30
0.0000
  0
VERTEX
  8
0
 10
712.7819
 20
522.9193
 30
0.0000
  0
VERTEX
  8
0
 10
714.0249
 20
523.3671
 30
0.0000
  0
VERTEX
  8
0
 10
715.1678
 20
523.9330
 30
0.0000
  0
VERTEX
  8
0
 10
715.9456
 20
524.4282
 30
0.0000
  0
SEQEND
  0
POLYLINE
  6
continous
  8
BYBLOCK
 70
0
 66
1
  0
VERTEX
  8
0
 10
701.8035
 20
534.4282
 30
0.0000
  0
VERTEX
  8
0
 10
700.9944
 20
533.7816
 30
0.0000
  0
VERTEX
  8
0
 10
700.3029
 20
533.0701
 30
0.0000
  0
VERTEX
  8
0
 10
699.7391
 20
532.3043
 30
0.0000
  0
VERTEX
  8
0
 10
699.3115
 20
531.4956
 30
0.0000
  0
VERTEX
  8
0
 10
699.0265
 20
530.6561
 30
0.0000
  0
VERTEX
  8
0
 10
698.8883
 20
529.7983
 30
0.0000
  0
VERTEX
  8
0
 10
698.8745
 20
529.4282
 30
0.0000
  0
SEQEND
  0
POLYLINE
  6
continous
  8
BYBLOCK
 70
0
 66
1
  0
VERTEX
  8
0
 10
718.8745
 20
529.4282
 30
0.0000
  0
VERTEX
  8
0
 10
718.8000
 20
530.2900
 30
0.0000
  0
VERTEX
  8
0
 10
718.5775
 20
531.1389
 30
0.0000
  0
VERTEX
  8
0
 10
718.2104
 20
531.9622
 30
0.0000
  0
VERTEX
  8
0
 10
717.7040
 20
532.7479
 30
0.0000
  0
VERTEX
  8
0
 10
717.0661
 20
533.4840
 30
0.0000
  0
VERTEX
  8
0
 10
716.3060
 20
534.1597
 30
0.0000
  0
VERTEX
  8
0
 10
715.4351
 20
534.7648
 30
0.0000
  0
VERTEX
  8
0
 10
714.3209
 20
535.3585
 30
0.0000
  0
VERTEX
  8
0
 10
713.1007
 20
535.8368
 30
0.0000
  0
VERTEX
  8
0
 10
711.7983
 20
536.1903
 30
0.0000
  0
VERTEX
  8
0
 10
710.4389
 20
536.4122
 30
0.0000
  0
VERTEX
  8
0
 10
709.0491
 20
536.4982
 30
0.0000
  0
VERTEX
  8
0
 10
707.6559
 20
536.4466
 30
0.0000
  0
VERTEX
  8
0
 10
706.2864
 20
536.2583
 30
0.0000
  0
VERTEX
  8
0
 10
704.9672
 20
535.9372
 30
0.0000
  0
VERTEX
  8
0
 10
703.7242
 20
535.4893
 30
0.0000
  0
VERTEX
  8
0
 10
702.5813
 20
534.9235
 30
0.0000
  0
VERTEX
  8
0
 10
701.8035
 20
534.4282
 30
0.0000
  0
SEQEND
  0
POLYLINE
  6
continous
  8
BYBLOCK
 70
0
 66
1
  0
VERTEX
  8
0
 10
715.9456
 20
524.4282
 30
0.0000
  0
VERTEX
  8
0
 10
716.7547
 20
525.0748
 30
0.0000
  0
VERTEX
  8
0
 10
717.4462
 20
525.7863
 30
0.0000
  0
VERTEX
  8
0
 10
718.0100
 20
526.5521
 30
0.0000
  0
VERTEX
  8
0
 10
718.4376
 20
527.3608
 30
0.0000
  0
VERTEX
  8
0
 10
718.7226
 20
528.2003
 30
0.0000
  0
VERTEX
  8
0
 10
718.8608
 20
529.0581
 30
0.0000
  0
VERTEX
  8
0
 10
718.8745
 20
529.4282
 30
0.0000
  0
SEQEND
  0
POLYLINE
  6
continous
  8
BYBLOCK
 70
0
 66
1
  0
VERTEX
  8
0
 10
624.6283
 20
476.9282
 30
0.0000
  0
VERTEX
  8
0
 10
624.7029
 20
476.0665
 30
0.0000
  0
VERTEX
  8
0
 10
624.9254
 20
475.2176
 30
0.0000
  0
VERTEX
  8
0
 10
625.2925
 20
474.3942
 30
0.0000
  0
VERTEX
  8
0
 10
625.7989
 20
473.6085
 30
0.0000
  0
VERTEX
  8
0
 10
626.4368
 20
472.8724
 30
0.0000
  0
VERTEX
  8
0
 10
627.1969
 20
472.1967
 30
0.0000
  0
VERTEX
  8
0
 10
628.0677
 20
471.5916
 30
0.0000
  0
VERTEX
  8
0
 10
629.1819
 20
470.9979
 30
0.0000
  0
VERTEX
  8
0
 10
630.4022
 20
470.5196
 30
0.0000
  0
VERTEX
  8
0
 10
631.7046
 20
470.1661
 30
0.0000
  0
VERTEX
  8
0
 10
633.0640
 20
469.9442
 30
0.0000
  0
VERTEX
  8
0
 10
634.4538
 20
469.8582
 30
0.0000
  0
VERTEX
  8
0
 10
635.8470
 20
469.9098
 30
0.0000
  0
VERTEX
  8
0
 10
637.2165
 20
470.0981
 30
0.0000
  0
VERTEX
  8
0
 10
638.5356
 20
470.4193
 30
0.0000
  0
VERTEX
  8
0
 10
639.7787
 20
470.8671
 30
0.0000
  0
VERTEX
  8
0
 10
640.9215
 20
471.4330
 30
0.0000
  0
VERTEX
  8
0
 10
641.6994
 20
471.9282
 30
0.0000
  0
SEQEND
  0
POLYLINE
  6
continous
  8
BYBLOCK
 70
0
 66
1
  0
VERTEX
  8
0
 10
627.5573
 20
481.9282
 30
0.0000
  0
VERTEX
  8
0
 10
626.7482
 20
481.2816
 30
0.0000
  0
VERTEX
  8
0
 10
626.0567
 20
480.5701
 30
0.0000
  0
VERTEX
  8
0
 10
625.4929
 20
479.8043
 30
0.0000
  0
VERTEX
  8
0
 10
625.0653
 20
478.9956
 30
0.0000
  0
VERTEX
  8
0
 10
624.7803
 20
478.1561
 30
0.0000
  0
VERTEX
  8
0
 10
624.6420
 20
477.2983
 30
0.0000
  0
VERTEX
  8
0
 10
624.6283
 20
476.9282
 30
0.0000
  0
SEQEND
  0
POLYLINE
  6
continous
  8
BYBLOCK
 70
0
 66
1
  0
VERTEX
  8
0
 10
644.6283
 20
476.9282
 30
0.0000
  0
VERTEX
  8
0
 10
644.5538
 20
477.7900
 30
0.0000
  0
VERTEX
  8
0
 10
644.3313
 20
478.6389
 30
0.0000
  0
VERTEX
  8
0
 10
643.9641
 20
479.4622
 30
0.0000
  0
VERTEX
  8
0
 10
643.4578
 20
480.2479
 30
0.0000
  0
VERTEX
  8
0
 10
642.8199
 20
480.9840
 30
0.0000
  0
VERTEX
  8
0
 10
642.0598
 20
481.6597
 30
0.0000
  0
VERTEX
  8
0
 10
641.1889
 20
482.2648
 30
0.0000
  0
VERTEX
  8
0
 10
640.0747
 20
482.8585
 30
0.0000
  0
VERTEX
  8
0
 10
638.8545
 20
483.3368
 30
0.0000
  0
VERTEX
  8
0
 10
637.5521
 20
483.6903
 30
0.0000
  0
VERTEX
  8
0
 10
636.1927
 20
483.9122
 30
0.0000
  0
VERTEX
  8
0
 10
634.8029
 20
483.9982
 30
0.0000
  0
VERTEX
  8
0
 10
633.4096
 20
483.9466
 30
0.0000
  0
VERTEX
  8
0
 10
632.0401
 20
483.7583
 30
0.0000
  0
VERTEX
  8
0
 10
630.7210
 20
483.4372
 30
0.0000
  0
VERTEX
  8
0
 10
629.4780
 20
482.9893
 30
0.0000
  0
VERTEX
  8
0
 10
628.3351
 20
482.4235
 30
0.0000
  0
VERTEX
  8
0
 10
627.5573
 20
481.9282
 30
0.0000
  0
SEQEND
  0
POLYLINE
  6
continous
  8
BYBLOCK
 70
0
 66
1
  0
VERTEX
  8
0
 10
641.6994
 20
471.9282
 30
0.0000
  0
VERTEX
  8
0
 10
642.5084
 20
472.5748
 30
0.0000
  0
VERTEX
  8
0
 10
643.2000
 20
473.2863
 30
0.0000
  0
VERTEX
  8
0
 10
643.7638
 20
474.0521
 30
0.0000
  0
VERTEX
  8
0
 10
644.1914
 20
474.8608
 30
0.0000
  0
VERTEX
  8
0
 10
644.4764
 20
475.7003
 30
0.0000
  0
VERTEX
  8
0
 10
644.6146
 20
476.5581
 30
0.0000
  0
VERTEX
  8
0
 10
644.6283
 20
476.9282
 30
0.0000
  0
SEQEND
  0
POLYLINE
  6
continous
  8
BYBLOCK
 70
0
 66
1
  0
VERTEX
  8
0
 10
550.3821
 20
424.4282
 30
0.0000
  0
VERTEX
  8
0
 10
550.4567
 20
423.5665
 30
0.0000
  0
VERTEX
  8
0
 10
550.6792
 20
422.7176
 30
0.0000
  0
VERTEX
  8
0
 10
551.0463
 20
421.8942
 30
0.0000
  0
VERTEX
  8
0
 10
551.5526
 20
421.1085
 30
0.0000
  0
VERTEX
  8
0
 10
552.1906
 20
420.3724
 30
0.0000
  0
VERTEX
  8
0
 10
552.9507
 20
419.6967
 30
0.0000
  0
VERTEX
  8
0
 10
553.8215
 20
419.0916
 30
0.0000
  0
VERTEX
  8
0
 10
554.9357
 20
418.4979
 30
0.0000
  0
VERTEX
  8
0
 10
556.1559
 20
418.0196
 30
0.0000
  0
VERTEX
  8
0
 10
557.4584
 20
417.6661
 30
0.0000
  0
VERTEX
  8
0
 10
558.8178
 20
417.4442
 30
0.0000
  0
VERTEX
  8
0
 10
560.2076
 20
417.3582
 30
0.0000
  0
VERTEX
  8
0
 10
561.6008
 20
417.4098
 30
0.0000
  0
VERTEX
  8
0
 10
562.9703
 20
417.5981
 30
0.0000
  0
VERTEX
  8
0
 10
564.2894
 20
417.9193
 30
0.0000
  0
VERTEX
  8
0
 10
565.5325
 20
418.3671
 30
0.0000
  0
VERTEX
  8
0
 10
566.6753
 20
418.9330
 30
0.0000
  0
VERTEX
  8
0
 10
567.4532
 20
419.4282
 30
0.0000
  0
SEQEND
  0
POLYLINE
  6
continous
  8
BYBLOCK
 70
0
 66
1
  0
VERTEX
  8
0
 10
553.3111
 20
429.4282
 30
0.0000
  0
VERTEX
  8
0
 10
552.5020
 20
428.7816
 30
0.0000
  0
VERTEX
  8
0
 10
551.8105
 20
428.0701
 30
0.0000
  0
VERTEX
  8
0
 10
551.2467
 20
427.3043
 30
0.0000
  0
VERTEX
  8
0
 10
550.8191
 20
426.4956
 30
0.0000
  0
VERTEX
  8
0
 10
550.5340
 20
425.6561
 30
0.0000
  0
VERTEX
  8
0
 10
550.3958
 20
424.7983
 30
0.0000
  0
VERTEX
  8
0
 10
550.3821
 20
424.4282
 30
0.0000
  0
SEQEND
  0
POLYLINE
  6
continous
  8
BYBLOCK
 70
0
 66
1
  0
VERTEX
  8
0
 10
570.3821
 20
424.4282
 30
0.0000
  0
VERTEX
  8
0
 10
570.3076
 20
425.2900
 30
0.0000
  0
VERTEX
  8
0
 10
570.0851
 20
426.1389
 30
0.0000
  0
VERTEX
  8
0
 10
569.7179
 20
426.9622
 30
0.0000
  0
VERTEX
  8
0
 10
569.2116
 20
427.7479
 30
0.0000
  0
VERTEX
  8
0
 10
568.5736
 20
428.4840
 30
0.0000
  0
VERTEX
  8
0
 10
567.8136
 20
429.1597
 30
0.0000
  0
VERTEX
  8
0
 10
566.9427
 20
429.7648
 30
0.0000
  0
VERTEX
  8
0
 10
565.8285
 20
430.3585
 30
0.0000
  0
VERTEX
  8
0
 10
564.6083
 20
430.8368
 30
0.0000
  0
VERTEX
  8
0
 10
563.3058
 20
431.1903
 30
0.0000
  0
VERTEX
  8
0
 10
561.9465
 20
431.4122
 30
0.0000
  0
VERTEX
  8
0
 10
560.5566
 20
431.4982
 30
0.0000
  0
VERTEX
  8
0
 10
559.1634
 20
431.4466
 30
0.0000
  0
VERTEX
  8
0
 10
557.7939
 20
431.2583
 30
0.0000
  0
VERTEX
  8
0
 10
556.4748
 20
430.9372
 30
0.0000
  0
VERTEX
  8
0
 10
555.2317
 20
430.4893
 30
0.0000
  0
VERTEX
  8
0
 10
554.0889
 20
429.9235
 30
0.0000
  0
VERTEX
  8
0
 10
553.3111
 20
429.4282
 30
0.0000
  0
SEQEND
  0
POLYLINE
  6
continous
  8
BYBLOCK
 70
0
 66
1
  0
VERTEX
  8
0
 10
567.4532
 20
419.4282
 30
0.0000
  0
VERTEX
  8
0
 10
568.2622
 20
420.0748
 30
0.0000
  0
VERTEX
  8
0
 10
568.9538
 20
420.7863
 30
0.0000
  0
VERTEX
  8
0
 10
569.5176
 20
421.5521
 30
0.0000
  0
VERTEX
  8
0
 10
569.9452
 20
422.3608
 30
0.0000
  0
VERTEX
  8
0
 10
570.2302
 20
423.2003
 30
0.0000
  0
VERTEX
  8
0
 10
570.3684
 20
424.0581
 30
0.0000
  0
VERTEX
  8
0
 10
570.3821
 20
424.4282
 30
0.0000
  0
SEQEND
  0
POLYLINE
  6
continous
  8
BYBLOCK
 70
0
 66
1
  0
VERTEX
  8
0
 10
476.1359
 20
371.9282
 30
0.0000
  0
VERTEX
  8
0
 10
476.2105
 20
371.0665
 30
0.0000
  0
VERTEX
  8
0
 10
476.4330
 20
370.2176
 30
0.0000
  0
VERTEX
  8
0
 10
476.8001
 20
369.3942
 30
0.0000
  0
VERTEX
  8
0
 10
477.3064
 20
368.6085
 30
0.0000
  0
VERTEX
  8
0
 10
477.9444
 20
367.8724
 30
0.0000
  0
VERTEX
  8
0
 10
478.7045
 20
367.1967
 30
0.0000
  0
VERTEX
  8
0
 10
479.5753
 20
366.5916
 30
0.0000
  0
VERTEX
  8
0
 10
480.6895
 20
365.9979
 30
0.0000
  0
VERTEX
  8
0
 10
481.9097
 20
365.5196
 30
0.0000
  0
VERTEX
  8
0
 10
483.2122
 20
365.1661
 30
0.0000
  0
VERTEX
  8
0
 10
484.5716
 20
364.9442
 30
0.0000
  0
VERTEX
  8
0
 10
485.9614
 20
364.8582
 30
0.0000
  0
VERTEX
  8
0
 10
487.3546
 20
364.9098
 30
0.0000
  0
VERTEX
  8
0
 10
488.7241
 20
365.0981
 30
0.0000
  0
VERTEX
  8
0
 10
490.0432
 20
365.4193
 30
0.0000
  0
VERTEX
  8
0
 10
491.2863
 20
365.8671
 30
0.0000
  0
VERTEX
  8
0
 10
492.4291
 20
366.4330
 30
0.0000
  0
VERTEX
  8
0
 10
493.2070
 20
366.9282
 30
0.0000
  0
SEQEND
  0
POLYLINE
  6
continous
  8
BYBLOCK
 70
0
 66
1
  0
VERTEX
  8
0
 10
479.0648
 20
376.9282
 30
0.0000
  0
VERTEX
  8
0
 10
478.2558
 20
376.2816
 30
0.0000
  0
VERTEX
  8
0
 10
477.5642
 20
375.5701
 30
0.0000
  0
VERTEX
  8
0
 10
477.0005
 20
374.8043
 30
0.0000
  0
VERTEX
  8
0
 10
476.5729
 20
373.9956
 30
0.0000
  0
VERTEX
  8
0
 10
476.2878
 20
373.1561
 30
0.0000
  0
VERTEX
  8
0
 10
476.1496
 20
372.2983
 30
0.0000
  0
VERTEX
  8
0
 10
476.1359
 20
371.9282
 30
0.0000
  0
SEQEND
  0
POLYLINE
  6
continous
  8
BYBLOCK
 70
0
 66
1
  0
VERTEX
  8
0
 10
496.1359
 20
371.9282
 30
0.0000
  0
VERTEX
  8
0
 10
496.0614
 20
372.7900
 30
0.0000
  0
VERTEX
  8
0
 10
495.8389
 20
373.6389
 30
0.0000
  0
VERTEX
  8
0
 10
495.4717
 20
374.4622
 30
0.0000
  0
VERTEX
  8
0
 10
494.9654
 20
375.2479
 30
0.0000
  0
VERTEX
  8
0
 10
494.3274
 20
375.9840
 30
0.0000
  0
VERTEX
  8
0
 10
493.5674
 20
376.6597
 30
0.0000
  0
VERTEX
  8
0
 10
492.6965
 20
377.2648
 30
0.0000
  0
VERTEX
  8
0
 10
491.5823
 20
377.8585
 30
0.0000
  0
VERTEX
  8
0
 10
490.3621
 20
378.3368
 30
0.0000
  0
VERTEX
  8
0
 10
489.0596
 20
378.6903
 30
0.0000
  0
VERTEX
  8
0
 10
487.7003
 20
378.9122
 30
0.0000
  0
VERTEX
  8
0
 10
486.3104
 20
378.9982
 30
0.0000
  0
VERTEX
  8
0
 10
484.9172
 20
378.9466
 30
0.0000
  0
VERTEX
  8
0
 10
483.5477
 20
378.7583
 30
0.0000
  0
VERTEX
  8
0
 10
482.2286
 20
378.4372
 30
0.0000
  0
VERTEX
  8
0
 10
480.9855
 20
377.9893
 30
0.0000
  0
VERTEX
  8
0
 10
479.8427
 20
377.4235
 30
0.0000
  0
VERTEX
  8
0
 10
479.0648
 20
376.9282
 30
0.0000
  0
SEQEND
  0
POLYLINE
  6
continous
  8
BYBLOCK
 70
0
 66
1
  0
VERTEX
  8
0
 10
493.2070
 20
366.9282
 30
0.0000
  0
VERTEX
  8
0
 10
494.0160
 20
367.5748
 30
0.0000
  0
VERTEX
  8
0
 10
494.7076
 20
368.2863
 30
0.0000
  0
VERTEX
  8
0
 10
495.2714
 20
369.0521
 30
0.0000
  0
VERTEX
  8
0
 10
495.6990
 20
369.8608
 30
0.0000
  0
VERTEX
  8
0
 10
495.9840
 20
370.7003
 30
0.0000
  0
VERTEX
  8
0
 10
496.1222
 20
371.5581
 30
0.0000
  0
VERTEX
  8
0
 10
496.1359
 20
371.9282
 30
0.0000
  0
SEQEND
  0
POLYLINE
  6
continous
  8
BYBLOCK
 70
0
 66
1
  0
VERTEX
  8
0
 10
401.8897
 20
319.4282
 30
0.0000
  0
VERTEX
  8
0
 10
401.9642
 20
318.5665
 30
0.0000
  0
VERTEX
  8
0
 10
402.1867
 20
317.7176
 30
0.0000
  0
VERTEX
  8
0
 10
402.5539
 20
316.8942
 30
0.0000
  0
VERTEX
  8
0
 10
403.0602
 20
316.1085
 30
0.0000
  0
VERTEX
  8
0
 10
403.6982
 20
315.3724
 30
0.0000
  0
VERTEX
  8
0
 10
404.4583
 20
314.6967
 30
0.0000
  0
VERTEX
  8
0
 10
405.3291
 20
314.0916
 30
0.0000
  0
VERTEX
  8
0
 10
406.4433
 20
313.4979
 30
0.0000
  0
VERTEX
  8
0
 10
407.6635
 20
313.0196
 30
0.0000
  0
VERTEX
  8
0
 10
408.9660
 20
312.6661
 30
0.0000
  0
VERTEX
  8
0
 10
410.3254
 20
312.4442
 30
0.0000
  0
VERTEX
  8
0
 10
411.7152
 20
312.3582
 30
0.0000
  0
VERTEX
  8
0
 10
413.1084
 20
312.4098
 30
0.0000
  0
VERTEX
  8
0
 10
414.4779
 20
312.5981
 30
0.0000
  0
VERTEX
  8
0
 10
415.7970
 20
312.9193
 30
0.0000
  0
VERTEX
  8
0
 10
417.0401
 20
313.3671
 30
0.0000
  0
VERTEX
  8
0
 10
418.1829
 20
313.9330
 30
0.0000
  0
VERTEX
  8
0
 10
418.9608
 20
314.4282
 30
0.0000
  0
SEQEND
  0
POLYLINE
  6
continous
  8
BYBLOCK
 70
0
 66
1
  0
VERTEX
  8
0
 10
404.8186
 20
324.4282
 30
0.0000
  0
VERTEX
  8
0
 10
404.0096
 20
323.7816
 30
0.0000
  0
VERTEX
  8
0
 10
403.3180
 20
323.0701
 30
0.0000
  0
VERTEX
  8
0
 10
402.7542
 20
322.3043
 30
0.0000
  0
VERTEX
  8
0
 10
402.3267
 20
321.4956
 30
0.0000
  0
VERTEX
  8
0
 10
402.0416
 20
320.6561
 30
0.0000
  0
VERTEX
  8
0
 10
401.9034
 20
319.7983
 30
0.0000
  0
VERTEX
  8
0
 10
401.8897
 20
319.4282
 30
0.0000
  0
SEQEND
  0
POLYLINE
  6
continous
  8
BYBLOCK
 70
0
 66
1
  0
VERTEX
  8
0
 10
421.8897
 20
319.4282
 30
0.0000
  0
VERTEX
  8
0
 10
421.8152
 20
320.2900
 30
0.0000
  0
VERTEX
  8
0
 10
421.5927
 20
321.1389
 30
0.0000
  0
VERTEX
  8
0
 10
421.2255
 20
321.9622
 30
0.0000
  0
VERTEX
  8
0
 10
420.7192
 20
322.7479
 30
0.0000
  0
VERTEX
  8
0
 10
420.0812
 20
323.4840
 30
0.0000
  0
VERTEX
  8
0
 10
419.3211
 20
324.1597
 30
0.0000
  0
VERTEX
  8
0
 10
418.4503
 20
324.7648
 30
0.0000
  0
VERTEX
  8
0
 10
417.3361
 20
325.3585
 30
0.0000
  0
VERTEX
  8
0
 10
416.1159
 20
325.8368
 30
0.0000
  0
VERTEX
  8
0
 10
414.8134
 20
326.1903
 30
0.0000
  0
VERTEX
  8
0
 10
413.4540
 20
326.4122
 30
0.0000
  0
VERTEX
  8
0
 10
412.0642
 20
326.4982
 30
0.0000
  0
VERTEX
  8
0
 10
410.6710
 20
326.4466
 30
0.0000
  0
VERTEX
  8
0
 10
409.3015
 20
326.2583
 30
0.0000
  0
VERTEX
  8
0
 10
407.9824
 20
325.9372
 30
0.0000
  0
VERTEX
  8
0
 10
406.7393
 20
325.4893
 30
0.0000
  0
VERTEX
  8
0
 10
405.5965
 20
324.9235
 30
0.0000
  0
VERTEX
  8
0
 10
404.8186
 20
324.4282
 30
0.0000
  0
SEQEND
  0
POLYLINE
  6
continous
  8
BYBLOCK
 70
0
 66
1
  0
VERTEX
  8
0
 10
418.9608
 20
314.4282
 30
0.0000
  0
VERTEX
  8
0
 10
419.7698
 20
315.0748
 30
0.0000
  0
VERTEX
  8
0
 10
420.4614
 20
315.7863
 30
0.0000
  0
VERTEX
  8
0
 10
421.0252
 20
316.5521
 30
0.0000
  0
VERTEX
  8
0
 10
421.4527
 20
317.3608
 30
0.0000
  0
VERTEX
  8
0
 10
421.7378
 20
318.2003
 30
0.0000
  0
VERTEX
  8
0
 10
421.8760
 20
319.0581
 30
0.0000
  0
VERTEX
  8
0
 10
421.8897
 20
319.4282
 30
0.0000
  0
SEQEND
  0
POLYLINE
  6
continous
  8
BYBLOCK
 70
0
 66
1
  0
VERTEX
  8
0
 10
327.6435
 20
266.9282
 30
0.0000
  0
VERTEX
  8
0
 10
327.7180
 20
266.0665
 30
0.0000
  0
VERTEX
  8
0
 10
327.9405
 20
265.2176
 30
0.0000
  0
VERTEX
  8
0
 10
328.3077
 20
264.3942
 30
0.0000
  0
VERTEX
  8
0
 10
328.8140
 20
263.6085
 30
0.0000
  0
VERTEX
  8
0
 10
329.4520
 20
262.8724
 30
0.0000
  0
VERTEX
  8
0
 10
330.2120
 20
262.1967
 30
0.0000
  0
VERTEX
  8
0
 10
331.0829
 20
261.5916
 30
0.0000
  0
VERTEX
  8
0
 10
332.1971
 20
260.9979
 30
0.0000
  0
VERTEX
  8
0
 10
333.4173
 20
260.5196
 30
0.0000
  0
VERTEX
  8
0
 10
334.7198
 20
260.1661
 30
0.0000
  0
VERTEX
  8
0
 10
336.0791
 20
259.9442
 30
0.0000
  0
VERTEX
  8
0
 10
337.4690
 20
259.8582
 30
0.0000
  0
VERTEX
  8
0
 10
338.8622
 20
259.9098
 30
0.0000
  0
VERTEX
  8
0
 10
340.2317
 20
260.0981
 30
0.0000
  0
VERTEX
  8
0
 10
341.5508
 20
260.4193
 30
0.0000
  0
VERTEX
  8
0
 10
342.7939
 20
260.8671
 30
0.0000
  0
VERTEX
  8
0
 10
343.9367
 20
261.4330
 30
0.0000
  0
VERTEX
  8
0
 10
344.7146
 20
261.9282
 30
0.0000
  0
SEQEND
  0
POLYLINE
  6
continous
  8
BYBLOCK
 70
0
 66
1
  0
VERTEX
  8
0
 10
330.5724
 20
271.9282
 30
0.0000
  0
VERTEX
  8
0
 10
329.7634
 20
271.2816
 30
0.0000
  0
VERTEX
  8
0
 10
329.0718
 20
270.5701
 30
0.0000
  0
VERTEX
  8
0
 10
328.5080
 20
269.8043
 30
0.0000
  0
VERTEX
  8
0
 10
328.0804
 20
268.9956
 30
0.0000
  0
VERTEX
  8
0
 10
327.7954
 20
268.1561
 30
0.0000
  0
VERTEX
  8
0
 10
327.6572
 20
267.2983
 30
0.0000
  0
VERTEX
  8
0
 10
327.6435
 20
266.9282
 30
0.0000
  0
SEQEND
  0
POLYLINE
  6
continous
  8
BYBLOCK
 70
0
 66
1
  0
VERTEX
  8
0
 10
347.6435
 20
266.9282
 30
0.0000
  0
VERTEX
  8
0
 10
347.5689
 20
267.7900
 30
0.0000
  0
VERTEX
  8
0
 10
347.3464
 20
268.6389
 30
0.0000
  0
VERTEX
  8
0
 10
346.9793
 20
269.4622
 30
0.0000
  0
VERTEX
  8
0
 10
346.4730
 20
270.2479
 30
0.0000
  0
VERTEX
  8
0
 10
345.8350
 20
270.9840
 30
0.0000
  0
VERTEX
  8
0
 10
345.0749
 20
271.6597
 30
0.0000
  0
VERTEX
  8
0
 10
344.2041
 20
272.2648
 30
0.0000
  0
VERTEX
  8
0
 10
343.0899
 20
272.8585
 30
0.0000
  0
VERTEX
  8
0
 10
341.8697
 20
273.3368
 30
0.0000
  0
VERTEX
  8
0
 10
340.5672
 20
273.6903
 30
0.0000
  0
VERTEX
  8
0
 10
339.2078
 20
273.9122
 30
0.0000
  0
VERTEX
  8
0
 10
337.8180
 20
273.9982
 30
0.0000
  0
VERTEX
  8
0
 10
336.4248
 20
273.9466
 30
0.0000
  0
VERTEX
  8
0
 10
335.0553
 20
273.7583
 30
0.0000
  0
VERTEX
  8
0
 10
333.7362
 20
273.4372
 30
0.0000
  0
VERTEX
  8
0
 10
332.4931
 20
272.9893
 30
0.0000
  0
VERTEX
  8
0
 10
331.3503
 20
272.4235
 30
0.0000
  0
VERTEX
  8
0
 10
330.5724
 20
271.9282
 30
0.0000
  0
SEQEND
  0
POLYLINE
  6
continous
  8
BYBLOCK
 70
0
 66
1
  0
VERTEX
  8
0
 10
344.7146
 20
261.9282
 30
0.0000
  0
VERTEX
  8
0
 10
345.5236
 20
262.5748
 30
0.0000
  0
VERTEX
  8
0
 10
346.2152
 20
263.2863
 30
0.0000
  0
VERTEX
  8
0
 10
346.7789
 20
264.0521
 30
0.0000
  0
VERTEX
  8
0
 10
347.2065
 20
264.8608
 30
0.0000
  0
VERTEX
  8
0
 10
347.4916
 20
265.7003
 30
0.0000
  0
VERTEX
  8
0
 10
347.6298
 20
266.5581
 30
0.0000
  0
VERTEX
  8
0
 10
347.6435
 20
266.9282
 30
0.0000
  0
SEQEND
  0
POLYLINE
  6
continous
  8
BYBLOCK
 70
0
 66
1
  0
VERTEX
  8
0
 10
253.3973
 20
214.4282
 30
0.0000
  0
VERTEX
  8
0
 10
253.4718
 20
213.5665
 30
0.0000
  0
VERTEX
  8
0
 10
253.6943
 20
212.7176
 30
0.0000
  0
VERTEX
  8
0
 10
254.0615
 20
211.8942
 30
0.0000
  0
VERTEX
  8
0
 10
254.5678
 20
211.1085
 30
0.0000
  0
VERTEX
  8
0
 10
255.2058
 20
210.3724
 30
0.0000
  0
VERTEX
  8
0
 10
255.9658
 20
209.6967
 30
0.0000
  0
VERTEX
  8
0
 10
256.8367
 20
209.0916
 30
0.0000
  0
VERTEX
  8
0
 10
257.9509
 20
208.4979
 30
0.0000
  0
VERTEX
  8
0
 10
259.1711
 20
208.0196
 30
0.0000
  0
VERTEX
  8
0
 10
260.4736
 20
207.6661
 30
0.0000
  0
VERTEX
  8
0
 10
261.8329
 20
207.4442
 30
0.0000
  0
VERTEX
  8
0
 10
263.2228
 20
207.3582
 30
0.0000
  0
VERTEX
  8
0
 10
264.6160
 20
207.4098
 30
0.0000
  0
VERTEX
  8
0
 10
265.9855
 20
207.5981
 30
0.0000
  0
VERTEX
  8
0
 10
267.3046
 20
207.9193
 30
0.0000
  0
VERTEX
  8
0
 10
268.5477
 20
208.3671
 30
0.0000
  0
VERTEX
  8
0
 10
269.6905
 20
208.9330
 30
0.0000
  0
VERTEX
  8
0
 10
270.4683
 20
209.4282
 30
0.0000
  0
SEQEND
  0
POLYLINE
  6
continous
  8
BYBLOCK
 70
0
 66
1
  0
VERTEX
  8
0
 10
256.3262
 20
219.4282
 30
0.0000
  0
VERTEX
  8
0
 10
255.5172
 20
218.7816
 30
0.0000
  0
VERTEX
  8
0
 10
254.8256
 20
218.0701
 30
0.0000
  0
VERTEX
  8
0
 10
254.2618
 20
217.3043
 30
0.0000
  0
VERTEX
  8
0
 10
253.8342
 20
216.4956
 30
0.0000
  0
VERTEX
  8
0
 10
253.5492
 20
215.6561
 30
0.0000
  0
VERTEX
  8
0
 10
253.4110
 20
214.7983
 30
0.0000
  0
VERTEX
  8
0
 10
253.3973
 20
214.4282
 30
0.0000
  0
SEQEND
  0
POLYLINE
  6
continous
  8
BYBLOCK
 70
0
 66
1
  0
VERTEX
  8
0
 10
273.3973
 20
214.4282
 30
0.0000
  0
VERTEX
  8
0
 10
273.3227
 20
215.2900
 30
0.0000
  0
VERTEX
  8
0
 10
273.1002
 20
216.1389
 30
0.0000
  0
VERTEX
  8
0
 10
272.7331
 20
216.9622
 30
0.0000
  0
VERTEX
  8
0
 10
272.2268
 20
217.7479
 30
0.0000
  0
VERTEX
  8
0
 10
271.5888
 20
218.4840
 30
0.0000
  0
VERTEX
  8
0
 10
270.8287
 20
219.1597
 30
0.0000
  0
VERTEX
  8
0
 10
269.9579
 20
219.7648
 30
0.0000
  0
VERTEX
  8
0
 10
268.8437
 20
220.3585
 30
0.0000
  0
VERTEX
  8
0
 10
267.6235
 20
220.8368
 30
0.0000
  0
VERTEX
  8
0
 10
266.3210
 20
221.1903
 30
0.0000
  0
VERTEX
  8
0
 10
264.9616
 20
221.4122
 30
0.0000
  0
VERTEX
  8
0
 10
263.5718
 20
221.4982
 30
0.0000
  0
VERTEX
  8
0
 10
262.1786
 20
221.4466
 30
0.0000
  0
VERTEX
  8
0
 10
260.8091
 20
221.2583
 30
0.0000
  0
VERTEX
  8
0
 10
259.4900
 20
220.9372
 30
0.0000
  0
VERTEX
  8
0
 10
258.2469
 20
220.4893
 30
0.0000
  0
VERTEX
  8
0
 10
257.1041
 20
219.9235
 30
0.0000
  0
VERTEX
  8
0
 10
256.3262
 20
219.4282
 30
0.0000
  0
SEQEND
  0
POLYLINE
  6
continous
  8
BYBLOCK
 70
0
 66
1
  0
VERTEX
  8
0
 10
270.4683
 20
209.4282
 30
0.0000
  0
VERTEX
  8
0
 10
271.2774
 20
210.0748
 30
0.0000
  0
VERTEX
  8
0
 10
271.9689
 20
210.7863
 30
0.0000
  0
VERTEX
  8
0
 10
272.5327
 20
211.5521
 30
0.0000
  0
VERTEX
  8
0
 10
272.9603
 20
212.3608
 30
0.0000
  0
VERTEX
  8
0
 10
273.2454
 20
213.2003
 30
0.0000
  0
VERTEX
  8
0
 10
273.3836
 20
214.0581
 30
0.0000
  0
VERTEX
  8
0
 10
273.3973
 20
214.4282
 30
0.0000
  0
SEQEND
  0
POLYLINE
  6
continous
  8
BYBLOCK
 70
0
 66
1
  0
VERTEX
  8
0
 10
179.1511
 20
161.9282
 30
0.0000
  0
VERTEX
  8
0
 10
179.2256
 20
161.0665
 30
0.0000
  0
VERTEX
  8
0
 10
179.4481
 20
160.2176
 30
0.0000
  0
VERTEX
  8
0
 10
179.8153
 20
159.3942
 30
0.0000
  0
VERTEX
  8
0
 10
180.3216
 20
158.6085
 30
0.0000
  0
VERTEX
  8
0
 10
180.9595
 20
157.8724
 30
0.0000
  0
VERTEX
  8
0
 10
181.7196
 20
157.1967
 30
0.0000
  0
VERTEX
  8
0
 10
182.5905
 20
156.5916
 30
0.0000
  0
VERTEX
  8
0
 10
183.7047
 20
155.9979
 30
0.0000
  0
VERTEX
  8
0
 10
184.9249
 20
155.5196
 30
0.0000
  0
VERTEX
  8
0
 10
186.2273
 20
155.1661
 30
0.0000
  0
VERTEX
  8
0
 10
187.5867
 20
154.9442
 30
0.0000
  0
VERTEX
  8
0
 10
188.9765
 20
154.8582
 30
0.0000
  0
VERTEX
  8
0
 10
190.3698
 20
154.9098
 30
0.0000
  0
VERTEX
  8
0
 10
191.7393
 20
155.0981
 30
0.0000
  0
VERTEX
  8
0
 10
193.0584
 20
155.4193
 30
0.0000
  0
VERTEX
  8
0
 10
194.3014
 20
155.8671
 30
0.0000
  0
VERTEX
  8
0
 10
195.4443
 20
156.4330
 30
0.0000
  0
VERTEX
  8
0
 10
196.2221
 20
156.9282
 30
0.0000
  0
SEQEND
  0
POLYLINE
  6
continous
  8
BYBLOCK
 70
0
 66
1
  0
VERTEX
  8
0
 10
182.0800
 20
166.9282
 30
0.0000
  0
VERTEX
  8
0
 10
181.2710
 20
166.2816
 30
0.0000
  0
VERTEX
  8
0
 10
180.5794
 20
165.5701
 30
0.0000
  0
VERTEX
  8
0
 10
180.0156
 20
164.8043
 30
0.0000
  0
VERTEX
  8
0
 10
179.5880
 20
163.9956
 30
0.0000
  0
VERTEX
  8
0
 10
179.3030
 20
163.1561
 30
0.0000
  0
VERTEX
  8
0
 10
179.1648
 20
162.2983
 30
0.0000
  0
VERTEX
  8
0
 10
179.1511
 20
161.9282
 30
0.0000
  0
SEQEND
  0
POLYLINE
  6
continous
  8
BYBLOCK
 70
0
 66
1
  0
VERTEX
  8
0
 10
199.1511
 20
161.9282
 30
0.0000
  0
VERTEX
  8
0
 10
199.0765
 20
162.7900
 30
0.0000
  0
VERTEX
  8
0
 10
198.8540
 20
163.6389
 30
0.0000
  0
VERTEX
  8
0
 10
198.4869
 20
164.4622
 30
0.0000
  0
VERTEX
  8
0
 10
197.9805
 20
165.2479
 30
0.0000
  0
VERTEX
  8
0
 10
197.3426
 20
165.9840
 30
0.0000
  0
VERTEX
  8
0
 10
196.5825
 20
166.6597
 30
0.0000
  0
VERTEX
  8
0
 10
195.7117
 20
167.2648
 30
0.0000
  0
VERTEX
  8
0
 10
194.5975
 20
167.8585
 30
0.0000
  0
VERTEX
  8
0
 10
193.3772
 20
168.3368
 30
0.0000
  0
VERTEX
  8
0
 10
192.0748
 20
168.6903
 30
0.0000
  0
VERTEX
  8
0
 10
190.7154
 20
168.9122
 30
0.0000
  0
VERTEX
  8
0
 10
189.3256
 20
168.9982
 30
0.0000
  0
VERTEX
  8
0
 10
187.9324
 20
168.9466
 30
0.0000
  0
VERTEX
  8
0
 10
186.5629
 20
168.7583
 30
0.0000
  0
VERTEX
  8
0
 10
185.2438
 20
168.4372
 30
0.0000
  0
VERTEX
  8
0
 10
184.0007
 20
167.9893
 30
0.0000
  0
VERTEX
  8
0
 10
182.8579
 20
167.4235
 30
0.0000
  0
VERTEX
  8
0
 10
182.0800
 20
166.9282
 30
0.0000
  0
SEQEND
  0
POLYLINE
  6
continous
  8
BYBLOCK
 70
0
 66
1
  0
VERTEX
  8
0
 10
196.2221
 20
156.9282
 30
0.0000
  0
VERTEX
  8
0
 10
197.0312
 20
157.5748
 30
0.0000
  0
VERTEX
  8
0
 10
197.7227
 20
158.2863
 30
0.0000
  0
VERTEX
  8
0
 10
198.2865
 20
159.0521
 30
0.0000
  0
VERTEX
  8
0
 10
198.7141
 20
159.8608
 30
0.0000
  0
VERTEX
  8
0
 10
198.9991
 20
160.7003
 30
0.0000
  0
VERTEX
  8
0
 10
199.1374
 20
161.5581
 30
0.0000
  0
VERTEX
  8
0
 10
199.1511
 20
161.9282
 30
0.0000
  0
SEQEND
  0
POLYLINE
  6
continous
  8
BYBLOCK
 70
0
 66
1
  0
VERTEX
  8
0
 10
104.9049
 20
109.4282
 30
0.0000
  0
VERTEX
  8
0
 10
104.9794
 20
108.5665
 30
0.0000
  0
VERTEX
  8
0
 10
105.2019
 20
107.7176
 30
0.0000
  0
VERTEX
  8
0
 10
105.5690
 20
106.8942
 30
0.0000
  0
VERTEX
  8
0
 10
106.0754
 20
106.1085
 30
0.0000
  0
VERTEX
  8
0
 10
106.7133
 20
105.3724
 30
0.0000
  0
VERTEX
  8
0
 10
107.4734
 20
104.6967
 30
0.0000
  0
VERTEX
  8
0
 10
108.3443
 20
104.0916
 30
0.0000
  0
VERTEX
  8
0
 10
109.4585
 20
103.4979
 30
0.0000
  0
VERTEX
  8
0
 10
110.6787
 20
103.0196
 30
0.0000
  0
VERTEX
  8
0
 10
111.9811
 20
102.6661
 30
0.0000
  0
VERTEX
  8
0
 10
113.3405
 20
102.4442
 30
0.0000
  0
VERTEX
  8
0
 10
114.7303
 20
102.3582
 30
0.0000
  0
VERTEX
  8
0
 10
116.1235
 20
102.4098
 30
0.0000
  0
VERTEX
  8
0
 10
117.4930
 20
102.5981
 30
0.0000
  0
VERTEX
  8
0
 10
118.8122
 20
102.9193
 30
0.0000
  0
VERTEX
  8
0
 10
120.0552
 20
103.3671
 30
0.0000
  0
VERTEX
  8
0
 10
121.1981
 20
103.9330
 30
0.0000
  0
VERTEX
  8
0
 10
121.9759
 20
104.4282
 30
0.0000
  0
SEQEND
  0
POLYLINE
  6
continous
  8
BYBLOCK
 70
0
 66
1
  0
VERTEX
  8
0
 10
107.8338
 20
114.4282
 30
0.0000
  0
VERTEX
  8
0
 10
107.0247
 20
113.7816
 30
0.0000
  0
VERTEX
  8
0
 10
106.3332
 20
113.0701
 30
0.0000
  0
VERTEX
  8
0
 10
105.7694
 20
112.3043
 30
0.0000
  0
VERTEX
  8
0
 10
105.3418
 20
111.4956
 30
0.0000
  0
VERTEX
  8
0
 10
105.0568
 20
110.6561
 30
0.0000
  0
VERTEX
  8
0
 10
104.9186
 20
109.7983
 30
0.0000
  0
VERTEX
  8
0
 10
104.9049
 20
109.4282
 30
0.0000
  0
SEQEND
  0
POLYLINE
  6
continous
  8
BYBLOCK
 70
0
 66
1
  0
VERTEX
  8
0
 10
124.9049
 20
109.4282
 30
0.0000
  0
VERTEX
  8
0
 10
124.8303
 20
110.2900
 30
0.0000
  0
VERTEX
  8
0
 10
124.6078
 20
111.1389
 30
0.0000
  0
VERTEX
  8
0
 10
124.2407
 20
111.9622
 30
0.0000
  0
VERTEX
  8
0
 10
123.7343
 20
112.7479
 30
0.0000
  0
VERTEX
  8
0
 10
123.0964
 20
113.4840
 30
0.0000
  0
VERTEX
  8
0
 10
122.3363
 20
114.1597
 30
0.0000
  0
VERTEX
  8
0
 10
121.4654
 20
114.7648
 30
0.0000
  0
VERTEX
  8
0
 10
120.3512
 20
115.3585
 30
0.0000
  0
VERTEX
  8
0
 10
119.1310
 20
115.8368
 30
0.0000
  0
VERTEX
  8
0
 10
117.8286
 20
116.1903
 30
0.0000
  0
VERTEX
  8
0
 10
116.4692
 20
116.4122
 30
0.0000
  0
VERTEX
  8
0
 10
115.0794
 20
116.4982
 30
0.0000
  0
VERTEX
  8
0
 10
113.6862
 20
116.4466
 30
0.0000
  0
VERTEX
  8
0
 10
112.3167
 20
116.2583
 30
0.0000
  0
VERTEX
  8
0
 10
110.9975
 20
115.9372
 30
0.0000
  0
VERTEX
  8
0
 10
109.7545
 20
115.4893
 30
0.0000
  0
VERTEX
  8
0
 10
108.6116
 20
114.9235
 30
0.0000
  0
VERTEX
  8
0
 10
107.8338
 20
114.4282
 30
0.0000
  0
SEQEND
  0
POLYLINE
  6
continous
  8
BYBLOCK
 70
0
 66
1
  0
VERTEX
  8
0
 10
121.9759
 20
104.4282
 30
0.0000
  0
VERTEX
  8
0
 10
122.7850
 20
105.0748
 30
0.0000
  0
VERTEX
  8
0
 10
123.4765
 20
105.7863
 30
0.0000
  0
VERTEX
  8
0
 10
124.0403
 20
106.5521
 30
0.0000
  0
VERTEX
  8
0
 10
124.4679
 20
107.3608
 30
0.0000
  0
VERTEX
  8
0
 10
124.7529
 20
108.2003
 30
0.0000
  0
VERTEX
  8
0
 10
124.8911
 20
109.0581
 30
0.0000
  0
VERTEX
  8
0
 10
124.9049
 20
109.4282
 30
0.0000
  0
SEQEND
  0
LINE
  6
continous
  8
BYBLOCK
 10
16.2670
 20
20.6757
 30
0.0000
 11
-10.6102
 21
39.6807
 31
0.0000
  0
LINE
  6
continous
  8
BYBLOCK
 10
16.2670
 20
20.6757
 30
0.0000
 11
2839.0373
 21
2016.6757
 31
0.0000
  0
LINE
  6
continous
  8
BYBLOCK
 10
-10.6102
 20
39.6807
 30
0.0000
 11
-10.9602
 21
39.5782
 31
0.0000
  0
LINE
  6
continous
  8
BYBLOCK
 10
-10.9602
 20
39.5782
 30
0.0000
 11
2811.8101
 21
2035.5782
 31
0.0000
  0
LINE
  6
continous
  8
BYBLOCK
 10
-10.6102
 20
39.6807
 30
0.0000
 11
2812.1601
 21
2035.6807
 31
0.0000
  0
LINE
  6
continous
  8
BYBLOCK
 10
2812.1601
 20
2035.6807
 30
0.0000
 11
2811.8101
 21
2035.5782
 31
0.0000
  0
LINE
  6
continous
  8
BYBLOCK
 10
2815.2370
 20
2036.9025
 30
0.0000
 11
2811.8101
 21
2035.5782
 31
0.0000
  0
LINE
  6
continous
  8
BYBLOCK
 10
2841.5086
 20
1987.5985
 30
0.0000
 11
2841.5086
 21
1992.1013
 31
0.0000
  0
LINE
  6
continous
  8
BYBLOCK
 10
2843.7358
 20
1990.2727
 30
0.0000
 11
2841.5086
 21
1987.5985
 31
0.0000
  0
LINE
  6
continous
  8
BYBLOCK
 10
2841.5086
 20
1992.1013
 30
0.0000
 11
2839.3873
 21
1994.8261
 31
0.0000
  0
LINE
  6
continous
  8
BYBLOCK
 10
2843.7358
 20
1994.1794
 30
0.0000
 11
2841.5086
 21
1992.1013
 31
0.0000
  0
LINE
  6
continous
  8
BYBLOCK
 10
2839.3873
 20
1994.8261
 30
0.0000
 11
2839.3873
 21
1997.0988
 31
0.0000
  0
LINE
  6
continous
  8
BYBLOCK
 10
2841.6145
 20
1996.9041
 30
0.0000
 11
2839.3873
 21
1994.8261
 31
0.0000
  0
POLYLINE
  6
continous
  8
BYBLOCK
 70
0
 66
1
  0
VERTEX
  8
0
 10
2836.8956
 20
2001.7482
 30
0.0000
  0
VERTEX
  8
0
 10
2836.8954
 20
2001.7189
 30
0.0000
  0
SEQEND
  0
POLYLINE
  6
continous
  8
BYBLOCK
 70
0
 66
1
  0
VERTEX
  8
0
 10
2841.6145
 20
1999.0406
 30
0.0000
  0
VERTEX
  8
0
 10
2839.3873
 20
1997.0988
 30
0.0000
  0
SEQEND
  0
LINE
  6
continous
  8
BYBLOCK
 10
2836.8956
 20
2001.7482
 30
0.0000
 11
2835.8517
 21
2003.0890
 31
0.0000
  0
POLYLINE
  6
continous
  8
BYBLOCK
 70
0
 66
1
  0
VERTEX
  8
0
 10
2839.1380
 20
2003.8068
 30
0.0000
  0
VERTEX
  8
0
 10
2836.8956
 20
2001.7482
 30
0.0000
  0
SEQEND
  0
LINE
  6
continous
  8
BYBLOCK
 10
2835.8517
 20
2003.0890
 30
0.0000
 11
2835.8517
 21
2010.1352
 31
0.0000
  0
LINE
  6
continous
  8
BYBLOCK
 10
2838.0790
 20
2005.1670
 30
0.0000
 11
2835.8517
 21
2003.0890
 31
0.0000
  0
LINE
  6
continous
  8
BYBLOCK
 10
2839.3873
 20
2012.6352
 30
0.0000
 11
2839.3873
 21
2016.0782
 31
0.0000
  0
POLYLINE
  6
continous
  8
BYBLOCK
 70
0
 66
1
  0
VERTEX
  8
0
 10
2841.6145
 20
2015.5437
 30
0.0000
  0
VERTEX
  8
0
 10
2839.3873
 20
2012.6352
 30
0.0000
  0
SEQEND
  0
LINE
  6
continous
  8
BYBLOCK
 10
2841.6139
 20
2018.2512
 30
0.0000
 11
2839.3873
 21
2016.0782
 31
0.0000
  0
LINE
  6
continous
  8
BYBLOCK
 10
2839.3873
 20
2016.0782
 30
0.0000
 11
2839.0373
 21
2016.6757
 31
0.0000
  0
LINE
  6
continous
  8
BYBLOCK
 10
2839.0373
 20
2016.6757
 30
0.0000
 11
2812.1601
 21
2035.6807
 31
0.0000
  0
LINE
  6
continous
  8
BYBLOCK
 10
2815.2370
 20
2036.9025
 30
0.0000
 11
2812.1601
 21
2035.6807
 31
0.0000
  0
LINE
  6
continous
  8
BYBLOCK
 10
2841.6139
 20
2018.2512
 30
0.0000
 11
2839.0373
 21
2016.6757
 31
0.0000
  0
LINE
  6
continous
  8
BYBLOCK
 10
2843.7358
 20
1990.2727
 30
0.0000
 11
2843.7358
 21
1994.1794
 31
0.0000
  0
LINE
  6
continous
  8
BYBLOCK
 10
2843.7358
 20
1994.1794
 30
0.0000
 11
2841.6145
 21
1996.9041
 31
0.0000
  0
LINE
  6
continous
  8
BYBLOCK
 10
2841.6145
 20
1996.9041
 30
0.0000
 11
2841.6145
 21
1999.0406
 31
0.0000
  0
POLYLINE
  6
continous
  8
BYBLOCK
 70
0
 66
1
  0
VERTEX
  8
0
 10
2841.6145
 20
1999.0406
 30
0.0000
  0
VERTEX
  8
0
 10
2841.0033
 20
1999.7197
 30
0.0000
  0
VERTEX
  8
0
 10
2840.4496
 20
2000.4688
 30
0.0000
  0
VERTEX
  8
0
 10
2839.9730
 20
2001.2611
 30
0.0000
  0
VERTEX
  8
0
 10
2839.5906
 20
2002.0684
 30
0.0000
  0
VERTEX
  8
0
 10
2839.3162
 20
2002.8618
 30
0.0000
  0
VERTEX
  8
0
 10
2839.1594
 20
2003.6129
 30
0.0000
  0
VERTEX
  8
0
 10
2839.1380
 20
2003.8068
 30
0.0000
  0
SEQEND
  0
LINE
  6
continous
  8
BYBLOCK
 10
2839.1380
 20
2003.8068
 30
0.0000
 11
2838.0790
 21
2005.1670
 31
0.0000
  0
LINE
  6
continous
  8
BYBLOCK
 10
2838.0790
 20
2005.1670
 30
0.0000
 11
2838.0790
 21
2011.7101
 31
0.0000
  0
LINE
  6
continous
  8
BYBLOCK
 10
2841.6145
 20
2015.5437
 30
0.0000
 11
2841.6139
 21
2018.2512
 31
0.0000
  0
LINE
  6
continous
  8
BYBLOCK
 10
2841.6139
 20
2018.2512
 30
0.0000
 11
2815.2370
 21
2036.9025
 31
0.0000
  0
POLYLINE
  6
continous
  8
BYBLOCK
 70
0
 66
1
  0
VERTEX
  8
0
 10
-10.9602
 20
20.5988
 30
0.0000
  0
VERTEX
  8
0
 10
-10.4362
 20
20.3510
 30
0.0000
  0
VERTEX
  8
0
 10
-9.9442
 20
20.2210
 30
0.0000
  0
VERTEX
  8
0
 10
-9.6955
 20
20.2015
 30
0.0000
  0
SEQEND
  0
POLYLINE
  6
continous
  8
BYBLOCK
 70
0
 66
1
  0
VERTEX
  8
0
 10
14.1252
 20
15.5392
 30
0.0000
  0
VERTEX
  8
0
 10
14.1253
 20
15.5096
 30
0.0000
  0
SEQEND
  0
LINE
  6
continous
  8
BYBLOCK
 10
16.6170
 20
1.0988
 30
0.0000
 11
2839.3873
 21
1997.0988
 31
0.0000
  0
POLYLINE
  6
continous
  8
BYBLOCK
 70
0
 66
1
  0
VERTEX
  8
0
 10
14.1252
 20
5.7189
 30
0.0000
  0
VERTEX
  8
0
 10
14.1771
 20
5.1371
 30
0.0000
  0
VERTEX
  8
0
 10
14.3311
 20
4.5028
 30
0.0000
  0
VERTEX
  8
0
 10
14.6088
 20
3.7778
 30
0.0000
  0
VERTEX
  8
0
 10
14.9894
 20
3.0486
 30
0.0000
  0
VERTEX
  8
0
 10
15.4566
 20
2.3464
 30
0.0000
  0
VERTEX
  8
0
 10
15.9903
 20
1.7013
 30
0.0000
  0
VERTEX
  8
0
 10
16.5677
 20
1.1409
 30
0.0000
  0
VERTEX
  8
0
 10
16.6170
 20
1.0988
 30
0.0000
  0
SEQEND
  0
POLYLINE
  6
continous
  8
BYBLOCK
 70
0
 66
1
  0
VERTEX
  8
0
 10
2836.8954
 20
2001.7189
 30
0.0000
  0
VERTEX
  8
0
 10
2836.9474
 20
2001.1371
 30
0.0000
  0
VERTEX
  8
0
 10
2837.1014
 20
2000.5028
 30
0.0000
  0
VERTEX
  8
0
 10
2837.3791
 20
1999.7778
 30
0.0000
  0
VERTEX
  8
0
 10
2837.7597
 20
1999.0486
 30
0.0000
  0
VERTEX
  8
0
 10
2838.2269
 20
1998.3464
 30
0.0000
  0
VERTEX
  8
0
 10
2838.7606
 20
1997.7013
 30
0.0000
  0
VERTEX
  8
0
 10
2839.3380
 20
1997.1409
 30
0.0000
  0
VERTEX
  8
0
 10
2839.3873
 20
1997.0988
 30
0.0000
  0
SEQEND
  0
POLYLINE
  6
continous
  8
BYBLOCK
 70
0
 66
1
  0
VERTEX
  8
0
 10
33.5876
 20
61.8575
 30
0.0000
  0
VERTEX
  8
0
 10
32.7836
 20
61.2154
 30
0.0000
  0
VERTEX
  8
0
 10
32.0954
 20
60.5093
 30
0.0000
  0
VERTEX
  8
0
 10
31.5332
 20
59.7494
 30
0.0000
  0
VERTEX
  8
0
 10
31.1052
 20
58.9470
 30
0.0000
  0
VERTEX
  8
0
 10
30.8178
 20
58.1139
 30
0.0000
  0
VERTEX
  8
0
 10
30.6750
 20
57.2622
 30
0.0000
  0
VERTEX
  8
0
 10
30.6588
 20
56.8947
 30
0.0000
  0
SEQEND
  0
POLYLINE
  6
continous
  8
BYBLOCK
 70
0
 66
1
  0
VERTEX
  8
0
 10
50.6585
 20
56.8907
 30
0.0000
  0
VERTEX
  8
0
 10
50.5786
 20
57.7505
 30
0.0000
  0
VERTEX
  8
0
 10
50.3513
 20
58.5970
 30
0.0000
  0
VERTEX
  8
0
 10
49.9801
 20
59.4177
 30
0.0000
  0
VERTEX
  8
0
 10
49.4706
 20
60.2004
 30
0.0000
  0
VERTEX
  8
0
 10
48.8301
 20
60.9334
 30
0.0000
  0
VERTEX
  8
0
 10
48.0684
 20
61.6060
 30
0.0000
  0
VERTEX
  8
0
 10
47.1966
 20
62.2080
 30
0.0000
  0
VERTEX
  8
0
 10
46.0822
 20
62.7982
 30
0.0000
  0
VERTEX
  8
0
 10
44.8627
 20
63.2733
 30
0.0000
  0
VERTEX
  8
0
 10
43.5617
 20
63.6240
 30
0.0000
  0
VERTEX
  8
0
 10
42.2044
 20
63.8436
 30
0.0000
  0
VERTEX
  8
0
 10
40.8172
 20
63.9277
 30
0.0000
  0
VERTEX
  8
0
 10
39.4268
 20
63.8747
 30
0.0000
  0
VERTEX
  8
0
 10
38.0604
 20
63.6857
 30
0.0000
  0
VERTEX
  8
0
 10
36.7443
 20
63.3643
 30
0.0000
  0
VERTEX
  8
0
 10
35.5041
 20
62.9168
 30
0.0000
  0
VERTEX
  8
0
 10
34.3638
 20
62.3518
 30
0.0000
  0
VERTEX
  8
0
 10
33.5876
 20
61.8575
 30
0.0000
  0
SEQEND
  0
ENDBLK
  8
0
  0
ENDSEC
  0
SECTION
  2
ENTITIES
  0
INSERT
  8
REX_6
  2
_VIEW_CUT_Jan_16_22-24-47
 10
0.0000
 20
0.0000
 30
0.0000
  0
ENDSEC
  0
EOF
