  0
SECTION
  2
HEADER
  9
$ACADVER
  1
AC1009
  9
$INSBASE
 10
0.0
 20
0.0
 30
0.0
  9
$EXTMIN
 10
-290.879139
 20
-206.128034
 30
1.000000E+020
  9
$EXTMAX
 10
3119.306263
 20
2220.411591
 30
-1.000000E+020
  9
$LIMMIN
 10
0.0
 20
0.0
  9
$LIMMAX
 10
420.0
 20
297.0
  9
$ORTHOMODE
 70
     0
  9
$REGENMODE
 70
     1
  9
$FILLMODE
 70
     1
  9
$QTEXTMODE
 70
     0
  9
$MIRRTEXT
 70
     1
  9
$DRAGMODE
 70
     2
  9
$LTSCALE
 40
1.000000
  9
$OSMODE
 70
   103
  9
$ATTMODE
 70
     1
  9
$TEXTSIZE
 40
2.5
  9
$TRACEWID
 40
1.0
  9
$TEXTSTYLE
  7
STANDARD
  9
$CLAYER
  8
RAHM4
  9
$CELTYPE
  6
BYLAYER
  9
$CECOLOR
 62
   256
  9
$DIMSCALE
 40
1.0
  9
$DIMASZ
 40
2.5
  9
$DIMEXO
 40
0.625
  9
$DIMDLI
 40
3.75
  9
$DIMRND
 40
0.0
  9
$DIMDLE
 40
0.0
  9
$DIMEXE
 40
1.25
  9
$DIMTP
 40
0.0
  9
$DIMTM
 40
0.0
  9
$DIMTXT
 40
2.5
  9
$DIMCEN
 40
2.5
  9
$DIMTSZ
 40
0.0
  9
$DIMTOL
 70
     0
  9
$DIMLIM
 70
     0
  9
$DIMTIH
 70
     0
  9
$DIMTOH
 70
     0
  9
$DIMSE1
 70
     0
  9
$DIMSE2
 70
     0
  9
$DIMTAD
 70
     1
  9
$DIMZIN
 70
     8
  9
$DIMBLK
  1

  9
$DIMASO
 70
     1
  9
$DIMSHO
 70
     1
  9
$DIMPOST
  1

  9
$DIMAPOST
  1

  9
$DIMALT
 70
     0
  9
$DIMALTD
 70
     3
  9
$DIMALTF
 40
0.03937
  9
$DIMLFAC
 40
1.0
  9
$DIMTOFL
 70
     1
  9
$DIMTVP
 40
0.0
  9
$DIMTIX
 70
     0
  9
$DIMSOXD
 70
     0
  9
$DIMSAH
 70
     0
  9
$DIMBLK1
  1

  9
$DIMBLK2
  1

  9
$DIMSTYLE
  2
ISO-25
  9
$DIMCLRD
 70
     0
  9
$DIMCLRE
 70
     0
  9
$DIMCLRT
 70
     0
  9
$DIMTFAC
 40
1.0
  9
$DIMGAP
 40
0.625
  9
$LUNITS
 70
     2
  9
$LUPREC
 70
     4
  9
$SKETCHINC
 40
1.0
  9
$FILLETRAD
 40
10.0
  9
$AUNITS
 70
     0
  9
$AUPREC
 70
     0
  9
$MENU
  1
.
  9
$ELEVATION
 40
0.0
  9
$PELEVATION
 40
0.0
  9
$THICKNESS
 40
0.0
  9
$LIMCHECK
 70
     0
  9
$BLIPMODE
 70
     0
  9
$CHAMFERA
 40
10.0
  9
$CHAMFERB
 40
10.0
  9
$SKPOLY
 70
     0
  9
$TDCREATE
 40
2452830.438142
  9
$TDUPDATE
 40
2453952.51541
  9
$TDINDWG
 40
0.030794
  9
$TDUSRTIMER
 40
0.030789
  9
$USRTIMER
 70
     1
  9
$ANGBASE
 50
0.0
  9
$ANGDIR
 70
     0
  9
$PDMODE
 70
     0
  9
$PDSIZE
 40
0.0
  9
$PLINEWID
 40
0.0
  9
$COORDS
 70
     1
  9
$SPLFRAME
 70
     0
  9
$SPLINETYPE
 70
     6
  9
$SPLINESEGS
 70
     8
  9
$ATTDIA
 70
     0
  9
$ATTREQ
 70
     1
  9
$SURFTAB1
 70
     6
  9
$SURFTAB2
 70
     6
  9
$SURFTYPE
 70
     6
  9
$SURFU
 70
     6
  9
$SURFV
 70
     6
  9
$UCSNAME
  2

  9
$UCSORG
 10
0.0
 20
0.0
 30
0.0
  9
$UCSXDIR
 10
1.0
 20
0.0
 30
0.0
  9
$UCSYDIR
 10
0.0
 20
1.0
 30
0.0
  9
$PUCSNAME
  2

  9
$PUCSORG
 10
0.0
 20
0.0
 30
0.0
  9
$PUCSXDIR
 10
1.0
 20
0.0
 30
0.0
  9
$PUCSYDIR
 10
0.0
 20
1.0
 30
0.0
  9
$USERI1
 70
     0
  9
$USERI2
 70
     0
  9
$USERI3
 70
     0
  9
$USERI4
 70
     0
  9
$USERI5
 70
     0
  9
$USERR1
 40
0.0
  9
$USERR2
 40
0.0
  9
$USERR3
 40
0.0
  9
$USERR4
 40
0.0
  9
$USERR5
 40
0.0
  9
$WORLDVIEW
 70
     1
  9
$SHADEDGE
 70
     3
  9
$SHADEDIF
 70
    70
  9
$TILEMODE
 70
     1
  9
$MAXACTVP
 70
    64
  9
$PLIMCHECK
 70
     0
  9
$PEXTMIN
 10
1.000000E+020
 20
1.000000E+020
 30
1.000000E+020
  9
$PEXTMAX
 10
-1.000000E+020
 20
-1.000000E+020
 30
-1.000000E+020
  9
$PLIMMIN
 10
0.0
 20
0.0
  9
$PLIMMAX
 10
420.0
 20
297.0
  9
$UNITMODE
 70
     0
  9
$VISRETAIN
 70
     1
  9
$PLINEGEN
 70
     0
  9
$PSLTSCALE
 70
     1
  0
ENDSEC
  0
SECTION
  2
TABLES
  0
TABLE
  2
VPORT
 70
     2
  0
VPORT
  2
*ACTIVE
 70
     0
 10
0.0
 20
0.0
 11
1.0
 21
1.0
 12
424.672198
 22
148.5
 13
0.0
 23
0.0
 14
10.0
 24
10.0
 15
10.0
 25
10.0
 16
0.0
 26
0.0
 36
1.0
 17
0.0
 27
0.0
 37
0.0
 40
297.194831
 41
2.858921
 42
50.0
 43
0.0
 44
0.0
 50
0.0
 51
0.0
 71
     0
 72
   100
 73
     1
 74
     3
 75
     0
 76
     0
 77
     0
 78
     0
  0
ENDTAB
  0
TABLE
  2
LTYPE
 70
     5
  0
LTYPE
  2
CONTINUOUS
  70
0
  3
Solid line
 72
65
 73
0
 40
0.0
  0
LTYPE
  2
ACAD_ISO10W100
  70
0
  3
ISO Strichpunktlinie __ . __ . __ . __ . __ . _
 72
65
 73
4
 40
18.0
 49
12.0
 49
-3.0
 49
0.0
 49
-3.0
  0
LTYPE
  2
ACAD_ISO02W100
  70
0
  3
ISO Strichlinie __ __ __ __ __ __ __ __ __ __ _
 72
65
 73
2
 40
15.0
 49
12.0
 49
-3.0
  0
LTYPE
  2
STRICHLINIE
  70
0
  3
Strichlinie __ __ __ __ __ __ __ __ __ __ __ __
 72
65
 73
2
 40
0.75
 49
0.5
 49
-0.25
  0
LTYPE
  2
STRICHPUNKT
  70
0
  3
Strichpunkt __ . __ . __ . __ . __ . __ . __ . 
 72
65
 73
4
 40
1.0
 49
0.5
 49
-0.25
 49
0.0
 49
-0.25
  0
ENDTAB
  0
TABLE
  2
LAYER
 70
    14
  0
LAYER
  2
0
 70
0
 62
7
  6
CONTINUOUS
  0
LAYER
  2
REX_1
 70
0
 62
7
  6
CONTINUOUS
  0
LAYER
  2
REX_7
 70
0
 62
5
  6
STRICHPUNKT
  0
LAYER
  2
SILHOUETTE
 70
0
 62
7
  6
CONTINUOUS
  0
LAYER
  2
REX_8
 70
0
 62
1
  6
CONTINUOUS
  0
LAYER
  2
REX_3
 70
0
 62
6
  6
STRICHLINIE
  0
LAYER
  2
REX_4
 70
0
 62
5
  6
CONTINUOUS
  0
LAYER
  2
REX_5
 70
0
 62
3
  6
CONTINUOUS
  0
LAYER
  2
REX_6
 70
0
 62
40
  6
CONTINUOUS
  0
LAYER
  2
RAHM2
 70
0
 62
7
  6
CONTINUOUS
  0
LAYER
  2
RAHM3
 70
0
 62
7
  6
CONTINUOUS
  0
LAYER
  2
RAHM4
 70
0
 62
7
  6
CONTINUOUS
  0
LAYER
  2
RAHM5
 70
0
 62
7
  6
CONTINUOUS
  0
LAYER
  2
RAHMEN
 70
0
 62
7
  6
CONTINUOUS
  0
ENDTAB
  0
TABLE
  2
STYLE
 70
     3
  0
STYLE
  2
STANDARD
 70
     0
 40
0.0
 41
1.0
 50
0.0
 71
     0
 42
2.5
  3
isocp.shx
  4

  0
STYLE
  2
LOGO
 70
     0
 40
0.0
 41
1.0
 50
0.0
 71
     0
 42
0.2
  3
isocp.shx
  4

  0
STYLE
  2

 70
     1
 40
0.0
 41
1.0
 50
0.0
 71
     0
 42
2.5
  3
ltypeshp.shx
  4

  0
ENDTAB
  0
TABLE
  2
VIEW
 70
     0
  0
ENDTAB
  0
TABLE
  2
UCS
 70
     0
  0
ENDTAB
  0
TABLE
  2
APPID
 70
2
  0
APPID
  2
ACAD
 70
     0
  0
APPID
  2
DCO15
 70
     0
  0
ENDTAB
  0
TABLE
  2
DIMSTYLE
 70
     1
  0
DIMSTYLE
  2
ISO-25
 70
     0
  3

  4

  5

  6

  7

 40
1.0
 41
2.5
 42
0.625
 43
3.75
 44
1.25
 45
0.0
 46
0.0
 47
0.0
 48
0.0
140
2.5
141
2.5
142
0.0
143
0.03937
144
1.0
145
0.0
146
1.0
147
0.625
 71
     0
 72
     0
 73
     0
 74
     0
 75
     0
 76
     0
 77
     1
 78
     8
170
     0
171
     3
172
     1
173
     0
174
     0
175
     0
176
     0
177
     0
178
     0
  0
ENDTAB
  0
ENDSEC
  0
SECTION
  2
BLOCKS
  0
BLOCK
  8
REX_7
  2
8REX_MID_Jan_16_22-23-10
 70
0
 10
0.0000
 20
0.0000
 30
0.0000
  3
8REX_MID_Jan_16_22-23-10
  0
ENDBLK
  8
0
  0
BLOCK
  8
REX_1
  2
_VIEW_CUT_Jan_16_22-23-10
 70
0
 10
0.0000
 20
0.0000
 30
0.0000
  3
_VIEW_CUT_Jan_16_22-23-10
  0
INSERT
  8
REX_6
  2
8REX_MID_Jan_16_22-23-10
 10
0.0000
 20
0.0000
 30
0.0000
  0
POLYLINE
  6
continous
  8
BYBLOCK
 70
0
 66
1
  0
VERTEX
  8
0
 10
-3.7979
 20
9.8087
 30
0.0000
  0
VERTEX
  8
0
 10
-4.6249
 20
8.9055
 30
0.0000
  0
SEQEND
  0
POLYLINE
  6
continous
  8
BYBLOCK
 70
0
 66
1
  0
VERTEX
  8
0
 10
-4.1012
 20
10.5494
 30
0.0000
  0
VERTEX
  8
0
 10
-5.8485
 20
8.5017
 30
0.0000
  0
SEQEND
  0
LINE
  6
continous
  8
BYBLOCK
 10
-5.8485
 20
8.1734
 30
0.0000
 11
-6.6970
 21
7.2116
 31
0.0000
  0
LINE
  6
continous
  8
BYBLOCK
 10
9.1924
 20
-2.6515
 30
0.0000
 11
2833.3769
 21
1994.3485
 31
0.0000
  0
LINE
  6
continous
  8
BYBLOCK
 10
9.1924
 20
-0.8079
 30
0.0000
 11
2833.3769
 21
1996.1921
 31
0.0000
  0
LINE
  6
continous
  8
BYBLOCK
 10
8.3439
 20
0.2820
 30
0.0000
 11
2832.5283
 21
1997.2820
 31
0.0000
  0
LINE
  6
continous
  8
BYBLOCK
 10
8.3439
 20
1.7494
 30
0.0000
 11
2832.5283
 21
1998.7494
 31
0.0000
  0
LINE
  6
continous
  8
BYBLOCK
 10
7.0654
 20
3.8868
 30
0.0000
 11
2831.2499
 21
2000.8868
 31
0.0000
  0
LINE
  6
continous
  8
BYBLOCK
 10
6.2933
 20
4.8786
 30
0.0000
 11
2830.4777
 21
2001.8786
 31
0.0000
  0
LINE
  6
continous
  8
BYBLOCK
 10
8.3439
 20
9.9869
 30
0.0000
 11
2832.5283
 21
2006.9869
 31
0.0000
  0
LINE
  6
continous
  8
BYBLOCK
 10
8.3439
 20
11.2810
 30
0.0000
 11
2832.5283
 21
2008.2810
 31
0.0000
  0
LINE
  6
continous
  8
BYBLOCK
 10
-3.7512
 20
20.1836
 30
0.0000
 11
-5.7176
 21
18.2000
 31
0.0000
  0
LINE
  6
continous
  8
BYBLOCK
 10
7.9939
 20
11.8785
 30
0.0000
 11
5.7176
 21
10.1140
 31
0.0000
  0
LINE
  6
continous
  8
BYBLOCK
 10
8.3439
 20
11.2810
 30
0.0000
 11
7.9939
 21
11.8785
 31
0.0000
  0
LINE
  6
continous
  8
BYBLOCK
 10
8.3439
 20
11.2810
 30
0.0000
 11
5.8485
 21
9.8906
 31
0.0000
  0
LINE
  6
continous
  8
BYBLOCK
 10
8.3439
 20
9.9869
 30
0.0000
 11
8.3439
 21
11.2810
 31
0.0000
  0
POLYLINE
  6
continous
  8
BYBLOCK
 70
0
 66
1
  0
VERTEX
  8
0
 10
8.3439
 20
9.9869
 30
0.0000
  0
VERTEX
  8
0
 10
5.8485
 20
9.0345
 30
0.0000
  0
SEQEND
  0
POLYLINE
  6
continous
  8
BYBLOCK
 70
0
 66
1
  0
VERTEX
  8
0
 10
5.6917
 20
9.0806
 30
0.0000
  0
VERTEX
  8
0
 10
4.6249
 20
8.6308
 30
0.0000
  0
SEQEND
  0
LINE
  6
continous
  8
BYBLOCK
 10
6.2933
 20
4.8786
 30
0.0000
 11
6.2933
 21
9.2075
 31
0.0000
  0
LINE
  6
continous
  8
BYBLOCK
 10
6.2933
 20
4.8786
 30
0.0000
 11
3.7979
 21
3.4271
 31
0.0000
  0
LINE
  6
continous
  8
BYBLOCK
 10
7.0654
 20
3.8868
 30
0.0000
 11
6.2933
 21
4.8786
 31
0.0000
  0
POLYLINE
  6
continous
  8
BYBLOCK
 70
0
 66
1
  0
VERTEX
  8
0
 10
7.0654
 20
3.8868
 30
0.0000
  0
VERTEX
  8
0
 10
4.6249
 20
2.3648
 30
0.0000
  0
SEQEND
  0
POLYLINE
  6
continous
  8
BYBLOCK
 70
0
 66
1
  0
VERTEX
  8
0
 10
7.0654
 20
3.8868
 30
0.0000
  0
VERTEX
  8
0
 10
7.2018
 20
3.4171
 30
0.0000
  0
VERTEX
  8
0
 10
7.4243
 20
2.9304
 30
0.0000
  0
VERTEX
  8
0
 10
7.7432
 20
2.4230
 30
0.0000
  0
VERTEX
  8
0
 10
8.1242
 20
1.9637
 30
0.0000
  0
VERTEX
  8
0
 10
8.3439
 20
1.7494
 30
0.0000
  0
SEQEND
  0
POLYLINE
  6
continous
  8
BYBLOCK
 70
0
 66
1
  0
VERTEX
  8
0
 10
8.3439
 20
1.7494
 30
0.0000
  0
VERTEX
  8
0
 10
5.8485
 20
0.2307
 30
0.0000
  0
SEQEND
  0
LINE
  6
continous
  8
BYBLOCK
 10
8.3439
 20
0.2820
 30
0.0000
 11
8.3439
 21
1.7494
 31
0.0000
  0
LINE
  6
continous
  8
BYBLOCK
 10
8.3439
 20
0.2820
 30
0.0000
 11
5.8485
 21
-1.1695
 31
0.0000
  0
LINE
  6
continous
  8
BYBLOCK
 10
9.1924
 20
-0.8079
 30
0.0000
 11
8.3439
 21
0.2820
 31
0.0000
  0
LINE
  6
continous
  8
BYBLOCK
 10
9.1924
 20
-0.8079
 30
0.0000
 11
6.6970
 21
-2.2594
 31
0.0000
  0
LINE
  6
continous
  8
BYBLOCK
 10
9.1924
 20
-2.6515
 30
0.0000
 11
9.1924
 21
-0.8079
 31
0.0000
  0
LINE
  6
continous
  8
BYBLOCK
 10
9.1924
 20
-2.6515
 30
0.0000
 11
6.6970
 21
-3.7320
 31
0.0000
  0
LINE
  6
continous
  8
BYBLOCK
 10
-6.6970
 20
5.7390
 30
0.0000
 11
-6.0676
 21
4.6645
 31
0.0000
  0
LINE
  6
continous
  8
BYBLOCK
 10
-6.6970
 20
7.2116
 30
0.0000
 11
-6.6970
 21
5.7390
 31
0.0000
  0
LINE
  6
continous
  8
BYBLOCK
 10
-5.8485
 20
7.1015
 30
0.0000
 11
-6.6970
 21
7.2116
 31
0.0000
  0
LINE
  6
continous
  8
BYBLOCK
 10
-5.8485
 20
8.5017
 30
0.0000
 11
-5.8485
 21
7.1015
 31
0.0000
  0
POLYLINE
  6
continous
  8
BYBLOCK
 70
0
 66
1
  0
VERTEX
  8
0
 10
-4.7865
 20
8.6510
 30
0.0000
  0
VERTEX
  8
0
 10
-5.0042
 20
8.4925
 30
0.0000
  0
VERTEX
  8
0
 10
-5.2771
 20
8.4197
 30
0.0000
  0
VERTEX
  8
0
 10
-5.5952
 20
8.4351
 30
0.0000
  0
VERTEX
  8
0
 10
-5.8485
 20
8.5017
 30
0.0000
  0
SEQEND
  0
POLYLINE
  6
continous
  8
BYBLOCK
 70
0
 66
1
  0
VERTEX
  8
0
 10
-4.6249
 20
8.9055
 30
0.0000
  0
VERTEX
  8
0
 10
-4.7703
 20
8.6690
 30
0.0000
  0
VERTEX
  8
0
 10
-4.7865
 20
8.6510
 30
0.0000
  0
SEQEND
  0
LINE
  6
continous
  8
BYBLOCK
 10
-3.7979
 20
8.7982
 30
0.0000
 11
-4.6249
 21
8.9055
 31
0.0000
  0
LINE
  6
continous
  8
BYBLOCK
 10
-3.7979
 20
14.1091
 30
0.0000
 11
-3.7979
 21
8.7982
 31
0.0000
  0
LINE
  6
continous
  8
BYBLOCK
 10
-4.6249
 20
15.1714
 30
0.0000
 11
-3.7979
 21
14.1091
 31
0.0000
  0
POLYLINE
  6
continous
  8
BYBLOCK
 70
0
 66
1
  0
VERTEX
  8
0
 10
-5.8485
 20
17.3056
 30
0.0000
  0
VERTEX
  8
0
 10
-5.4195
 20
16.7848
 30
0.0000
  0
VERTEX
  8
0
 10
-5.0546
 20
16.2136
 30
0.0000
  0
VERTEX
  8
0
 10
-4.7746
 20
15.6246
 30
0.0000
  0
VERTEX
  8
0
 10
-4.6249
 20
15.1714
 30
0.0000
  0
SEQEND
  0
LINE
  6
continous
  8
BYBLOCK
 10
-5.7176
 20
18.2000
 30
0.0000
 11
-5.8485
 21
18.1616
 31
0.0000
  0
LINE
  6
continous
  8
BYBLOCK
 10
5.7176
 20
10.1140
 30
0.0000
 11
-5.7176
 21
18.2000
 31
0.0000
  0
LINE
  6
continous
  8
BYBLOCK
 10
5.8485
 20
9.8906
 30
0.0000
 11
5.7176
 21
10.1140
 31
0.0000
  0
LINE
  6
continous
  8
BYBLOCK
 10
5.8485
 20
9.0345
 30
0.0000
 11
5.8485
 21
9.8906
 31
0.0000
  0
POLYLINE
  6
continous
  8
BYBLOCK
 70
0
 66
1
  0
VERTEX
  8
0
 10
5.0225
 20
9.0521
 30
0.0000
  0
VERTEX
  8
0
 10
5.3010
 20
9.1186
 30
0.0000
  0
VERTEX
  8
0
 10
5.6245
 20
9.0956
 30
0.0000
  0
VERTEX
  8
0
 10
5.8485
 20
9.0345
 30
0.0000
  0
SEQEND
  0
POLYLINE
  6
continous
  8
BYBLOCK
 70
0
 66
1
  0
VERTEX
  8
0
 10
4.6249
 20
8.6308
 30
0.0000
  0
VERTEX
  8
0
 10
4.7716
 20
8.8688
 30
0.0000
  0
VERTEX
  8
0
 10
4.9788
 20
9.0312
 30
0.0000
  0
VERTEX
  8
0
 10
5.0225
 20
9.0521
 30
0.0000
  0
SEQEND
  0
LINE
  6
continous
  8
BYBLOCK
 10
3.7979
 20
8.7381
 30
0.0000
 11
4.6249
 21
8.6308
 31
0.0000
  0
LINE
  6
continous
  8
BYBLOCK
 10
3.7979
 20
3.4271
 30
0.0000
 11
3.7979
 21
8.7381
 31
0.0000
  0
LINE
  6
continous
  8
BYBLOCK
 10
4.6249
 20
2.3648
 30
0.0000
 11
3.7979
 21
3.4271
 31
0.0000
  0
POLYLINE
  6
continous
  8
BYBLOCK
 70
0
 66
1
  0
VERTEX
  8
0
 10
5.8485
 20
0.2307
 30
0.0000
  0
VERTEX
  8
0
 10
5.4195
 20
0.7514
 30
0.0000
  0
VERTEX
  8
0
 10
5.0546
 20
1.3227
 30
0.0000
  0
VERTEX
  8
0
 10
4.7746
 20
1.9117
 30
0.0000
  0
VERTEX
  8
0
 10
4.6249
 20
2.3648
 30
0.0000
  0
SEQEND
  0
LINE
  6
continous
  8
BYBLOCK
 10
5.8485
 20
-1.1695
 30
0.0000
 11
5.8485
 21
0.2307
 31
0.0000
  0
LINE
  6
continous
  8
BYBLOCK
 10
6.6970
 20
-2.2594
 30
0.0000
 11
5.8485
 21
-1.1695
 31
0.0000
  0
LINE
  6
continous
  8
BYBLOCK
 10
6.6970
 20
-3.7320
 30
0.0000
 11
6.6970
 21
-2.2594
 31
0.0000
  0
LINE
  6
continous
  8
BYBLOCK
 10
6.0676
 20
-3.9164
 30
0.0000
 11
6.6970
 21
-3.7320
 31
0.0000
  0
LINE
  6
continous
  8
BYBLOCK
 10
-6.0676
 20
4.6645
 30
0.0000
 11
6.0676
 21
-3.9164
 31
0.0000
  0
LINE
  6
continous
  8
BYBLOCK
 10
-4.1012
 20
20.0810
 30
0.0000
 11
-5.8485
 21
18.1616
 31
0.0000
  0
LINE
  6
continous
  8
BYBLOCK
 10
-5.8485
 20
18.1616
 30
0.0000
 11
-5.8485
 21
17.3056
 31
0.0000
  0
POLYLINE
  6
continous
  8
BYBLOCK
 70
0
 66
1
  0
VERTEX
  8
0
 10
-4.1012
 20
10.5494
 30
0.0000
  0
VERTEX
  8
0
 10
-3.7971
 20
10.4250
 30
0.0000
  0
SEQEND
  0
POLYLINE
  6
continous
  8
BYBLOCK
 70
0
 66
1
  0
VERTEX
  8
0
 10
2810.9616
 20
2006.8103
 30
0.0000
  0
VERTEX
  8
0
 10
2810.4415
 20
2006.3731
 30
0.0000
  0
VERTEX
  8
0
 10
2810.0702
 20
2005.9309
 30
0.0000
  0
VERTEX
  8
0
 10
2809.7998
 20
2005.4535
 30
0.0000
  0
VERTEX
  8
0
 10
2809.6368
 20
2004.9523
 30
0.0000
  0
VERTEX
  8
0
 10
2809.5853
 20
2004.4965
 30
0.0000
  0
SEQEND
  0
LINE
  6
continous
  8
BYBLOCK
 10
2810.9616
 20
2006.8103
 30
0.0000
 11
2810.9616
 21
2006.8810
 31
0.0000
  0
POLYLINE
  6
continous
  8
BYBLOCK
 70
0
 66
1
  0
VERTEX
  8
0
 10
2818.9847
 20
2004.4946
 30
0.0000
  0
VERTEX
  8
0
 10
2818.9198
 20
2005.0118
 30
0.0000
  0
VERTEX
  8
0
 10
2818.7418
 20
2005.5155
 30
0.0000
  0
VERTEX
  8
0
 10
2818.4550
 20
2005.9935
 30
0.0000
  0
VERTEX
  8
0
 10
2818.0664
 20
2006.4341
 30
0.0000
  0
VERTEX
  8
0
 10
2817.5268
 20
2006.8666
 30
0.0000
  0
VERTEX
  8
0
 10
2816.8896
 20
2007.2267
 30
0.0000
  0
VERTEX
  8
0
 10
2816.1740
 20
2007.5035
 30
0.0000
  0
VERTEX
  8
0
 10
2815.4015
 20
2007.6886
 30
0.0000
  0
VERTEX
  8
0
 10
2814.5953
 20
2007.7765
 30
0.0000
  0
VERTEX
  8
0
 10
2813.7798
 20
2007.7645
 30
0.0000
  0
VERTEX
  8
0
 10
2812.9795
 20
2007.6530
 30
0.0000
  0
VERTEX
  8
0
 10
2812.2185
 20
2007.4453
 30
0.0000
  0
VERTEX
  8
0
 10
2811.5198
 20
2007.1477
 30
0.0000
  0
VERTEX
  8
0
 10
2810.9616
 20
2006.8103
 30
0.0000
  0
SEQEND
  0
POLYLINE
  6
continous
  8
BYBLOCK
 70
0
 66
1
  0
VERTEX
  8
0
 10
2768.5352
 20
1976.8103
 30
0.0000
  0
VERTEX
  8
0
 10
2768.0151
 20
1976.3731
 30
0.0000
  0
VERTEX
  8
0
 10
2767.6438
 20
1975.9309
 30
0.0000
  0
VERTEX
  8
0
 10
2767.3734
 20
1975.4535
 30
0.0000
  0
VERTEX
  8
0
 10
2767.2104
 20
1974.9523
 30
0.0000
  0
VERTEX
  8
0
 10
2767.1589
 20
1974.4965
 30
0.0000
  0
SEQEND
  0
LINE
  6
continous
  8
BYBLOCK
 10
2768.5352
 20
1976.8103
 30
0.0000
 11
2768.5352
 21
1976.8810
 31
0.0000
  0
POLYLINE
  6
continous
  8
BYBLOCK
 70
0
 66
1
  0
VERTEX
  8
0
 10
2776.5583
 20
1974.4946
 30
0.0000
  0
VERTEX
  8
0
 10
2776.4934
 20
1975.0118
 30
0.0000
  0
VERTEX
  8
0
 10
2776.3154
 20
1975.5155
 30
0.0000
  0
VERTEX
  8
0
 10
2776.0286
 20
1975.9935
 30
0.0000
  0
VERTEX
  8
0
 10
2775.6400
 20
1976.4341
 30
0.0000
  0
VERTEX
  8
0
 10
2775.1004
 20
1976.8666
 30
0.0000
  0
VERTEX
  8
0
 10
2774.4632
 20
1977.2267
 30
0.0000
  0
VERTEX
  8
0
 10
2773.7476
 20
1977.5035
 30
0.0000
  0
VERTEX
  8
0
 10
2772.9751
 20
1977.6886
 30
0.0000
  0
VERTEX
  8
0
 10
2772.1689
 20
1977.7765
 30
0.0000
  0
VERTEX
  8
0
 10
2771.3534
 20
1977.7645
 30
0.0000
  0
VERTEX
  8
0
 10
2770.5531
 20
1977.6530
 30
0.0000
  0
VERTEX
  8
0
 10
2769.7921
 20
1977.4453
 30
0.0000
  0
VERTEX
  8
0
 10
2769.0934
 20
1977.1477
 30
0.0000
  0
VERTEX
  8
0
 10
2768.5352
 20
1976.8103
 30
0.0000
  0
SEQEND
  0
POLYLINE
  6
continous
  8
BYBLOCK
 70
0
 66
1
  0
VERTEX
  8
0
 10
2726.1088
 20
1946.8103
 30
0.0000
  0
VERTEX
  8
0
 10
2725.5887
 20
1946.3731
 30
0.0000
  0
VERTEX
  8
0
 10
2725.2174
 20
1945.9309
 30
0.0000
  0
VERTEX
  8
0
 10
2724.9470
 20
1945.4535
 30
0.0000
  0
VERTEX
  8
0
 10
2724.7840
 20
1944.9523
 30
0.0000
  0
VERTEX
  8
0
 10
2724.7325
 20
1944.4965
 30
0.0000
  0
SEQEND
  0
LINE
  6
continous
  8
BYBLOCK
 10
2726.1088
 20
1946.8103
 30
0.0000
 11
2726.1088
 21
1946.8810
 31
0.0000
  0
POLYLINE
  6
continous
  8
BYBLOCK
 70
0
 66
1
  0
VERTEX
  8
0
 10
2734.1319
 20
1944.4946
 30
0.0000
  0
VERTEX
  8
0
 10
2734.0670
 20
1945.0118
 30
0.0000
  0
VERTEX
  8
0
 10
2733.8890
 20
1945.5155
 30
0.0000
  0
VERTEX
  8
0
 10
2733.6022
 20
1945.9935
 30
0.0000
  0
VERTEX
  8
0
 10
2733.2136
 20
1946.4341
 30
0.0000
  0
VERTEX
  8
0
 10
2732.6740
 20
1946.8666
 30
0.0000
  0
VERTEX
  8
0
 10
2732.0368
 20
1947.2267
 30
0.0000
  0
VERTEX
  8
0
 10
2731.3212
 20
1947.5035
 30
0.0000
  0
VERTEX
  8
0
 10
2730.5487
 20
1947.6886
 30
0.0000
  0
VERTEX
  8
0
 10
2729.7425
 20
1947.7765
 30
0.0000
  0
VERTEX
  8
0
 10
2728.9270
 20
1947.7645
 30
0.0000
  0
VERTEX
  8
0
 10
2728.1267
 20
1947.6530
 30
0.0000
  0
VERTEX
  8
0
 10
2727.3657
 20
1947.4453
 30
0.0000
  0
VERTEX
  8
0
 10
2726.6670
 20
1947.1477
 30
0.0000
  0
VERTEX
  8
0
 10
2726.1088
 20
1946.8103
 30
0.0000
  0
SEQEND
  0
POLYLINE
  6
continous
  8
BYBLOCK
 70
0
 66
1
  0
VERTEX
  8
0
 10
2683.6824
 20
1916.8103
 30
0.0000
  0
VERTEX
  8
0
 10
2683.1623
 20
1916.3731
 30
0.0000
  0
VERTEX
  8
0
 10
2682.7910
 20
1915.9309
 30
0.0000
  0
VERTEX
  8
0
 10
2682.5205
 20
1915.4535
 30
0.0000
  0
VERTEX
  8
0
 10
2682.3575
 20
1914.9523
 30
0.0000
  0
VERTEX
  8
0
 10
2682.3060
 20
1914.4965
 30
0.0000
  0
SEQEND
  0
LINE
  6
continous
  8
BYBLOCK
 10
2683.6824
 20
1916.8103
 30
0.0000
 11
2683.6824
 21
1916.8810
 31
0.0000
  0
POLYLINE
  6
continous
  8
BYBLOCK
 70
0
 66
1
  0
VERTEX
  8
0
 10
2691.7055
 20
1914.4946
 30
0.0000
  0
VERTEX
  8
0
 10
2691.6406
 20
1915.0118
 30
0.0000
  0
VERTEX
  8
0
 10
2691.4626
 20
1915.5155
 30
0.0000
  0
VERTEX
  8
0
 10
2691.1758
 20
1915.9935
 30
0.0000
  0
VERTEX
  8
0
 10
2690.7872
 20
1916.4341
 30
0.0000
  0
VERTEX
  8
0
 10
2690.2476
 20
1916.8666
 30
0.0000
  0
VERTEX
  8
0
 10
2689.6104
 20
1917.2267
 30
0.0000
  0
VERTEX
  8
0
 10
2688.8948
 20
1917.5035
 30
0.0000
  0
VERTEX
  8
0
 10
2688.1222
 20
1917.6886
 30
0.0000
  0
VERTEX
  8
0
 10
2687.3161
 20
1917.7765
 30
0.0000
  0
VERTEX
  8
0
 10
2686.5006
 20
1917.7645
 30
0.0000
  0
VERTEX
  8
0
 10
2685.7003
 20
1917.6530
 30
0.0000
  0
VERTEX
  8
0
 10
2684.9393
 20
1917.4453
 30
0.0000
  0
VERTEX
  8
0
 10
2684.2406
 20
1917.1477
 30
0.0000
  0
VERTEX
  8
0
 10
2683.6824
 20
1916.8103
 30
0.0000
  0
SEQEND
  0
POLYLINE
  6
continous
  8
BYBLOCK
 70
0
 66
1
  0
VERTEX
  8
0
 10
2641.2560
 20
1886.8103
 30
0.0000
  0
VERTEX
  8
0
 10
2640.7359
 20
1886.3731
 30
0.0000
  0
VERTEX
  8
0
 10
2640.3645
 20
1885.9309
 30
0.0000
  0
VERTEX
  8
0
 10
2640.0941
 20
1885.4535
 30
0.0000
  0
VERTEX
  8
0
 10
2639.9311
 20
1884.9523
 30
0.0000
  0
VERTEX
  8
0
 10
2639.8796
 20
1884.4965
 30
0.0000
  0
SEQEND
  0
LINE
  6
continous
  8
BYBLOCK
 10
2641.2560
 20
1886.8103
 30
0.0000
 11
2641.2560
 21
1886.8810
 31
0.0000
  0
POLYLINE
  6
continous
  8
BYBLOCK
 70
0
 66
1
  0
VERTEX
  8
0
 10
2649.2791
 20
1884.4946
 30
0.0000
  0
VERTEX
  8
0
 10
2649.2142
 20
1885.0118
 30
0.0000
  0
VERTEX
  8
0
 10
2649.0362
 20
1885.5155
 30
0.0000
  0
VERTEX
  8
0
 10
2648.7494
 20
1885.9935
 30
0.0000
  0
VERTEX
  8
0
 10
2648.3607
 20
1886.4341
 30
0.0000
  0
VERTEX
  8
0
 10
2647.8212
 20
1886.8666
 30
0.0000
  0
VERTEX
  8
0
 10
2647.1840
 20
1887.2267
 30
0.0000
  0
VERTEX
  8
0
 10
2646.4684
 20
1887.5035
 30
0.0000
  0
VERTEX
  8
0
 10
2645.6958
 20
1887.6886
 30
0.0000
  0
VERTEX
  8
0
 10
2644.8897
 20
1887.7765
 30
0.0000
  0
VERTEX
  8
0
 10
2644.0742
 20
1887.7645
 30
0.0000
  0
VERTEX
  8
0
 10
2643.2739
 20
1887.6530
 30
0.0000
  0
VERTEX
  8
0
 10
2642.5129
 20
1887.4453
 30
0.0000
  0
VERTEX
  8
0
 10
2641.8142
 20
1887.1477
 30
0.0000
  0
VERTEX
  8
0
 10
2641.2560
 20
1886.8103
 30
0.0000
  0
SEQEND
  0
POLYLINE
  6
continous
  8
BYBLOCK
 70
0
 66
1
  0
VERTEX
  8
0
 10
2598.8296
 20
1856.8103
 30
0.0000
  0
VERTEX
  8
0
 10
2598.3095
 20
1856.3731
 30
0.0000
  0
VERTEX
  8
0
 10
2597.9381
 20
1855.9309
 30
0.0000
  0
VERTEX
  8
0
 10
2597.6677
 20
1855.4535
 30
0.0000
  0
VERTEX
  8
0
 10
2597.5047
 20
1854.9523
 30
0.0000
  0
VERTEX
  8
0
 10
2597.4532
 20
1854.4965
 30
0.0000
  0
SEQEND
  0
LINE
  6
continous
  8
BYBLOCK
 10
2598.8296
 20
1856.8103
 30
0.0000
 11
2598.8296
 21
1856.8810
 31
0.0000
  0
POLYLINE
  6
continous
  8
BYBLOCK
 70
0
 66
1
  0
VERTEX
  8
0
 10
2606.8527
 20
1854.4946
 30
0.0000
  0
VERTEX
  8
0
 10
2606.7878
 20
1855.0118
 30
0.0000
  0
VERTEX
  8
0
 10
2606.6098
 20
1855.5155
 30
0.0000
  0
VERTEX
  8
0
 10
2606.3229
 20
1855.9935
 30
0.0000
  0
VERTEX
  8
0
 10
2605.9343
 20
1856.4341
 30
0.0000
  0
VERTEX
  8
0
 10
2605.3948
 20
1856.8666
 30
0.0000
  0
VERTEX
  8
0
 10
2604.7576
 20
1857.2267
 30
0.0000
  0
VERTEX
  8
0
 10
2604.0420
 20
1857.5035
 30
0.0000
  0
VERTEX
  8
0
 10
2603.2694
 20
1857.6886
 30
0.0000
  0
VERTEX
  8
0
 10
2602.4633
 20
1857.7765
 30
0.0000
  0
VERTEX
  8
0
 10
2601.6478
 20
1857.7645
 30
0.0000
  0
VERTEX
  8
0
 10
2600.8475
 20
1857.6530
 30
0.0000
  0
VERTEX
  8
0
 10
2600.0865
 20
1857.4453
 30
0.0000
  0
VERTEX
  8
0
 10
2599.3878
 20
1857.1477
 30
0.0000
  0
VERTEX
  8
0
 10
2598.8296
 20
1856.8103
 30
0.0000
  0
SEQEND
  0
POLYLINE
  6
continous
  8
BYBLOCK
 70
0
 66
1
  0
VERTEX
  8
0
 10
2556.4031
 20
1826.8103
 30
0.0000
  0
VERTEX
  8
0
 10
2555.8831
 20
1826.3731
 30
0.0000
  0
VERTEX
  8
0
 10
2555.5117
 20
1825.9309
 30
0.0000
  0
VERTEX
  8
0
 10
2555.2413
 20
1825.4535
 30
0.0000
  0
VERTEX
  8
0
 10
2555.0783
 20
1824.9523
 30
0.0000
  0
VERTEX
  8
0
 10
2555.0268
 20
1824.4965
 30
0.0000
  0
SEQEND
  0
LINE
  6
continous
  8
BYBLOCK
 10
2556.4031
 20
1826.8103
 30
0.0000
 11
2556.4031
 21
1826.8810
 31
0.0000
  0
POLYLINE
  6
continous
  8
BYBLOCK
 70
0
 66
1
  0
VERTEX
  8
0
 10
2564.4263
 20
1824.4946
 30
0.0000
  0
VERTEX
  8
0
 10
2564.3614
 20
1825.0118
 30
0.0000
  0
VERTEX
  8
0
 10
2564.1834
 20
1825.5155
 30
0.0000
  0
VERTEX
  8
0
 10
2563.8965
 20
1825.9935
 30
0.0000
  0
VERTEX
  8
0
 10
2563.5079
 20
1826.4341
 30
0.0000
  0
VERTEX
  8
0
 10
2562.9684
 20
1826.8666
 30
0.0000
  0
VERTEX
  8
0
 10
2562.3312
 20
1827.2267
 30
0.0000
  0
VERTEX
  8
0
 10
2561.6156
 20
1827.5035
 30
0.0000
  0
VERTEX
  8
0
 10
2560.8430
 20
1827.6886
 30
0.0000
  0
VERTEX
  8
0
 10
2560.0369
 20
1827.7765
 30
0.0000
  0
VERTEX
  8
0
 10
2559.2213
 20
1827.7645
 30
0.0000
  0
VERTEX
  8
0
 10
2558.4211
 20
1827.6530
 30
0.0000
  0
VERTEX
  8
0
 10
2557.6601
 20
1827.4453
 30
0.0000
  0
VERTEX
  8
0
 10
2556.9613
 20
1827.1477
 30
0.0000
  0
VERTEX
  8
0
 10
2556.4031
 20
1826.8103
 30
0.0000
  0
SEQEND
  0
POLYLINE
  6
continous
  8
BYBLOCK
 70
0
 66
1
  0
VERTEX
  8
0
 10
2513.9767
 20
1796.8103
 30
0.0000
  0
VERTEX
  8
0
 10
2513.4567
 20
1796.3731
 30
0.0000
  0
VERTEX
  8
0
 10
2513.0853
 20
1795.9309
 30
0.0000
  0
VERTEX
  8
0
 10
2512.8149
 20
1795.4535
 30
0.0000
  0
VERTEX
  8
0
 10
2512.6519
 20
1794.9523
 30
0.0000
  0
VERTEX
  8
0
 10
2512.6004
 20
1794.4965
 30
0.0000
  0
SEQEND
  0
LINE
  6
continous
  8
BYBLOCK
 10
2513.9767
 20
1796.8103
 30
0.0000
 11
2513.9767
 21
1796.8810
 31
0.0000
  0
POLYLINE
  6
continous
  8
BYBLOCK
 70
0
 66
1
  0
VERTEX
  8
0
 10
2521.9999
 20
1794.4946
 30
0.0000
  0
VERTEX
  8
0
 10
2521.9350
 20
1795.0118
 30
0.0000
  0
VERTEX
  8
0
 10
2521.7570
 20
1795.5155
 30
0.0000
  0
VERTEX
  8
0
 10
2521.4701
 20
1795.9935
 30
0.0000
  0
VERTEX
  8
0
 10
2521.0815
 20
1796.4341
 30
0.0000
  0
VERTEX
  8
0
 10
2520.5420
 20
1796.8666
 30
0.0000
  0
VERTEX
  8
0
 10
2519.9048
 20
1797.2267
 30
0.0000
  0
VERTEX
  8
0
 10
2519.1892
 20
1797.5035
 30
0.0000
  0
VERTEX
  8
0
 10
2518.4166
 20
1797.6886
 30
0.0000
  0
VERTEX
  8
0
 10
2517.6105
 20
1797.7765
 30
0.0000
  0
VERTEX
  8
0
 10
2516.7949
 20
1797.7645
 30
0.0000
  0
VERTEX
  8
0
 10
2515.9946
 20
1797.6530
 30
0.0000
  0
VERTEX
  8
0
 10
2515.2337
 20
1797.4453
 30
0.0000
  0
VERTEX
  8
0
 10
2514.5349
 20
1797.1477
 30
0.0000
  0
VERTEX
  8
0
 10
2513.9767
 20
1796.8103
 30
0.0000
  0
SEQEND
  0
POLYLINE
  6
continous
  8
BYBLOCK
 70
0
 66
1
  0
VERTEX
  8
0
 10
2471.5503
 20
1766.8103
 30
0.0000
  0
VERTEX
  8
0
 10
2471.0303
 20
1766.3731
 30
0.0000
  0
VERTEX
  8
0
 10
2470.6589
 20
1765.9309
 30
0.0000
  0
VERTEX
  8
0
 10
2470.3885
 20
1765.4535
 30
0.0000
  0
VERTEX
  8
0
 10
2470.2255
 20
1764.9523
 30
0.0000
  0
VERTEX
  8
0
 10
2470.1740
 20
1764.4965
 30
0.0000
  0
SEQEND
  0
LINE
  6
continous
  8
BYBLOCK
 10
2471.5503
 20
1766.8103
 30
0.0000
 11
2471.5503
 21
1766.8810
 31
0.0000
  0
POLYLINE
  6
continous
  8
BYBLOCK
 70
0
 66
1
  0
VERTEX
  8
0
 10
2479.5735
 20
1764.4946
 30
0.0000
  0
VERTEX
  8
0
 10
2479.5086
 20
1765.0118
 30
0.0000
  0
VERTEX
  8
0
 10
2479.3305
 20
1765.5155
 30
0.0000
  0
VERTEX
  8
0
 10
2479.0437
 20
1765.9935
 30
0.0000
  0
VERTEX
  8
0
 10
2478.6551
 20
1766.4341
 30
0.0000
  0
VERTEX
  8
0
 10
2478.1156
 20
1766.8666
 30
0.0000
  0
VERTEX
  8
0
 10
2477.4784
 20
1767.2267
 30
0.0000
  0
VERTEX
  8
0
 10
2476.7627
 20
1767.5035
 30
0.0000
  0
VERTEX
  8
0
 10
2475.9902
 20
1767.6886
 30
0.0000
  0
VERTEX
  8
0
 10
2475.1840
 20
1767.7765
 30
0.0000
  0
VERTEX
  8
0
 10
2474.3685
 20
1767.7645
 30
0.0000
  0
VERTEX
  8
0
 10
2473.5682
 20
1767.6530
 30
0.0000
  0
VERTEX
  8
0
 10
2472.8073
 20
1767.4453
 30
0.0000
  0
VERTEX
  8
0
 10
2472.1085
 20
1767.1477
 30
0.0000
  0
VERTEX
  8
0
 10
2471.5503
 20
1766.8103
 30
0.0000
  0
SEQEND
  0
POLYLINE
  6
continous
  8
BYBLOCK
 70
0
 66
1
  0
VERTEX
  8
0
 10
2429.1239
 20
1736.8103
 30
0.0000
  0
VERTEX
  8
0
 10
2428.6038
 20
1736.3731
 30
0.0000
  0
VERTEX
  8
0
 10
2428.2325
 20
1735.9309
 30
0.0000
  0
VERTEX
  8
0
 10
2427.9621
 20
1735.4535
 30
0.0000
  0
VERTEX
  8
0
 10
2427.7991
 20
1734.9523
 30
0.0000
  0
VERTEX
  8
0
 10
2427.7476
 20
1734.4965
 30
0.0000
  0
SEQEND
  0
LINE
  6
continous
  8
BYBLOCK
 10
2429.1239
 20
1736.8103
 30
0.0000
 11
2429.1239
 21
1736.8810
 31
0.0000
  0
POLYLINE
  6
continous
  8
BYBLOCK
 70
0
 66
1
  0
VERTEX
  8
0
 10
2437.1471
 20
1734.4946
 30
0.0000
  0
VERTEX
  8
0
 10
2437.0822
 20
1735.0118
 30
0.0000
  0
VERTEX
  8
0
 10
2436.9041
 20
1735.5155
 30
0.0000
  0
VERTEX
  8
0
 10
2436.6173
 20
1735.9935
 30
0.0000
  0
VERTEX
  8
0
 10
2436.2287
 20
1736.4341
 30
0.0000
  0
VERTEX
  8
0
 10
2435.6892
 20
1736.8666
 30
0.0000
  0
VERTEX
  8
0
 10
2435.0520
 20
1737.2267
 30
0.0000
  0
VERTEX
  8
0
 10
2434.3363
 20
1737.5035
 30
0.0000
  0
VERTEX
  8
0
 10
2433.5638
 20
1737.6886
 30
0.0000
  0
VERTEX
  8
0
 10
2432.7576
 20
1737.7765
 30
0.0000
  0
VERTEX
  8
0
 10
2431.9421
 20
1737.7645
 30
0.0000
  0
VERTEX
  8
0
 10
2431.1418
 20
1737.6530
 30
0.0000
  0
VERTEX
  8
0
 10
2430.3809
 20
1737.4453
 30
0.0000
  0
VERTEX
  8
0
 10
2429.6821
 20
1737.1477
 30
0.0000
  0
VERTEX
  8
0
 10
2429.1239
 20
1736.8103
 30
0.0000
  0
SEQEND
  0
POLYLINE
  6
continous
  8
BYBLOCK
 70
0
 66
1
  0
VERTEX
  8
0
 10
2386.6975
 20
1706.8103
 30
0.0000
  0
VERTEX
  8
0
 10
2386.1774
 20
1706.3731
 30
0.0000
  0
VERTEX
  8
0
 10
2385.8061
 20
1705.9309
 30
0.0000
  0
VERTEX
  8
0
 10
2385.5357
 20
1705.4535
 30
0.0000
  0
VERTEX
  8
0
 10
2385.3727
 20
1704.9523
 30
0.0000
  0
VERTEX
  8
0
 10
2385.3212
 20
1704.4965
 30
0.0000
  0
SEQEND
  0
LINE
  6
continous
  8
BYBLOCK
 10
2386.6975
 20
1706.8103
 30
0.0000
 11
2386.6975
 21
1706.8810
 31
0.0000
  0
POLYLINE
  6
continous
  8
BYBLOCK
 70
0
 66
1
  0
VERTEX
  8
0
 10
2394.7207
 20
1704.4946
 30
0.0000
  0
VERTEX
  8
0
 10
2394.6558
 20
1705.0118
 30
0.0000
  0
VERTEX
  8
0
 10
2394.4777
 20
1705.5155
 30
0.0000
  0
VERTEX
  8
0
 10
2394.1909
 20
1705.9935
 30
0.0000
  0
VERTEX
  8
0
 10
2393.8023
 20
1706.4341
 30
0.0000
  0
VERTEX
  8
0
 10
2393.2628
 20
1706.8666
 30
0.0000
  0
VERTEX
  8
0
 10
2392.6256
 20
1707.2267
 30
0.0000
  0
VERTEX
  8
0
 10
2391.9099
 20
1707.5035
 30
0.0000
  0
VERTEX
  8
0
 10
2391.1374
 20
1707.6886
 30
0.0000
  0
VERTEX
  8
0
 10
2390.3312
 20
1707.7765
 30
0.0000
  0
VERTEX
  8
0
 10
2389.5157
 20
1707.7645
 30
0.0000
  0
VERTEX
  8
0
 10
2388.7154
 20
1707.6530
 30
0.0000
  0
VERTEX
  8
0
 10
2387.9544
 20
1707.4453
 30
0.0000
  0
VERTEX
  8
0
 10
2387.2557
 20
1707.1477
 30
0.0000
  0
VERTEX
  8
0
 10
2386.6975
 20
1706.8103
 30
0.0000
  0
SEQEND
  0
POLYLINE
  6
continous
  8
BYBLOCK
 70
0
 66
1
  0
VERTEX
  8
0
 10
2344.2711
 20
1676.8103
 30
0.0000
  0
VERTEX
  8
0
 10
2343.7510
 20
1676.3731
 30
0.0000
  0
VERTEX
  8
0
 10
2343.3797
 20
1675.9309
 30
0.0000
  0
VERTEX
  8
0
 10
2343.1093
 20
1675.4535
 30
0.0000
  0
VERTEX
  8
0
 10
2342.9463
 20
1674.9523
 30
0.0000
  0
VERTEX
  8
0
 10
2342.8948
 20
1674.4965
 30
0.0000
  0
SEQEND
  0
LINE
  6
continous
  8
BYBLOCK
 10
2344.2711
 20
1676.8103
 30
0.0000
 11
2344.2711
 21
1676.8810
 31
0.0000
  0
POLYLINE
  6
continous
  8
BYBLOCK
 70
0
 66
1
  0
VERTEX
  8
0
 10
2352.2943
 20
1674.4946
 30
0.0000
  0
VERTEX
  8
0
 10
2352.2294
 20
1675.0118
 30
0.0000
  0
VERTEX
  8
0
 10
2352.0513
 20
1675.5155
 30
0.0000
  0
VERTEX
  8
0
 10
2351.7645
 20
1675.9935
 30
0.0000
  0
VERTEX
  8
0
 10
2351.3759
 20
1676.4341
 30
0.0000
  0
VERTEX
  8
0
 10
2350.8364
 20
1676.8666
 30
0.0000
  0
VERTEX
  8
0
 10
2350.1992
 20
1677.2267
 30
0.0000
  0
VERTEX
  8
0
 10
2349.4835
 20
1677.5035
 30
0.0000
  0
VERTEX
  8
0
 10
2348.7110
 20
1677.6886
 30
0.0000
  0
VERTEX
  8
0
 10
2347.9048
 20
1677.7765
 30
0.0000
  0
VERTEX
  8
0
 10
2347.0893
 20
1677.7645
 30
0.0000
  0
VERTEX
  8
0
 10
2346.2890
 20
1677.6530
 30
0.0000
  0
VERTEX
  8
0
 10
2345.5280
 20
1677.4453
 30
0.0000
  0
VERTEX
  8
0
 10
2344.8293
 20
1677.1477
 30
0.0000
  0
VERTEX
  8
0
 10
2344.2711
 20
1676.8103
 30
0.0000
  0
SEQEND
  0
POLYLINE
  6
continous
  8
BYBLOCK
 70
0
 66
1
  0
VERTEX
  8
0
 10
2301.8447
 20
1646.8103
 30
0.0000
  0
VERTEX
  8
0
 10
2301.3246
 20
1646.3731
 30
0.0000
  0
VERTEX
  8
0
 10
2300.9533
 20
1645.9309
 30
0.0000
  0
VERTEX
  8
0
 10
2300.6829
 20
1645.4535
 30
0.0000
  0
VERTEX
  8
0
 10
2300.5199
 20
1644.9523
 30
0.0000
  0
VERTEX
  8
0
 10
2300.4684
 20
1644.4965
 30
0.0000
  0
SEQEND
  0
LINE
  6
continous
  8
BYBLOCK
 10
2301.8447
 20
1646.8103
 30
0.0000
 11
2301.8447
 21
1646.8810
 31
0.0000
  0
POLYLINE
  6
continous
  8
BYBLOCK
 70
0
 66
1
  0
VERTEX
  8
0
 10
2309.8679
 20
1644.4946
 30
0.0000
  0
VERTEX
  8
0
 10
2309.8030
 20
1645.0118
 30
0.0000
  0
VERTEX
  8
0
 10
2309.6249
 20
1645.5155
 30
0.0000
  0
VERTEX
  8
0
 10
2309.3381
 20
1645.9935
 30
0.0000
  0
VERTEX
  8
0
 10
2308.9495
 20
1646.4341
 30
0.0000
  0
VERTEX
  8
0
 10
2308.4099
 20
1646.8666
 30
0.0000
  0
VERTEX
  8
0
 10
2307.7728
 20
1647.2267
 30
0.0000
  0
VERTEX
  8
0
 10
2307.0571
 20
1647.5035
 30
0.0000
  0
VERTEX
  8
0
 10
2306.2846
 20
1647.6886
 30
0.0000
  0
VERTEX
  8
0
 10
2305.4784
 20
1647.7765
 30
0.0000
  0
VERTEX
  8
0
 10
2304.6629
 20
1647.7645
 30
0.0000
  0
VERTEX
  8
0
 10
2303.8626
 20
1647.6530
 30
0.0000
  0
VERTEX
  8
0
 10
2303.1016
 20
1647.4453
 30
0.0000
  0
VERTEX
  8
0
 10
2302.4029
 20
1647.1477
 30
0.0000
  0
VERTEX
  8
0
 10
2301.8447
 20
1646.8103
 30
0.0000
  0
SEQEND
  0
POLYLINE
  6
continous
  8
BYBLOCK
 70
0
 66
1
  0
VERTEX
  8
0
 10
2259.4183
 20
1616.8103
 30
0.0000
  0
VERTEX
  8
0
 10
2258.8982
 20
1616.3731
 30
0.0000
  0
VERTEX
  8
0
 10
2258.5269
 20
1615.9309
 30
0.0000
  0
VERTEX
  8
0
 10
2258.2565
 20
1615.4535
 30
0.0000
  0
VERTEX
  8
0
 10
2258.0935
 20
1614.9523
 30
0.0000
  0
VERTEX
  8
0
 10
2258.0420
 20
1614.4965
 30
0.0000
  0
SEQEND
  0
LINE
  6
continous
  8
BYBLOCK
 10
2259.4183
 20
1616.8103
 30
0.0000
 11
2259.4183
 21
1616.8810
 31
0.0000
  0
POLYLINE
  6
continous
  8
BYBLOCK
 70
0
 66
1
  0
VERTEX
  8
0
 10
2267.4415
 20
1614.4946
 30
0.0000
  0
VERTEX
  8
0
 10
2267.3765
 20
1615.0118
 30
0.0000
  0
VERTEX
  8
0
 10
2267.1985
 20
1615.5155
 30
0.0000
  0
VERTEX
  8
0
 10
2266.9117
 20
1615.9935
 30
0.0000
  0
VERTEX
  8
0
 10
2266.5231
 20
1616.4341
 30
0.0000
  0
VERTEX
  8
0
 10
2265.9835
 20
1616.8666
 30
0.0000
  0
VERTEX
  8
0
 10
2265.3464
 20
1617.2267
 30
0.0000
  0
VERTEX
  8
0
 10
2264.6307
 20
1617.5035
 30
0.0000
  0
VERTEX
  8
0
 10
2263.8582
 20
1617.6886
 30
0.0000
  0
VERTEX
  8
0
 10
2263.0520
 20
1617.7765
 30
0.0000
  0
VERTEX
  8
0
 10
2262.2365
 20
1617.7645
 30
0.0000
  0
VERTEX
  8
0
 10
2261.4362
 20
1617.6530
 30
0.0000
  0
VERTEX
  8
0
 10
2260.6752
 20
1617.4453
 30
0.0000
  0
VERTEX
  8
0
 10
2259.9765
 20
1617.1477
 30
0.0000
  0
VERTEX
  8
0
 10
2259.4183
 20
1616.8103
 30
0.0000
  0
SEQEND
  0
POLYLINE
  6
continous
  8
BYBLOCK
 70
0
 66
1
  0
VERTEX
  8
0
 10
2216.9919
 20
1586.8103
 30
0.0000
  0
VERTEX
  8
0
 10
2216.4718
 20
1586.3731
 30
0.0000
  0
VERTEX
  8
0
 10
2216.1005
 20
1585.9309
 30
0.0000
  0
VERTEX
  8
0
 10
2215.8301
 20
1585.4535
 30
0.0000
  0
VERTEX
  8
0
 10
2215.6671
 20
1584.9523
 30
0.0000
  0
VERTEX
  8
0
 10
2215.6156
 20
1584.4965
 30
0.0000
  0
SEQEND
  0
LINE
  6
continous
  8
BYBLOCK
 10
2216.9919
 20
1586.8103
 30
0.0000
 11
2216.9919
 21
1586.8810
 31
0.0000
  0
POLYLINE
  6
continous
  8
BYBLOCK
 70
0
 66
1
  0
VERTEX
  8
0
 10
2225.0150
 20
1584.4946
 30
0.0000
  0
VERTEX
  8
0
 10
2224.9501
 20
1585.0118
 30
0.0000
  0
VERTEX
  8
0
 10
2224.7721
 20
1585.5155
 30
0.0000
  0
VERTEX
  8
0
 10
2224.4853
 20
1585.9935
 30
0.0000
  0
VERTEX
  8
0
 10
2224.0967
 20
1586.4341
 30
0.0000
  0
VERTEX
  8
0
 10
2223.5571
 20
1586.8666
 30
0.0000
  0
VERTEX
  8
0
 10
2222.9199
 20
1587.2267
 30
0.0000
  0
VERTEX
  8
0
 10
2222.2043
 20
1587.5035
 30
0.0000
  0
VERTEX
  8
0
 10
2221.4318
 20
1587.6886
 30
0.0000
  0
VERTEX
  8
0
 10
2220.6256
 20
1587.7765
 30
0.0000
  0
VERTEX
  8
0
 10
2219.8101
 20
1587.7645
 30
0.0000
  0
VERTEX
  8
0
 10
2219.0098
 20
1587.6530
 30
0.0000
  0
VERTEX
  8
0
 10
2218.2488
 20
1587.4453
 30
0.0000
  0
VERTEX
  8
0
 10
2217.5501
 20
1587.1477
 30
0.0000
  0
VERTEX
  8
0
 10
2216.9919
 20
1586.8103
 30
0.0000
  0
SEQEND
  0
POLYLINE
  6
continous
  8
BYBLOCK
 70
0
 66
1
  0
VERTEX
  8
0
 10
2174.5655
 20
1556.8103
 30
0.0000
  0
VERTEX
  8
0
 10
2174.0454
 20
1556.3731
 30
0.0000
  0
VERTEX
  8
0
 10
2173.6741
 20
1555.9309
 30
0.0000
  0
VERTEX
  8
0
 10
2173.4037
 20
1555.4535
 30
0.0000
  0
VERTEX
  8
0
 10
2173.2407
 20
1554.9523
 30
0.0000
  0
VERTEX
  8
0
 10
2173.1892
 20
1554.4965
 30
0.0000
  0
SEQEND
  0
LINE
  6
continous
  8
BYBLOCK
 10
2174.5655
 20
1556.8103
 30
0.0000
 11
2174.5655
 21
1556.8810
 31
0.0000
  0
POLYLINE
  6
continous
  8
BYBLOCK
 70
0
 66
1
  0
VERTEX
  8
0
 10
2182.5886
 20
1554.4946
 30
0.0000
  0
VERTEX
  8
0
 10
2182.5237
 20
1555.0118
 30
0.0000
  0
VERTEX
  8
0
 10
2182.3457
 20
1555.5155
 30
0.0000
  0
VERTEX
  8
0
 10
2182.0589
 20
1555.9935
 30
0.0000
  0
VERTEX
  8
0
 10
2181.6703
 20
1556.4341
 30
0.0000
  0
VERTEX
  8
0
 10
2181.1307
 20
1556.8666
 30
0.0000
  0
VERTEX
  8
0
 10
2180.4935
 20
1557.2267
 30
0.0000
  0
VERTEX
  8
0
 10
2179.7779
 20
1557.5035
 30
0.0000
  0
VERTEX
  8
0
 10
2179.0054
 20
1557.6886
 30
0.0000
  0
VERTEX
  8
0
 10
2178.1992
 20
1557.7765
 30
0.0000
  0
VERTEX
  8
0
 10
2177.3837
 20
1557.7645
 30
0.0000
  0
VERTEX
  8
0
 10
2176.5834
 20
1557.6530
 30
0.0000
  0
VERTEX
  8
0
 10
2175.8224
 20
1557.4453
 30
0.0000
  0
VERTEX
  8
0
 10
2175.1237
 20
1557.1477
 30
0.0000
  0
VERTEX
  8
0
 10
2174.5655
 20
1556.8103
 30
0.0000
  0
SEQEND
  0
POLYLINE
  6
continous
  8
BYBLOCK
 70
0
 66
1
  0
VERTEX
  8
0
 10
2132.1391
 20
1526.8103
 30
0.0000
  0
VERTEX
  8
0
 10
2131.6190
 20
1526.3731
 30
0.0000
  0
VERTEX
  8
0
 10
2131.2477
 20
1525.9309
 30
0.0000
  0
VERTEX
  8
0
 10
2130.9773
 20
1525.4535
 30
0.0000
  0
VERTEX
  8
0
 10
2130.8143
 20
1524.9523
 30
0.0000
  0
VERTEX
  8
0
 10
2130.7628
 20
1524.4965
 30
0.0000
  0
SEQEND
  0
LINE
  6
continous
  8
BYBLOCK
 10
2132.1391
 20
1526.8103
 30
0.0000
 11
2132.1391
 21
1526.8810
 31
0.0000
  0
POLYLINE
  6
continous
  8
BYBLOCK
 70
0
 66
1
  0
VERTEX
  8
0
 10
2140.1622
 20
1524.4946
 30
0.0000
  0
VERTEX
  8
0
 10
2140.0973
 20
1525.0118
 30
0.0000
  0
VERTEX
  8
0
 10
2139.9193
 20
1525.5155
 30
0.0000
  0
VERTEX
  8
0
 10
2139.6325
 20
1525.9935
 30
0.0000
  0
VERTEX
  8
0
 10
2139.2439
 20
1526.4341
 30
0.0000
  0
VERTEX
  8
0
 10
2138.7043
 20
1526.8666
 30
0.0000
  0
VERTEX
  8
0
 10
2138.0671
 20
1527.2267
 30
0.0000
  0
VERTEX
  8
0
 10
2137.3515
 20
1527.5035
 30
0.0000
  0
VERTEX
  8
0
 10
2136.5790
 20
1527.6886
 30
0.0000
  0
VERTEX
  8
0
 10
2135.7728
 20
1527.7765
 30
0.0000
  0
VERTEX
  8
0
 10
2134.9573
 20
1527.7645
 30
0.0000
  0
VERTEX
  8
0
 10
2134.1570
 20
1527.6530
 30
0.0000
  0
VERTEX
  8
0
 10
2133.3960
 20
1527.4453
 30
0.0000
  0
VERTEX
  8
0
 10
2132.6973
 20
1527.1477
 30
0.0000
  0
VERTEX
  8
0
 10
2132.1391
 20
1526.8103
 30
0.0000
  0
SEQEND
  0
POLYLINE
  6
continous
  8
BYBLOCK
 70
0
 66
1
  0
VERTEX
  8
0
 10
2089.7127
 20
1496.8103
 30
0.0000
  0
VERTEX
  8
0
 10
2089.1926
 20
1496.3731
 30
0.0000
  0
VERTEX
  8
0
 10
2088.8213
 20
1495.9309
 30
0.0000
  0
VERTEX
  8
0
 10
2088.5509
 20
1495.4535
 30
0.0000
  0
VERTEX
  8
0
 10
2088.3879
 20
1494.9523
 30
0.0000
  0
VERTEX
  8
0
 10
2088.3364
 20
1494.4965
 30
0.0000
  0
SEQEND
  0
LINE
  6
continous
  8
BYBLOCK
 10
2089.7127
 20
1496.8103
 30
0.0000
 11
2089.7127
 21
1496.8810
 31
0.0000
  0
POLYLINE
  6
continous
  8
BYBLOCK
 70
0
 66
1
  0
VERTEX
  8
0
 10
2097.7358
 20
1494.4946
 30
0.0000
  0
VERTEX
  8
0
 10
2097.6709
 20
1495.0118
 30
0.0000
  0
VERTEX
  8
0
 10
2097.4929
 20
1495.5155
 30
0.0000
  0
VERTEX
  8
0
 10
2097.2061
 20
1495.9935
 30
0.0000
  0
VERTEX
  8
0
 10
2096.8175
 20
1496.4341
 30
0.0000
  0
VERTEX
  8
0
 10
2096.2779
 20
1496.8666
 30
0.0000
  0
VERTEX
  8
0
 10
2095.6407
 20
1497.2267
 30
0.0000
  0
VERTEX
  8
0
 10
2094.9251
 20
1497.5035
 30
0.0000
  0
VERTEX
  8
0
 10
2094.1525
 20
1497.6886
 30
0.0000
  0
VERTEX
  8
0
 10
2093.3464
 20
1497.7765
 30
0.0000
  0
VERTEX
  8
0
 10
2092.5309
 20
1497.7645
 30
0.0000
  0
VERTEX
  8
0
 10
2091.7306
 20
1497.6530
 30
0.0000
  0
VERTEX
  8
0
 10
2090.9696
 20
1497.4453
 30
0.0000
  0
VERTEX
  8
0
 10
2090.2709
 20
1497.1477
 30
0.0000
  0
VERTEX
  8
0
 10
2089.7127
 20
1496.8103
 30
0.0000
  0
SEQEND
  0
POLYLINE
  6
continous
  8
BYBLOCK
 70
0
 66
1
  0
VERTEX
  8
0
 10
2047.2863
 20
1466.8103
 30
0.0000
  0
VERTEX
  8
0
 10
2046.7662
 20
1466.3731
 30
0.0000
  0
VERTEX
  8
0
 10
2046.3948
 20
1465.9309
 30
0.0000
  0
VERTEX
  8
0
 10
2046.1244
 20
1465.4535
 30
0.0000
  0
VERTEX
  8
0
 10
2045.9614
 20
1464.9523
 30
0.0000
  0
VERTEX
  8
0
 10
2045.9099
 20
1464.4965
 30
0.0000
  0
SEQEND
  0
LINE
  6
continous
  8
BYBLOCK
 10
2047.2863
 20
1466.8103
 30
0.0000
 11
2047.2863
 21
1466.8810
 31
0.0000
  0
POLYLINE
  6
continous
  8
BYBLOCK
 70
0
 66
1
  0
VERTEX
  8
0
 10
2055.3094
 20
1464.4946
 30
0.0000
  0
VERTEX
  8
0
 10
2055.2445
 20
1465.0118
 30
0.0000
  0
VERTEX
  8
0
 10
2055.0665
 20
1465.5155
 30
0.0000
  0
VERTEX
  8
0
 10
2054.7797
 20
1465.9935
 30
0.0000
  0
VERTEX
  8
0
 10
2054.3911
 20
1466.4341
 30
0.0000
  0
VERTEX
  8
0
 10
2053.8515
 20
1466.8666
 30
0.0000
  0
VERTEX
  8
0
 10
2053.2143
 20
1467.2267
 30
0.0000
  0
VERTEX
  8
0
 10
2052.4987
 20
1467.5035
 30
0.0000
  0
VERTEX
  8
0
 10
2051.7261
 20
1467.6886
 30
0.0000
  0
VERTEX
  8
0
 10
2050.9200
 20
1467.7765
 30
0.0000
  0
VERTEX
  8
0
 10
2050.1045
 20
1467.7645
 30
0.0000
  0
VERTEX
  8
0
 10
2049.3042
 20
1467.6530
 30
0.0000
  0
VERTEX
  8
0
 10
2048.5432
 20
1467.4453
 30
0.0000
  0
VERTEX
  8
0
 10
2047.8445
 20
1467.1477
 30
0.0000
  0
VERTEX
  8
0
 10
2047.2863
 20
1466.8103
 30
0.0000
  0
SEQEND
  0
POLYLINE
  6
continous
  8
BYBLOCK
 70
0
 66
1
  0
VERTEX
  8
0
 10
2004.8599
 20
1436.8103
 30
0.0000
  0
VERTEX
  8
0
 10
2004.3398
 20
1436.3731
 30
0.0000
  0
VERTEX
  8
0
 10
2003.9684
 20
1435.9309
 30
0.0000
  0
VERTEX
  8
0
 10
2003.6980
 20
1435.4535
 30
0.0000
  0
VERTEX
  8
0
 10
2003.5350
 20
1434.9523
 30
0.0000
  0
VERTEX
  8
0
 10
2003.4835
 20
1434.4965
 30
0.0000
  0
SEQEND
  0
LINE
  6
continous
  8
BYBLOCK
 10
2004.8599
 20
1436.8103
 30
0.0000
 11
2004.8599
 21
1436.8810
 31
0.0000
  0
POLYLINE
  6
continous
  8
BYBLOCK
 70
0
 66
1
  0
VERTEX
  8
0
 10
2012.8830
 20
1434.4946
 30
0.0000
  0
VERTEX
  8
0
 10
2012.8181
 20
1435.0118
 30
0.0000
  0
VERTEX
  8
0
 10
2012.6401
 20
1435.5155
 30
0.0000
  0
VERTEX
  8
0
 10
2012.3532
 20
1435.9935
 30
0.0000
  0
VERTEX
  8
0
 10
2011.9646
 20
1436.4341
 30
0.0000
  0
VERTEX
  8
0
 10
2011.4251
 20
1436.8666
 30
0.0000
  0
VERTEX
  8
0
 10
2010.7879
 20
1437.2267
 30
0.0000
  0
VERTEX
  8
0
 10
2010.0723
 20
1437.5035
 30
0.0000
  0
VERTEX
  8
0
 10
2009.2997
 20
1437.6886
 30
0.0000
  0
VERTEX
  8
0
 10
2008.4936
 20
1437.7765
 30
0.0000
  0
VERTEX
  8
0
 10
2007.6781
 20
1437.7645
 30
0.0000
  0
VERTEX
  8
0
 10
2006.8778
 20
1437.6530
 30
0.0000
  0
VERTEX
  8
0
 10
2006.1168
 20
1437.4453
 30
0.0000
  0
VERTEX
  8
0
 10
2005.4181
 20
1437.1477
 30
0.0000
  0
VERTEX
  8
0
 10
2004.8599
 20
1436.8103
 30
0.0000
  0
SEQEND
  0
POLYLINE
  6
continous
  8
BYBLOCK
 70
0
 66
1
  0
VERTEX
  8
0
 10
1962.4334
 20
1406.8103
 30
0.0000
  0
VERTEX
  8
0
 10
1961.9134
 20
1406.3731
 30
0.0000
  0
VERTEX
  8
0
 10
1961.5420
 20
1405.9309
 30
0.0000
  0
VERTEX
  8
0
 10
1961.2716
 20
1405.4535
 30
0.0000
  0
VERTEX
  8
0
 10
1961.1086
 20
1404.9523
 30
0.0000
  0
VERTEX
  8
0
 10
1961.0571
 20
1404.4965
 30
0.0000
  0
SEQEND
  0
LINE
  6
continous
  8
BYBLOCK
 10
1962.4334
 20
1406.8103
 30
0.0000
 11
1962.4334
 21
1406.8810
 31
0.0000
  0
POLYLINE
  6
continous
  8
BYBLOCK
 70
0
 66
1
  0
VERTEX
  8
0
 10
1970.4566
 20
1404.4946
 30
0.0000
  0
VERTEX
  8
0
 10
1970.3917
 20
1405.0118
 30
0.0000
  0
VERTEX
  8
0
 10
1970.2137
 20
1405.5155
 30
0.0000
  0
VERTEX
  8
0
 10
1969.9268
 20
1405.9935
 30
0.0000
  0
VERTEX
  8
0
 10
1969.5382
 20
1406.4341
 30
0.0000
  0
VERTEX
  8
0
 10
1968.9987
 20
1406.8666
 30
0.0000
  0
VERTEX
  8
0
 10
1968.3615
 20
1407.2267
 30
0.0000
  0
VERTEX
  8
0
 10
1967.6459
 20
1407.5035
 30
0.0000
  0
VERTEX
  8
0
 10
1966.8733
 20
1407.6886
 30
0.0000
  0
VERTEX
  8
0
 10
1966.0672
 20
1407.7765
 30
0.0000
  0
VERTEX
  8
0
 10
1965.2516
 20
1407.7645
 30
0.0000
  0
VERTEX
  8
0
 10
1964.4514
 20
1407.6530
 30
0.0000
  0
VERTEX
  8
0
 10
1963.6904
 20
1407.4453
 30
0.0000
  0
VERTEX
  8
0
 10
1962.9916
 20
1407.1477
 30
0.0000
  0
VERTEX
  8
0
 10
1962.4334
 20
1406.8103
 30
0.0000
  0
SEQEND
  0
POLYLINE
  6
continous
  8
BYBLOCK
 70
0
 66
1
  0
VERTEX
  8
0
 10
1920.0070
 20
1376.8103
 30
0.0000
  0
VERTEX
  8
0
 10
1919.4870
 20
1376.3731
 30
0.0000
  0
VERTEX
  8
0
 10
1919.1156
 20
1375.9309
 30
0.0000
  0
VERTEX
  8
0
 10
1918.8452
 20
1375.4535
 30
0.0000
  0
VERTEX
  8
0
 10
1918.6822
 20
1374.9523
 30
0.0000
  0
VERTEX
  8
0
 10
1918.6307
 20
1374.4965
 30
0.0000
  0
SEQEND
  0
LINE
  6
continous
  8
BYBLOCK
 10
1920.0070
 20
1376.8103
 30
0.0000
 11
1920.0070
 21
1376.8810
 31
0.0000
  0
POLYLINE
  6
continous
  8
BYBLOCK
 70
0
 66
1
  0
VERTEX
  8
0
 10
1928.0302
 20
1374.4946
 30
0.0000
  0
VERTEX
  8
0
 10
1927.9653
 20
1375.0118
 30
0.0000
  0
VERTEX
  8
0
 10
1927.7873
 20
1375.5155
 30
0.0000
  0
VERTEX
  8
0
 10
1927.5004
 20
1375.9935
 30
0.0000
  0
VERTEX
  8
0
 10
1927.1118
 20
1376.4341
 30
0.0000
  0
VERTEX
  8
0
 10
1926.5723
 20
1376.8666
 30
0.0000
  0
VERTEX
  8
0
 10
1925.9351
 20
1377.2267
 30
0.0000
  0
VERTEX
  8
0
 10
1925.2195
 20
1377.5035
 30
0.0000
  0
VERTEX
  8
0
 10
1924.4469
 20
1377.6886
 30
0.0000
  0
VERTEX
  8
0
 10
1923.6408
 20
1377.7765
 30
0.0000
  0
VERTEX
  8
0
 10
1922.8252
 20
1377.7645
 30
0.0000
  0
VERTEX
  8
0
 10
1922.0249
 20
1377.6530
 30
0.0000
  0
VERTEX
  8
0
 10
1921.2640
 20
1377.4453
 30
0.0000
  0
VERTEX
  8
0
 10
1920.5652
 20
1377.1477
 30
0.0000
  0
VERTEX
  8
0
 10
1920.0070
 20
1376.8103
 30
0.0000
  0
SEQEND
  0
POLYLINE
  6
continous
  8
BYBLOCK
 70
0
 66
1
  0
VERTEX
  8
0
 10
1877.5806
 20
1346.8103
 30
0.0000
  0
VERTEX
  8
0
 10
1877.0606
 20
1346.3731
 30
0.0000
  0
VERTEX
  8
0
 10
1876.6892
 20
1345.9309
 30
0.0000
  0
VERTEX
  8
0
 10
1876.4188
 20
1345.4535
 30
0.0000
  0
VERTEX
  8
0
 10
1876.2558
 20
1344.9523
 30
0.0000
  0
VERTEX
  8
0
 10
1876.2043
 20
1344.4965
 30
0.0000
  0
SEQEND
  0
LINE
  6
continous
  8
BYBLOCK
 10
1877.5806
 20
1346.8103
 30
0.0000
 11
1877.5806
 21
1346.8810
 31
0.0000
  0
POLYLINE
  6
continous
  8
BYBLOCK
 70
0
 66
1
  0
VERTEX
  8
0
 10
1885.6038
 20
1344.4946
 30
0.0000
  0
VERTEX
  8
0
 10
1885.5389
 20
1345.0118
 30
0.0000
  0
VERTEX
  8
0
 10
1885.3608
 20
1345.5155
 30
0.0000
  0
VERTEX
  8
0
 10
1885.0740
 20
1345.9935
 30
0.0000
  0
VERTEX
  8
0
 10
1884.6854
 20
1346.4341
 30
0.0000
  0
VERTEX
  8
0
 10
1884.1459
 20
1346.8666
 30
0.0000
  0
VERTEX
  8
0
 10
1883.5087
 20
1347.2267
 30
0.0000
  0
VERTEX
  8
0
 10
1882.7931
 20
1347.5035
 30
0.0000
  0
VERTEX
  8
0
 10
1882.0205
 20
1347.6886
 30
0.0000
  0
VERTEX
  8
0
 10
1881.2143
 20
1347.7765
 30
0.0000
  0
VERTEX
  8
0
 10
1880.3988
 20
1347.7645
 30
0.0000
  0
VERTEX
  8
0
 10
1879.5985
 20
1347.6530
 30
0.0000
  0
VERTEX
  8
0
 10
1878.8376
 20
1347.4453
 30
0.0000
  0
VERTEX
  8
0
 10
1878.1388
 20
1347.1477
 30
0.0000
  0
VERTEX
  8
0
 10
1877.5806
 20
1346.8103
 30
0.0000
  0
SEQEND
  0
POLYLINE
  6
continous
  8
BYBLOCK
 70
0
 66
1
  0
VERTEX
  8
0
 10
1835.1542
 20
1316.8103
 30
0.0000
  0
VERTEX
  8
0
 10
1834.6341
 20
1316.3731
 30
0.0000
  0
VERTEX
  8
0
 10
1834.2628
 20
1315.9309
 30
0.0000
  0
VERTEX
  8
0
 10
1833.9924
 20
1315.4535
 30
0.0000
  0
VERTEX
  8
0
 10
1833.8294
 20
1314.9523
 30
0.0000
  0
VERTEX
  8
0
 10
1833.7779
 20
1314.4965
 30
0.0000
  0
SEQEND
  0
LINE
  6
continous
  8
BYBLOCK
 10
1835.1542
 20
1316.8103
 30
0.0000
 11
1835.1542
 21
1316.8810
 31
0.0000
  0
POLYLINE
  6
continous
  8
BYBLOCK
 70
0
 66
1
  0
VERTEX
  8
0
 10
1843.1774
 20
1314.4946
 30
0.0000
  0
VERTEX
  8
0
 10
1843.1125
 20
1315.0118
 30
0.0000
  0
VERTEX
  8
0
 10
1842.9344
 20
1315.5155
 30
0.0000
  0
VERTEX
  8
0
 10
1842.6476
 20
1315.9935
 30
0.0000
  0
VERTEX
  8
0
 10
1842.2590
 20
1316.4341
 30
0.0000
  0
VERTEX
  8
0
 10
1841.7195
 20
1316.8666
 30
0.0000
  0
VERTEX
  8
0
 10
1841.0823
 20
1317.2267
 30
0.0000
  0
VERTEX
  8
0
 10
1840.3666
 20
1317.5035
 30
0.0000
  0
VERTEX
  8
0
 10
1839.5941
 20
1317.6886
 30
0.0000
  0
VERTEX
  8
0
 10
1838.7879
 20
1317.7765
 30
0.0000
  0
VERTEX
  8
0
 10
1837.9724
 20
1317.7645
 30
0.0000
  0
VERTEX
  8
0
 10
1837.1721
 20
1317.6530
 30
0.0000
  0
VERTEX
  8
0
 10
1836.4112
 20
1317.4453
 30
0.0000
  0
VERTEX
  8
0
 10
1835.7124
 20
1317.1477
 30
0.0000
  0
VERTEX
  8
0
 10
1835.1542
 20
1316.8103
 30
0.0000
  0
SEQEND
  0
POLYLINE
  6
continous
  8
BYBLOCK
 70
0
 66
1
  0
VERTEX
  8
0
 10
1792.7278
 20
1286.8103
 30
0.0000
  0
VERTEX
  8
0
 10
1792.2077
 20
1286.3731
 30
0.0000
  0
VERTEX
  8
0
 10
1791.8364
 20
1285.9309
 30
0.0000
  0
VERTEX
  8
0
 10
1791.5660
 20
1285.4535
 30
0.0000
  0
VERTEX
  8
0
 10
1791.4030
 20
1284.9523
 30
0.0000
  0
VERTEX
  8
0
 10
1791.3515
 20
1284.4965
 30
0.0000
  0
SEQEND
  0
LINE
  6
continous
  8
BYBLOCK
 10
1792.7278
 20
1286.8103
 30
0.0000
 11
1792.7278
 21
1286.8810
 31
0.0000
  0
POLYLINE
  6
continous
  8
BYBLOCK
 70
0
 66
1
  0
VERTEX
  8
0
 10
1800.7510
 20
1284.4946
 30
0.0000
  0
VERTEX
  8
0
 10
1800.6861
 20
1285.0118
 30
0.0000
  0
VERTEX
  8
0
 10
1800.5080
 20
1285.5155
 30
0.0000
  0
VERTEX
  8
0
 10
1800.2212
 20
1285.9935
 30
0.0000
  0
VERTEX
  8
0
 10
1799.8326
 20
1286.4341
 30
0.0000
  0
VERTEX
  8
0
 10
1799.2931
 20
1286.8666
 30
0.0000
  0
VERTEX
  8
0
 10
1798.6559
 20
1287.2267
 30
0.0000
  0
VERTEX
  8
0
 10
1797.9402
 20
1287.5035
 30
0.0000
  0
VERTEX
  8
0
 10
1797.1677
 20
1287.6886
 30
0.0000
  0
VERTEX
  8
0
 10
1796.3615
 20
1287.7765
 30
0.0000
  0
VERTEX
  8
0
 10
1795.5460
 20
1287.7645
 30
0.0000
  0
VERTEX
  8
0
 10
1794.7457
 20
1287.6530
 30
0.0000
  0
VERTEX
  8
0
 10
1793.9848
 20
1287.4453
 30
0.0000
  0
VERTEX
  8
0
 10
1793.2860
 20
1287.1477
 30
0.0000
  0
VERTEX
  8
0
 10
1792.7278
 20
1286.8103
 30
0.0000
  0
SEQEND
  0
POLYLINE
  6
continous
  8
BYBLOCK
 70
0
 66
1
  0
VERTEX
  8
0
 10
1750.3014
 20
1256.8103
 30
0.0000
  0
VERTEX
  8
0
 10
1749.7813
 20
1256.3731
 30
0.0000
  0
VERTEX
  8
0
 10
1749.4100
 20
1255.9309
 30
0.0000
  0
VERTEX
  8
0
 10
1749.1396
 20
1255.4535
 30
0.0000
  0
VERTEX
  8
0
 10
1748.9766
 20
1254.9523
 30
0.0000
  0
VERTEX
  8
0
 10
1748.9251
 20
1254.4965
 30
0.0000
  0
SEQEND
  0
LINE
  6
continous
  8
BYBLOCK
 10
1750.3014
 20
1256.8103
 30
0.0000
 11
1750.3014
 21
1256.8810
 31
0.0000
  0
POLYLINE
  6
continous
  8
BYBLOCK
 70
0
 66
1
  0
VERTEX
  8
0
 10
1758.3246
 20
1254.4946
 30
0.0000
  0
VERTEX
  8
0
 10
1758.2597
 20
1255.0118
 30
0.0000
  0
VERTEX
  8
0
 10
1758.0816
 20
1255.5155
 30
0.0000
  0
VERTEX
  8
0
 10
1757.7948
 20
1255.9935
 30
0.0000
  0
VERTEX
  8
0
 10
1757.4062
 20
1256.4341
 30
0.0000
  0
VERTEX
  8
0
 10
1756.8667
 20
1256.8666
 30
0.0000
  0
VERTEX
  8
0
 10
1756.2295
 20
1257.2267
 30
0.0000
  0
VERTEX
  8
0
 10
1755.5138
 20
1257.5035
 30
0.0000
  0
VERTEX
  8
0
 10
1754.7413
 20
1257.6886
 30
0.0000
  0
VERTEX
  8
0
 10
1753.9351
 20
1257.7765
 30
0.0000
  0
VERTEX
  8
0
 10
1753.1196
 20
1257.7645
 30
0.0000
  0
VERTEX
  8
0
 10
1752.3193
 20
1257.6530
 30
0.0000
  0
VERTEX
  8
0
 10
1751.5583
 20
1257.4453
 30
0.0000
  0
VERTEX
  8
0
 10
1750.8596
 20
1257.1477
 30
0.0000
  0
VERTEX
  8
0
 10
1750.3014
 20
1256.8103
 30
0.0000
  0
SEQEND
  0
POLYLINE
  6
continous
  8
BYBLOCK
 70
0
 66
1
  0
VERTEX
  8
0
 10
1707.8750
 20
1226.8103
 30
0.0000
  0
VERTEX
  8
0
 10
1707.3549
 20
1226.3731
 30
0.0000
  0
VERTEX
  8
0
 10
1706.9836
 20
1225.9309
 30
0.0000
  0
VERTEX
  8
0
 10
1706.7132
 20
1225.4535
 30
0.0000
  0
VERTEX
  8
0
 10
1706.5502
 20
1224.9523
 30
0.0000
  0
VERTEX
  8
0
 10
1706.4987
 20
1224.4965
 30
0.0000
  0
SEQEND
  0
LINE
  6
continous
  8
BYBLOCK
 10
1707.8750
 20
1226.8103
 30
0.0000
 11
1707.8750
 21
1226.8810
 31
0.0000
  0
POLYLINE
  6
continous
  8
BYBLOCK
 70
0
 66
1
  0
VERTEX
  8
0
 10
1715.8982
 20
1224.4946
 30
0.0000
  0
VERTEX
  8
0
 10
1715.8333
 20
1225.0118
 30
0.0000
  0
VERTEX
  8
0
 10
1715.6552
 20
1225.5155
 30
0.0000
  0
VERTEX
  8
0
 10
1715.3684
 20
1225.9935
 30
0.0000
  0
VERTEX
  8
0
 10
1714.9798
 20
1226.4341
 30
0.0000
  0
VERTEX
  8
0
 10
1714.4403
 20
1226.8666
 30
0.0000
  0
VERTEX
  8
0
 10
1713.8031
 20
1227.2267
 30
0.0000
  0
VERTEX
  8
0
 10
1713.0874
 20
1227.5035
 30
0.0000
  0
VERTEX
  8
0
 10
1712.3149
 20
1227.6886
 30
0.0000
  0
VERTEX
  8
0
 10
1711.5087
 20
1227.7765
 30
0.0000
  0
VERTEX
  8
0
 10
1710.6932
 20
1227.7645
 30
0.0000
  0
VERTEX
  8
0
 10
1709.8929
 20
1227.6530
 30
0.0000
  0
VERTEX
  8
0
 10
1709.1319
 20
1227.4453
 30
0.0000
  0
VERTEX
  8
0
 10
1708.4332
 20
1227.1477
 30
0.0000
  0
VERTEX
  8
0
 10
1707.8750
 20
1226.8103
 30
0.0000
  0
SEQEND
  0
POLYLINE
  6
continous
  8
BYBLOCK
 70
0
 66
1
  0
VERTEX
  8
0
 10
1665.4486
 20
1196.8103
 30
0.0000
  0
VERTEX
  8
0
 10
1664.9285
 20
1196.3731
 30
0.0000
  0
VERTEX
  8
0
 10
1664.5572
 20
1195.9309
 30
0.0000
  0
VERTEX
  8
0
 10
1664.2868
 20
1195.4535
 30
0.0000
  0
VERTEX
  8
0
 10
1664.1238
 20
1194.9523
 30
0.0000
  0
VERTEX
  8
0
 10
1664.0723
 20
1194.4965
 30
0.0000
  0
SEQEND
  0
LINE
  6
continous
  8
BYBLOCK
 10
1665.4486
 20
1196.8103
 30
0.0000
 11
1665.4486
 21
1196.8810
 31
0.0000
  0
POLYLINE
  6
continous
  8
BYBLOCK
 70
0
 66
1
  0
VERTEX
  8
0
 10
1673.4718
 20
1194.4946
 30
0.0000
  0
VERTEX
  8
0
 10
1673.4068
 20
1195.0118
 30
0.0000
  0
VERTEX
  8
0
 10
1673.2288
 20
1195.5155
 30
0.0000
  0
VERTEX
  8
0
 10
1672.9420
 20
1195.9935
 30
0.0000
  0
VERTEX
  8
0
 10
1672.5534
 20
1196.4341
 30
0.0000
  0
VERTEX
  8
0
 10
1672.0138
 20
1196.8666
 30
0.0000
  0
VERTEX
  8
0
 10
1671.3767
 20
1197.2267
 30
0.0000
  0
VERTEX
  8
0
 10
1670.6610
 20
1197.5035
 30
0.0000
  0
VERTEX
  8
0
 10
1669.8885
 20
1197.6886
 30
0.0000
  0
VERTEX
  8
0
 10
1669.0823
 20
1197.7765
 30
0.0000
  0
VERTEX
  8
0
 10
1668.2668
 20
1197.7645
 30
0.0000
  0
VERTEX
  8
0
 10
1667.4665
 20
1197.6530
 30
0.0000
  0
VERTEX
  8
0
 10
1666.7055
 20
1197.4453
 30
0.0000
  0
VERTEX
  8
0
 10
1666.0068
 20
1197.1477
 30
0.0000
  0
VERTEX
  8
0
 10
1665.4486
 20
1196.8103
 30
0.0000
  0
SEQEND
  0
POLYLINE
  6
continous
  8
BYBLOCK
 70
0
 66
1
  0
VERTEX
  8
0
 10
1623.0222
 20
1166.8103
 30
0.0000
  0
VERTEX
  8
0
 10
1622.5021
 20
1166.3731
 30
0.0000
  0
VERTEX
  8
0
 10
1622.1308
 20
1165.9309
 30
0.0000
  0
VERTEX
  8
0
 10
1621.8604
 20
1165.4535
 30
0.0000
  0
VERTEX
  8
0
 10
1621.6974
 20
1164.9523
 30
0.0000
  0
VERTEX
  8
0
 10
1621.6459
 20
1164.4965
 30
0.0000
  0
SEQEND
  0
LINE
  6
continous
  8
BYBLOCK
 10
1623.0222
 20
1166.8103
 30
0.0000
 11
1623.0222
 21
1166.8810
 31
0.0000
  0
POLYLINE
  6
continous
  8
BYBLOCK
 70
0
 66
1
  0
VERTEX
  8
0
 10
1631.0453
 20
1164.4946
 30
0.0000
  0
VERTEX
  8
0
 10
1630.9804
 20
1165.0118
 30
0.0000
  0
VERTEX
  8
0
 10
1630.8024
 20
1165.5155
 30
0.0000
  0
VERTEX
  8
0
 10
1630.5156
 20
1165.9935
 30
0.0000
  0
VERTEX
  8
0
 10
1630.1270
 20
1166.4341
 30
0.0000
  0
VERTEX
  8
0
 10
1629.5874
 20
1166.8666
 30
0.0000
  0
VERTEX
  8
0
 10
1628.9503
 20
1167.2267
 30
0.0000
  0
VERTEX
  8
0
 10
1628.2346
 20
1167.5035
 30
0.0000
  0
VERTEX
  8
0
 10
1627.4621
 20
1167.6886
 30
0.0000
  0
VERTEX
  8
0
 10
1626.6559
 20
1167.7765
 30
0.0000
  0
VERTEX
  8
0
 10
1625.8404
 20
1167.7645
 30
0.0000
  0
VERTEX
  8
0
 10
1625.0401
 20
1167.6530
 30
0.0000
  0
VERTEX
  8
0
 10
1624.2791
 20
1167.4453
 30
0.0000
  0
VERTEX
  8
0
 10
1623.5804
 20
1167.1477
 30
0.0000
  0
VERTEX
  8
0
 10
1623.0222
 20
1166.8103
 30
0.0000
  0
SEQEND
  0
POLYLINE
  6
continous
  8
BYBLOCK
 70
0
 66
1
  0
VERTEX
  8
0
 10
1580.5958
 20
1136.8103
 30
0.0000
  0
VERTEX
  8
0
 10
1580.0757
 20
1136.3731
 30
0.0000
  0
VERTEX
  8
0
 10
1579.7044
 20
1135.9309
 30
0.0000
  0
VERTEX
  8
0
 10
1579.4340
 20
1135.4535
 30
0.0000
  0
VERTEX
  8
0
 10
1579.2710
 20
1134.9523
 30
0.0000
  0
VERTEX
  8
0
 10
1579.2195
 20
1134.4965
 30
0.0000
  0
SEQEND
  0
LINE
  6
continous
  8
BYBLOCK
 10
1580.5958
 20
1136.8103
 30
0.0000
 11
1580.5958
 21
1136.8810
 31
0.0000
  0
POLYLINE
  6
continous
  8
BYBLOCK
 70
0
 66
1
  0
VERTEX
  8
0
 10
1588.6189
 20
1134.4946
 30
0.0000
  0
VERTEX
  8
0
 10
1588.5540
 20
1135.0118
 30
0.0000
  0
VERTEX
  8
0
 10
1588.3760
 20
1135.5155
 30
0.0000
  0
VERTEX
  8
0
 10
1588.0892
 20
1135.9935
 30
0.0000
  0
VERTEX
  8
0
 10
1587.7006
 20
1136.4341
 30
0.0000
  0
VERTEX
  8
0
 10
1587.1610
 20
1136.8666
 30
0.0000
  0
VERTEX
  8
0
 10
1586.5238
 20
1137.2267
 30
0.0000
  0
VERTEX
  8
0
 10
1585.8082
 20
1137.5035
 30
0.0000
  0
VERTEX
  8
0
 10
1585.0357
 20
1137.6886
 30
0.0000
  0
VERTEX
  8
0
 10
1584.2295
 20
1137.7765
 30
0.0000
  0
VERTEX
  8
0
 10
1583.4140
 20
1137.7645
 30
0.0000
  0
VERTEX
  8
0
 10
1582.6137
 20
1137.6530
 30
0.0000
  0
VERTEX
  8
0
 10
1581.8527
 20
1137.4453
 30
0.0000
  0
VERTEX
  8
0
 10
1581.1540
 20
1137.1477
 30
0.0000
  0
VERTEX
  8
0
 10
1580.5958
 20
1136.8103
 30
0.0000
  0
SEQEND
  0
POLYLINE
  6
continous
  8
BYBLOCK
 70
0
 66
1
  0
VERTEX
  8
0
 10
1538.1694
 20
1106.8103
 30
0.0000
  0
VERTEX
  8
0
 10
1537.6493
 20
1106.3731
 30
0.0000
  0
VERTEX
  8
0
 10
1537.2780
 20
1105.9309
 30
0.0000
  0
VERTEX
  8
0
 10
1537.0076
 20
1105.4535
 30
0.0000
  0
VERTEX
  8
0
 10
1536.8446
 20
1104.9523
 30
0.0000
  0
VERTEX
  8
0
 10
1536.7931
 20
1104.4965
 30
0.0000
  0
SEQEND
  0
LINE
  6
continous
  8
BYBLOCK
 10
1538.1694
 20
1106.8103
 30
0.0000
 11
1538.1694
 21
1106.8810
 31
0.0000
  0
POLYLINE
  6
continous
  8
BYBLOCK
 70
0
 66
1
  0
VERTEX
  8
0
 10
1546.1925
 20
1104.4946
 30
0.0000
  0
VERTEX
  8
0
 10
1546.1276
 20
1105.0118
 30
0.0000
  0
VERTEX
  8
0
 10
1545.9496
 20
1105.5155
 30
0.0000
  0
VERTEX
  8
0
 10
1545.6628
 20
1105.9935
 30
0.0000
  0
VERTEX
  8
0
 10
1545.2742
 20
1106.4341
 30
0.0000
  0
VERTEX
  8
0
 10
1544.7346
 20
1106.8666
 30
0.0000
  0
VERTEX
  8
0
 10
1544.0974
 20
1107.2267
 30
0.0000
  0
VERTEX
  8
0
 10
1543.3818
 20
1107.5035
 30
0.0000
  0
VERTEX
  8
0
 10
1542.6093
 20
1107.6886
 30
0.0000
  0
VERTEX
  8
0
 10
1541.8031
 20
1107.7765
 30
0.0000
  0
VERTEX
  8
0
 10
1540.9876
 20
1107.7645
 30
0.0000
  0
VERTEX
  8
0
 10
1540.1873
 20
1107.6530
 30
0.0000
  0
VERTEX
  8
0
 10
1539.4263
 20
1107.4453
 30
0.0000
  0
VERTEX
  8
0
 10
1538.7276
 20
1107.1477
 30
0.0000
  0
VERTEX
  8
0
 10
1538.1694
 20
1106.8103
 30
0.0000
  0
SEQEND
  0
POLYLINE
  6
continous
  8
BYBLOCK
 70
0
 66
1
  0
VERTEX
  8
0
 10
1495.7430
 20
1076.8103
 30
0.0000
  0
VERTEX
  8
0
 10
1495.2229
 20
1076.3731
 30
0.0000
  0
VERTEX
  8
0
 10
1494.8516
 20
1075.9309
 30
0.0000
  0
VERTEX
  8
0
 10
1494.5812
 20
1075.4535
 30
0.0000
  0
VERTEX
  8
0
 10
1494.4182
 20
1074.9523
 30
0.0000
  0
VERTEX
  8
0
 10
1494.3667
 20
1074.4965
 30
0.0000
  0
SEQEND
  0
LINE
  6
continous
  8
BYBLOCK
 10
1495.7430
 20
1076.8103
 30
0.0000
 11
1495.7430
 21
1076.8810
 31
0.0000
  0
POLYLINE
  6
continous
  8
BYBLOCK
 70
0
 66
1
  0
VERTEX
  8
0
 10
1503.7661
 20
1074.4946
 30
0.0000
  0
VERTEX
  8
0
 10
1503.7012
 20
1075.0118
 30
0.0000
  0
VERTEX
  8
0
 10
1503.5232
 20
1075.5155
 30
0.0000
  0
VERTEX
  8
0
 10
1503.2364
 20
1075.9935
 30
0.0000
  0
VERTEX
  8
0
 10
1502.8478
 20
1076.4341
 30
0.0000
  0
VERTEX
  8
0
 10
1502.3082
 20
1076.8666
 30
0.0000
  0
VERTEX
  8
0
 10
1501.6710
 20
1077.2267
 30
0.0000
  0
VERTEX
  8
0
 10
1500.9554
 20
1077.5035
 30
0.0000
  0
VERTEX
  8
0
 10
1500.1829
 20
1077.6886
 30
0.0000
  0
VERTEX
  8
0
 10
1499.3767
 20
1077.7765
 30
0.0000
  0
VERTEX
  8
0
 10
1498.5612
 20
1077.7645
 30
0.0000
  0
VERTEX
  8
0
 10
1497.7609
 20
1077.6530
 30
0.0000
  0
VERTEX
  8
0
 10
1496.9999
 20
1077.4453
 30
0.0000
  0
VERTEX
  8
0
 10
1496.3012
 20
1077.1477
 30
0.0000
  0
VERTEX
  8
0
 10
1495.7430
 20
1076.8103
 30
0.0000
  0
SEQEND
  0
POLYLINE
  6
continous
  8
BYBLOCK
 70
0
 66
1
  0
VERTEX
  8
0
 10
1453.3166
 20
1046.8103
 30
0.0000
  0
VERTEX
  8
0
 10
1452.7965
 20
1046.3731
 30
0.0000
  0
VERTEX
  8
0
 10
1452.4252
 20
1045.9309
 30
0.0000
  0
VERTEX
  8
0
 10
1452.1547
 20
1045.4535
 30
0.0000
  0
VERTEX
  8
0
 10
1451.9918
 20
1044.9523
 30
0.0000
  0
VERTEX
  8
0
 10
1451.9402
 20
1044.4965
 30
0.0000
  0
SEQEND
  0
LINE
  6
continous
  8
BYBLOCK
 10
1453.3166
 20
1046.8103
 30
0.0000
 11
1453.3166
 21
1046.8810
 31
0.0000
  0
POLYLINE
  6
continous
  8
BYBLOCK
 70
0
 66
1
  0
VERTEX
  8
0
 10
1461.3397
 20
1044.4946
 30
0.0000
  0
VERTEX
  8
0
 10
1461.2748
 20
1045.0118
 30
0.0000
  0
VERTEX
  8
0
 10
1461.0968
 20
1045.5155
 30
0.0000
  0
VERTEX
  8
0
 10
1460.8100
 20
1045.9935
 30
0.0000
  0
VERTEX
  8
0
 10
1460.4214
 20
1046.4341
 30
0.0000
  0
VERTEX
  8
0
 10
1459.8818
 20
1046.8666
 30
0.0000
  0
VERTEX
  8
0
 10
1459.2446
 20
1047.2267
 30
0.0000
  0
VERTEX
  8
0
 10
1458.5290
 20
1047.5035
 30
0.0000
  0
VERTEX
  8
0
 10
1457.7564
 20
1047.6886
 30
0.0000
  0
VERTEX
  8
0
 10
1456.9503
 20
1047.7765
 30
0.0000
  0
VERTEX
  8
0
 10
1456.1348
 20
1047.7645
 30
0.0000
  0
VERTEX
  8
0
 10
1455.3345
 20
1047.6530
 30
0.0000
  0
VERTEX
  8
0
 10
1454.5735
 20
1047.4453
 30
0.0000
  0
VERTEX
  8
0
 10
1453.8748
 20
1047.1477
 30
0.0000
  0
VERTEX
  8
0
 10
1453.3166
 20
1046.8103
 30
0.0000
  0
SEQEND
  0
POLYLINE
  6
continous
  8
BYBLOCK
 70
0
 66
1
  0
VERTEX
  8
0
 10
1410.8902
 20
1016.8103
 30
0.0000
  0
VERTEX
  8
0
 10
1410.3701
 20
1016.3731
 30
0.0000
  0
VERTEX
  8
0
 10
1409.9987
 20
1015.9309
 30
0.0000
  0
VERTEX
  8
0
 10
1409.7283
 20
1015.4535
 30
0.0000
  0
VERTEX
  8
0
 10
1409.5653
 20
1014.9523
 30
0.0000
  0
VERTEX
  8
0
 10
1409.5138
 20
1014.4965
 30
0.0000
  0
SEQEND
  0
LINE
  6
continous
  8
BYBLOCK
 10
1410.8902
 20
1016.8103
 30
0.0000
 11
1410.8902
 21
1016.8810
 31
0.0000
  0
POLYLINE
  6
continous
  8
BYBLOCK
 70
0
 66
1
  0
VERTEX
  8
0
 10
1418.9133
 20
1014.4946
 30
0.0000
  0
VERTEX
  8
0
 10
1418.8484
 20
1015.0118
 30
0.0000
  0
VERTEX
  8
0
 10
1418.6704
 20
1015.5155
 30
0.0000
  0
VERTEX
  8
0
 10
1418.3836
 20
1015.9935
 30
0.0000
  0
VERTEX
  8
0
 10
1417.9949
 20
1016.4341
 30
0.0000
  0
VERTEX
  8
0
 10
1417.4554
 20
1016.8666
 30
0.0000
  0
VERTEX
  8
0
 10
1416.8182
 20
1017.2267
 30
0.0000
  0
VERTEX
  8
0
 10
1416.1026
 20
1017.5035
 30
0.0000
  0
VERTEX
  8
0
 10
1415.3300
 20
1017.6886
 30
0.0000
  0
VERTEX
  8
0
 10
1414.5239
 20
1017.7765
 30
0.0000
  0
VERTEX
  8
0
 10
1413.7084
 20
1017.7645
 30
0.0000
  0
VERTEX
  8
0
 10
1412.9081
 20
1017.6530
 30
0.0000
  0
VERTEX
  8
0
 10
1412.1471
 20
1017.4453
 30
0.0000
  0
VERTEX
  8
0
 10
1411.4484
 20
1017.1477
 30
0.0000
  0
VERTEX
  8
0
 10
1410.8902
 20
1016.8103
 30
0.0000
  0
SEQEND
  0
POLYLINE
  6
continous
  8
BYBLOCK
 70
0
 66
1
  0
VERTEX
  8
0
 10
1368.4638
 20
986.8103
 30
0.0000
  0
VERTEX
  8
0
 10
1367.9437
 20
986.3731
 30
0.0000
  0
VERTEX
  8
0
 10
1367.5723
 20
985.9309
 30
0.0000
  0
VERTEX
  8
0
 10
1367.3019
 20
985.4535
 30
0.0000
  0
VERTEX
  8
0
 10
1367.1389
 20
984.9523
 30
0.0000
  0
VERTEX
  8
0
 10
1367.0874
 20
984.4965
 30
0.0000
  0
SEQEND
  0
LINE
  6
continous
  8
BYBLOCK
 10
1368.4638
 20
986.8103
 30
0.0000
 11
1368.4638
 21
986.8810
 31
0.0000
  0
POLYLINE
  6
continous
  8
BYBLOCK
 70
0
 66
1
  0
VERTEX
  8
0
 10
1376.4869
 20
984.4946
 30
0.0000
  0
VERTEX
  8
0
 10
1376.4220
 20
985.0118
 30
0.0000
  0
VERTEX
  8
0
 10
1376.2440
 20
985.5155
 30
0.0000
  0
VERTEX
  8
0
 10
1375.9571
 20
985.9935
 30
0.0000
  0
VERTEX
  8
0
 10
1375.5685
 20
986.4341
 30
0.0000
  0
VERTEX
  8
0
 10
1375.0290
 20
986.8666
 30
0.0000
  0
VERTEX
  8
0
 10
1374.3918
 20
987.2267
 30
0.0000
  0
VERTEX
  8
0
 10
1373.6762
 20
987.5035
 30
0.0000
  0
VERTEX
  8
0
 10
1372.9036
 20
987.6886
 30
0.0000
  0
VERTEX
  8
0
 10
1372.0975
 20
987.7765
 30
0.0000
  0
VERTEX
  8
0
 10
1371.2820
 20
987.7645
 30
0.0000
  0
VERTEX
  8
0
 10
1370.4817
 20
987.6530
 30
0.0000
  0
VERTEX
  8
0
 10
1369.7207
 20
987.4453
 30
0.0000
  0
VERTEX
  8
0
 10
1369.0220
 20
987.1477
 30
0.0000
  0
VERTEX
  8
0
 10
1368.4638
 20
986.8103
 30
0.0000
  0
SEQEND
  0
POLYLINE
  6
continous
  8
BYBLOCK
 70
0
 66
1
  0
VERTEX
  8
0
 10
1326.0373
 20
956.8103
 30
0.0000
  0
VERTEX
  8
0
 10
1325.5173
 20
956.3731
 30
0.0000
  0
VERTEX
  8
0
 10
1325.1459
 20
955.9309
 30
0.0000
  0
VERTEX
  8
0
 10
1324.8755
 20
955.4535
 30
0.0000
  0
VERTEX
  8
0
 10
1324.7125
 20
954.9523
 30
0.0000
  0
VERTEX
  8
0
 10
1324.6610
 20
954.4965
 30
0.0000
  0
SEQEND
  0
LINE
  6
continous
  8
BYBLOCK
 10
1326.0373
 20
956.8103
 30
0.0000
 11
1326.0373
 21
956.8810
 31
0.0000
  0
POLYLINE
  6
continous
  8
BYBLOCK
 70
0
 66
1
  0
VERTEX
  8
0
 10
1334.0605
 20
954.4946
 30
0.0000
  0
VERTEX
  8
0
 10
1333.9956
 20
955.0118
 30
0.0000
  0
VERTEX
  8
0
 10
1333.8176
 20
955.5155
 30
0.0000
  0
VERTEX
  8
0
 10
1333.5307
 20
955.9935
 30
0.0000
  0
VERTEX
  8
0
 10
1333.1421
 20
956.4341
 30
0.0000
  0
VERTEX
  8
0
 10
1332.6026
 20
956.8666
 30
0.0000
  0
VERTEX
  8
0
 10
1331.9654
 20
957.2267
 30
0.0000
  0
VERTEX
  8
0
 10
1331.2498
 20
957.5035
 30
0.0000
  0
VERTEX
  8
0
 10
1330.4772
 20
957.6886
 30
0.0000
  0
VERTEX
  8
0
 10
1329.6711
 20
957.7765
 30
0.0000
  0
VERTEX
  8
0
 10
1328.8555
 20
957.7645
 30
0.0000
  0
VERTEX
  8
0
 10
1328.0553
 20
957.6530
 30
0.0000
  0
VERTEX
  8
0
 10
1327.2943
 20
957.4453
 30
0.0000
  0
VERTEX
  8
0
 10
1326.5955
 20
957.1477
 30
0.0000
  0
VERTEX
  8
0
 10
1326.0373
 20
956.8103
 30
0.0000
  0
SEQEND
  0
POLYLINE
  6
continous
  8
BYBLOCK
 70
0
 66
1
  0
VERTEX
  8
0
 10
1283.6109
 20
926.8103
 30
0.0000
  0
VERTEX
  8
0
 10
1283.0909
 20
926.3731
 30
0.0000
  0
VERTEX
  8
0
 10
1282.7195
 20
925.9309
 30
0.0000
  0
VERTEX
  8
0
 10
1282.4491
 20
925.4535
 30
0.0000
  0
VERTEX
  8
0
 10
1282.2861
 20
924.9523
 30
0.0000
  0
VERTEX
  8
0
 10
1282.2346
 20
924.4965
 30
0.0000
  0
SEQEND
  0
LINE
  6
continous
  8
BYBLOCK
 10
1283.6109
 20
926.8103
 30
0.0000
 11
1283.6109
 21
926.8810
 31
0.0000
  0
POLYLINE
  6
continous
  8
BYBLOCK
 70
0
 66
1
  0
VERTEX
  8
0
 10
1291.6341
 20
924.4946
 30
0.0000
  0
VERTEX
  8
0
 10
1291.5692
 20
925.0118
 30
0.0000
  0
VERTEX
  8
0
 10
1291.3912
 20
925.5155
 30
0.0000
  0
VERTEX
  8
0
 10
1291.1043
 20
925.9935
 30
0.0000
  0
VERTEX
  8
0
 10
1290.7157
 20
926.4341
 30
0.0000
  0
VERTEX
  8
0
 10
1290.1762
 20
926.8666
 30
0.0000
  0
VERTEX
  8
0
 10
1289.5390
 20
927.2267
 30
0.0000
  0
VERTEX
  8
0
 10
1288.8234
 20
927.5035
 30
0.0000
  0
VERTEX
  8
0
 10
1288.0508
 20
927.6886
 30
0.0000
  0
VERTEX
  8
0
 10
1287.2447
 20
927.7765
 30
0.0000
  0
VERTEX
  8
0
 10
1286.4291
 20
927.7645
 30
0.0000
  0
VERTEX
  8
0
 10
1285.6288
 20
927.6530
 30
0.0000
  0
VERTEX
  8
0
 10
1284.8679
 20
927.4453
 30
0.0000
  0
VERTEX
  8
0
 10
1284.1691
 20
927.1477
 30
0.0000
  0
VERTEX
  8
0
 10
1283.6109
 20
926.8103
 30
0.0000
  0
SEQEND
  0
POLYLINE
  6
continous
  8
BYBLOCK
 70
0
 66
1
  0
VERTEX
  8
0
 10
1241.1845
 20
896.8103
 30
0.0000
  0
VERTEX
  8
0
 10
1240.6645
 20
896.3731
 30
0.0000
  0
VERTEX
  8
0
 10
1240.2931
 20
895.9309
 30
0.0000
  0
VERTEX
  8
0
 10
1240.0227
 20
895.4535
 30
0.0000
  0
VERTEX
  8
0
 10
1239.8597
 20
894.9523
 30
0.0000
  0
VERTEX
  8
0
 10
1239.8082
 20
894.4965
 30
0.0000
  0
SEQEND
  0
LINE
  6
continous
  8
BYBLOCK
 10
1241.1845
 20
896.8103
 30
0.0000
 11
1241.1845
 21
896.8810
 31
0.0000
  0
POLYLINE
  6
continous
  8
BYBLOCK
 70
0
 66
1
  0
VERTEX
  8
0
 10
1249.2077
 20
894.4946
 30
0.0000
  0
VERTEX
  8
0
 10
1249.1428
 20
895.0118
 30
0.0000
  0
VERTEX
  8
0
 10
1248.9647
 20
895.5155
 30
0.0000
  0
VERTEX
  8
0
 10
1248.6779
 20
895.9935
 30
0.0000
  0
VERTEX
  8
0
 10
1248.2893
 20
896.4341
 30
0.0000
  0
VERTEX
  8
0
 10
1247.7498
 20
896.8666
 30
0.0000
  0
VERTEX
  8
0
 10
1247.1126
 20
897.2267
 30
0.0000
  0
VERTEX
  8
0
 10
1246.3969
 20
897.5035
 30
0.0000
  0
VERTEX
  8
0
 10
1245.6244
 20
897.6886
 30
0.0000
  0
VERTEX
  8
0
 10
1244.8182
 20
897.7765
 30
0.0000
  0
VERTEX
  8
0
 10
1244.0027
 20
897.7645
 30
0.0000
  0
VERTEX
  8
0
 10
1243.2024
 20
897.6530
 30
0.0000
  0
VERTEX
  8
0
 10
1242.4415
 20
897.4453
 30
0.0000
  0
VERTEX
  8
0
 10
1241.7427
 20
897.1477
 30
0.0000
  0
VERTEX
  8
0
 10
1241.1845
 20
896.8103
 30
0.0000
  0
SEQEND
  0
POLYLINE
  6
continous
  8
BYBLOCK
 70
0
 66
1
  0
VERTEX
  8
0
 10
1198.7581
 20
866.8103
 30
0.0000
  0
VERTEX
  8
0
 10
1198.2380
 20
866.3731
 30
0.0000
  0
VERTEX
  8
0
 10
1197.8667
 20
865.9309
 30
0.0000
  0
VERTEX
  8
0
 10
1197.5963
 20
865.4535
 30
0.0000
  0
VERTEX
  8
0
 10
1197.4333
 20
864.9523
 30
0.0000
  0
VERTEX
  8
0
 10
1197.3818
 20
864.4965
 30
0.0000
  0
SEQEND
  0
LINE
  6
continous
  8
BYBLOCK
 10
1198.7581
 20
866.8103
 30
0.0000
 11
1198.7581
 21
866.8810
 31
0.0000
  0
POLYLINE
  6
continous
  8
BYBLOCK
 70
0
 66
1
  0
VERTEX
  8
0
 10
1206.7813
 20
864.4946
 30
0.0000
  0
VERTEX
  8
0
 10
1206.7164
 20
865.0118
 30
0.0000
  0
VERTEX
  8
0
 10
1206.5383
 20
865.5155
 30
0.0000
  0
VERTEX
  8
0
 10
1206.2515
 20
865.9935
 30
0.0000
  0
VERTEX
  8
0
 10
1205.8629
 20
866.4341
 30
0.0000
  0
VERTEX
  8
0
 10
1205.3234
 20
866.8666
 30
0.0000
  0
VERTEX
  8
0
 10
1204.6862
 20
867.2267
 30
0.0000
  0
VERTEX
  8
0
 10
1203.9705
 20
867.5035
 30
0.0000
  0
VERTEX
  8
0
 10
1203.1980
 20
867.6886
 30
0.0000
  0
VERTEX
  8
0
 10
1202.3918
 20
867.7765
 30
0.0000
  0
VERTEX
  8
0
 10
1201.5763
 20
867.7645
 30
0.0000
  0
VERTEX
  8
0
 10
1200.7760
 20
867.6530
 30
0.0000
  0
VERTEX
  8
0
 10
1200.0151
 20
867.4453
 30
0.0000
  0
VERTEX
  8
0
 10
1199.3163
 20
867.1477
 30
0.0000
  0
VERTEX
  8
0
 10
1198.7581
 20
866.8103
 30
0.0000
  0
SEQEND
  0
POLYLINE
  6
continous
  8
BYBLOCK
 70
0
 66
1
  0
VERTEX
  8
0
 10
1156.3317
 20
836.8103
 30
0.0000
  0
VERTEX
  8
0
 10
1155.8116
 20
836.3731
 30
0.0000
  0
VERTEX
  8
0
 10
1155.4403
 20
835.9309
 30
0.0000
  0
VERTEX
  8
0
 10
1155.1699
 20
835.4535
 30
0.0000
  0
VERTEX
  8
0
 10
1155.0069
 20
834.9523
 30
0.0000
  0
VERTEX
  8
0
 10
1154.9554
 20
834.4965
 30
0.0000
  0
SEQEND
  0
LINE
  6
continous
  8
BYBLOCK
 10
1156.3317
 20
836.8103
 30
0.0000
 11
1156.3317
 21
836.8810
 31
0.0000
  0
POLYLINE
  6
continous
  8
BYBLOCK
 70
0
 66
1
  0
VERTEX
  8
0
 10
1164.3549
 20
834.4946
 30
0.0000
  0
VERTEX
  8
0
 10
1164.2900
 20
835.0118
 30
0.0000
  0
VERTEX
  8
0
 10
1164.1119
 20
835.5155
 30
0.0000
  0
VERTEX
  8
0
 10
1163.8251
 20
835.9935
 30
0.0000
  0
VERTEX
  8
0
 10
1163.4365
 20
836.4341
 30
0.0000
  0
VERTEX
  8
0
 10
1162.8970
 20
836.8666
 30
0.0000
  0
VERTEX
  8
0
 10
1162.2598
 20
837.2267
 30
0.0000
  0
VERTEX
  8
0
 10
1161.5441
 20
837.5035
 30
0.0000
  0
VERTEX
  8
0
 10
1160.7716
 20
837.6886
 30
0.0000
  0
VERTEX
  8
0
 10
1159.9654
 20
837.7765
 30
0.0000
  0
VERTEX
  8
0
 10
1159.1499
 20
837.7645
 30
0.0000
  0
VERTEX
  8
0
 10
1158.3496
 20
837.6530
 30
0.0000
  0
VERTEX
  8
0
 10
1157.5887
 20
837.4453
 30
0.0000
  0
VERTEX
  8
0
 10
1156.8899
 20
837.1477
 30
0.0000
  0
VERTEX
  8
0
 10
1156.3317
 20
836.8103
 30
0.0000
  0
SEQEND
  0
POLYLINE
  6
continous
  8
BYBLOCK
 70
0
 66
1
  0
VERTEX
  8
0
 10
1113.9053
 20
806.8103
 30
0.0000
  0
VERTEX
  8
0
 10
1113.3852
 20
806.3731
 30
0.0000
  0
VERTEX
  8
0
 10
1113.0139
 20
805.9309
 30
0.0000
  0
VERTEX
  8
0
 10
1112.7435
 20
805.4535
 30
0.0000
  0
VERTEX
  8
0
 10
1112.5805
 20
804.9523
 30
0.0000
  0
VERTEX
  8
0
 10
1112.5290
 20
804.4965
 30
0.0000
  0
SEQEND
  0
LINE
  6
continous
  8
BYBLOCK
 10
1113.9053
 20
806.8103
 30
0.0000
 11
1113.9053
 21
806.8810
 31
0.0000
  0
POLYLINE
  6
continous
  8
BYBLOCK
 70
0
 66
1
  0
VERTEX
  8
0
 10
1121.9285
 20
804.4946
 30
0.0000
  0
VERTEX
  8
0
 10
1121.8636
 20
805.0118
 30
0.0000
  0
VERTEX
  8
0
 10
1121.6855
 20
805.5155
 30
0.0000
  0
VERTEX
  8
0
 10
1121.3987
 20
805.9935
 30
0.0000
  0
VERTEX
  8
0
 10
1121.0101
 20
806.4341
 30
0.0000
  0
VERTEX
  8
0
 10
1120.4706
 20
806.8666
 30
0.0000
  0
VERTEX
  8
0
 10
1119.8334
 20
807.2267
 30
0.0000
  0
VERTEX
  8
0
 10
1119.1177
 20
807.5035
 30
0.0000
  0
VERTEX
  8
0
 10
1118.3452
 20
807.6886
 30
0.0000
  0
VERTEX
  8
0
 10
1117.5390
 20
807.7765
 30
0.0000
  0
VERTEX
  8
0
 10
1116.7235
 20
807.7645
 30
0.0000
  0
VERTEX
  8
0
 10
1115.9232
 20
807.6530
 30
0.0000
  0
VERTEX
  8
0
 10
1115.1622
 20
807.4453
 30
0.0000
  0
VERTEX
  8
0
 10
1114.4635
 20
807.1477
 30
0.0000
  0
VERTEX
  8
0
 10
1113.9053
 20
806.8103
 30
0.0000
  0
SEQEND
  0
POLYLINE
  6
continous
  8
BYBLOCK
 70
0
 66
1
  0
VERTEX
  8
0
 10
1071.4789
 20
776.8103
 30
0.0000
  0
VERTEX
  8
0
 10
1070.9588
 20
776.3731
 30
0.0000
  0
VERTEX
  8
0
 10
1070.5875
 20
775.9309
 30
0.0000
  0
VERTEX
  8
0
 10
1070.3171
 20
775.4535
 30
0.0000
  0
VERTEX
  8
0
 10
1070.1541
 20
774.9523
 30
0.0000
  0
VERTEX
  8
0
 10
1070.1026
 20
774.4965
 30
0.0000
  0
SEQEND
  0
LINE
  6
continous
  8
BYBLOCK
 10
1071.4789
 20
776.8103
 30
0.0000
 11
1071.4789
 21
776.8810
 31
0.0000
  0
POLYLINE
  6
continous
  8
BYBLOCK
 70
0
 66
1
  0
VERTEX
  8
0
 10
1079.5021
 20
774.4946
 30
0.0000
  0
VERTEX
  8
0
 10
1079.4372
 20
775.0118
 30
0.0000
  0
VERTEX
  8
0
 10
1079.2591
 20
775.5155
 30
0.0000
  0
VERTEX
  8
0
 10
1078.9723
 20
775.9935
 30
0.0000
  0
VERTEX
  8
0
 10
1078.5837
 20
776.4341
 30
0.0000
  0
VERTEX
  8
0
 10
1078.0441
 20
776.8666
 30
0.0000
  0
VERTEX
  8
0
 10
1077.4070
 20
777.2267
 30
0.0000
  0
VERTEX
  8
0
 10
1076.6913
 20
777.5035
 30
0.0000
  0
VERTEX
  8
0
 10
1075.9188
 20
777.6886
 30
0.0000
  0
VERTEX
  8
0
 10
1075.1126
 20
777.7765
 30
0.0000
  0
VERTEX
  8
0
 10
1074.2971
 20
777.7645
 30
0.0000
  0
VERTEX
  8
0
 10
1073.4968
 20
777.6530
 30
0.0000
  0
VERTEX
  8
0
 10
1072.7358
 20
777.4453
 30
0.0000
  0
VERTEX
  8
0
 10
1072.0371
 20
777.1477
 30
0.0000
  0
VERTEX
  8
0
 10
1071.4789
 20
776.8103
 30
0.0000
  0
SEQEND
  0
POLYLINE
  6
continous
  8
BYBLOCK
 70
0
 66
1
  0
VERTEX
  8
0
 10
1029.0525
 20
746.8103
 30
0.0000
  0
VERTEX
  8
0
 10
1028.5324
 20
746.3731
 30
0.0000
  0
VERTEX
  8
0
 10
1028.1611
 20
745.9309
 30
0.0000
  0
VERTEX
  8
0
 10
1027.8907
 20
745.4535
 30
0.0000
  0
VERTEX
  8
0
 10
1027.7277
 20
744.9523
 30
0.0000
  0
VERTEX
  8
0
 10
1027.6762
 20
744.4965
 30
0.0000
  0
SEQEND
  0
LINE
  6
continous
  8
BYBLOCK
 10
1029.0525
 20
746.8103
 30
0.0000
 11
1029.0525
 21
746.8810
 31
0.0000
  0
POLYLINE
  6
continous
  8
BYBLOCK
 70
0
 66
1
  0
VERTEX
  8
0
 10
1037.0757
 20
744.4946
 30
0.0000
  0
VERTEX
  8
0
 10
1037.0107
 20
745.0118
 30
0.0000
  0
VERTEX
  8
0
 10
1036.8327
 20
745.5155
 30
0.0000
  0
VERTEX
  8
0
 10
1036.5459
 20
745.9935
 30
0.0000
  0
VERTEX
  8
0
 10
1036.1573
 20
746.4341
 30
0.0000
  0
VERTEX
  8
0
 10
1035.6177
 20
746.8666
 30
0.0000
  0
VERTEX
  8
0
 10
1034.9806
 20
747.2267
 30
0.0000
  0
VERTEX
  8
0
 10
1034.2649
 20
747.5035
 30
0.0000
  0
VERTEX
  8
0
 10
1033.4924
 20
747.6886
 30
0.0000
  0
VERTEX
  8
0
 10
1032.6862
 20
747.7765
 30
0.0000
  0
VERTEX
  8
0
 10
1031.8707
 20
747.7645
 30
0.0000
  0
VERTEX
  8
0
 10
1031.0704
 20
747.6530
 30
0.0000
  0
VERTEX
  8
0
 10
1030.3094
 20
747.4453
 30
0.0000
  0
VERTEX
  8
0
 10
1029.6107
 20
747.1477
 30
0.0000
  0
VERTEX
  8
0
 10
1029.0525
 20
746.8103
 30
0.0000
  0
SEQEND
  0
POLYLINE
  6
continous
  8
BYBLOCK
 70
0
 66
1
  0
VERTEX
  8
0
 10
986.6261
 20
716.8103
 30
0.0000
  0
VERTEX
  8
0
 10
986.1060
 20
716.3731
 30
0.0000
  0
VERTEX
  8
0
 10
985.7347
 20
715.9309
 30
0.0000
  0
VERTEX
  8
0
 10
985.4643
 20
715.4535
 30
0.0000
  0
VERTEX
  8
0
 10
985.3013
 20
714.9523
 30
0.0000
  0
VERTEX
  8
0
 10
985.2498
 20
714.4965
 30
0.0000
  0
SEQEND
  0
LINE
  6
continous
  8
BYBLOCK
 10
986.6261
 20
716.8103
 30
0.0000
 11
986.6261
 21
716.8810
 31
0.0000
  0
POLYLINE
  6
continous
  8
BYBLOCK
 70
0
 66
1
  0
VERTEX
  8
0
 10
994.6492
 20
714.4946
 30
0.0000
  0
VERTEX
  8
0
 10
994.5843
 20
715.0118
 30
0.0000
  0
VERTEX
  8
0
 10
994.4063
 20
715.5155
 30
0.0000
  0
VERTEX
  8
0
 10
994.1195
 20
715.9935
 30
0.0000
  0
VERTEX
  8
0
 10
993.7309
 20
716.4341
 30
0.0000
  0
VERTEX
  8
0
 10
993.1913
 20
716.8666
 30
0.0000
  0
VERTEX
  8
0
 10
992.5541
 20
717.2267
 30
0.0000
  0
VERTEX
  8
0
 10
991.8385
 20
717.5035
 30
0.0000
  0
VERTEX
  8
0
 10
991.0660
 20
717.6886
 30
0.0000
  0
VERTEX
  8
0
 10
990.2598
 20
717.7765
 30
0.0000
  0
VERTEX
  8
0
 10
989.4443
 20
717.7645
 30
0.0000
  0
VERTEX
  8
0
 10
988.6440
 20
717.6530
 30
0.0000
  0
VERTEX
  8
0
 10
987.8830
 20
717.4453
 30
0.0000
  0
VERTEX
  8
0
 10
987.1843
 20
717.1477
 30
0.0000
  0
VERTEX
  8
0
 10
986.6261
 20
716.8103
 30
0.0000
  0
SEQEND
  0
POLYLINE
  6
continous
  8
BYBLOCK
 70
0
 66
1
  0
VERTEX
  8
0
 10
944.1997
 20
686.8103
 30
0.0000
  0
VERTEX
  8
0
 10
943.6796
 20
686.3731
 30
0.0000
  0
VERTEX
  8
0
 10
943.3083
 20
685.9309
 30
0.0000
  0
VERTEX
  8
0
 10
943.0379
 20
685.4535
 30
0.0000
  0
VERTEX
  8
0
 10
942.8749
 20
684.9523
 30
0.0000
  0
VERTEX
  8
0
 10
942.8234
 20
684.4965
 30
0.0000
  0
SEQEND
  0
LINE
  6
continous
  8
BYBLOCK
 10
944.1997
 20
686.8103
 30
0.0000
 11
944.1997
 21
686.8810
 31
0.0000
  0
POLYLINE
  6
continous
  8
BYBLOCK
 70
0
 66
1
  0
VERTEX
  8
0
 10
952.2228
 20
684.4946
 30
0.0000
  0
VERTEX
  8
0
 10
952.1579
 20
685.0118
 30
0.0000
  0
VERTEX
  8
0
 10
951.9799
 20
685.5155
 30
0.0000
  0
VERTEX
  8
0
 10
951.6931
 20
685.9935
 30
0.0000
  0
VERTEX
  8
0
 10
951.3045
 20
686.4341
 30
0.0000
  0
VERTEX
  8
0
 10
950.7649
 20
686.8666
 30
0.0000
  0
VERTEX
  8
0
 10
950.1277
 20
687.2267
 30
0.0000
  0
VERTEX
  8
0
 10
949.4121
 20
687.5035
 30
0.0000
  0
VERTEX
  8
0
 10
948.6396
 20
687.6886
 30
0.0000
  0
VERTEX
  8
0
 10
947.8334
 20
687.7765
 30
0.0000
  0
VERTEX
  8
0
 10
947.0179
 20
687.7645
 30
0.0000
  0
VERTEX
  8
0
 10
946.2176
 20
687.6530
 30
0.0000
  0
VERTEX
  8
0
 10
945.4566
 20
687.4453
 30
0.0000
  0
VERTEX
  8
0
 10
944.7579
 20
687.1477
 30
0.0000
  0
VERTEX
  8
0
 10
944.1997
 20
686.8103
 30
0.0000
  0
SEQEND
  0
POLYLINE
  6
continous
  8
BYBLOCK
 70
0
 66
1
  0
VERTEX
  8
0
 10
901.7733
 20
656.8103
 30
0.0000
  0
VERTEX
  8
0
 10
901.2532
 20
656.3731
 30
0.0000
  0
VERTEX
  8
0
 10
900.8819
 20
655.9309
 30
0.0000
  0
VERTEX
  8
0
 10
900.6115
 20
655.4535
 30
0.0000
  0
VERTEX
  8
0
 10
900.4485
 20
654.9523
 30
0.0000
  0
VERTEX
  8
0
 10
900.3970
 20
654.4965
 30
0.0000
  0
SEQEND
  0
LINE
  6
continous
  8
BYBLOCK
 10
901.7733
 20
656.8103
 30
0.0000
 11
901.7733
 21
656.8810
 31
0.0000
  0
POLYLINE
  6
continous
  8
BYBLOCK
 70
0
 66
1
  0
VERTEX
  8
0
 10
909.7964
 20
654.4946
 30
0.0000
  0
VERTEX
  8
0
 10
909.7315
 20
655.0118
 30
0.0000
  0
VERTEX
  8
0
 10
909.5535
 20
655.5155
 30
0.0000
  0
VERTEX
  8
0
 10
909.2667
 20
655.9935
 30
0.0000
  0
VERTEX
  8
0
 10
908.8781
 20
656.4341
 30
0.0000
  0
VERTEX
  8
0
 10
908.3385
 20
656.8666
 30
0.0000
  0
VERTEX
  8
0
 10
907.7013
 20
657.2267
 30
0.0000
  0
VERTEX
  8
0
 10
906.9857
 20
657.5035
 30
0.0000
  0
VERTEX
  8
0
 10
906.2132
 20
657.6886
 30
0.0000
  0
VERTEX
  8
0
 10
905.4070
 20
657.7765
 30
0.0000
  0
VERTEX
  8
0
 10
904.5915
 20
657.7645
 30
0.0000
  0
VERTEX
  8
0
 10
903.7912
 20
657.6530
 30
0.0000
  0
VERTEX
  8
0
 10
903.0302
 20
657.4453
 30
0.0000
  0
VERTEX
  8
0
 10
902.3315
 20
657.1477
 30
0.0000
  0
VERTEX
  8
0
 10
901.7733
 20
656.8103
 30
0.0000
  0
SEQEND
  0
POLYLINE
  6
continous
  8
BYBLOCK
 70
0
 66
1
  0
VERTEX
  8
0
 10
859.3469
 20
626.8103
 30
0.0000
  0
VERTEX
  8
0
 10
858.8268
 20
626.3731
 30
0.0000
  0
VERTEX
  8
0
 10
858.4555
 20
625.9309
 30
0.0000
  0
VERTEX
  8
0
 10
858.1851
 20
625.4535
 30
0.0000
  0
VERTEX
  8
0
 10
858.0221
 20
624.9523
 30
0.0000
  0
VERTEX
  8
0
 10
857.9706
 20
624.4965
 30
0.0000
  0
SEQEND
  0
LINE
  6
continous
  8
BYBLOCK
 10
859.3469
 20
626.8103
 30
0.0000
 11
859.3469
 21
626.8810
 31
0.0000
  0
POLYLINE
  6
continous
  8
BYBLOCK
 70
0
 66
1
  0
VERTEX
  8
0
 10
867.3700
 20
624.4946
 30
0.0000
  0
VERTEX
  8
0
 10
867.3051
 20
625.0118
 30
0.0000
  0
VERTEX
  8
0
 10
867.1271
 20
625.5155
 30
0.0000
  0
VERTEX
  8
0
 10
866.8403
 20
625.9935
 30
0.0000
  0
VERTEX
  8
0
 10
866.4517
 20
626.4341
 30
0.0000
  0
VERTEX
  8
0
 10
865.9121
 20
626.8666
 30
0.0000
  0
VERTEX
  8
0
 10
865.2749
 20
627.2267
 30
0.0000
  0
VERTEX
  8
0
 10
864.5593
 20
627.5035
 30
0.0000
  0
VERTEX
  8
0
 10
863.7867
 20
627.6886
 30
0.0000
  0
VERTEX
  8
0
 10
862.9806
 20
627.7765
 30
0.0000
  0
VERTEX
  8
0
 10
862.1651
 20
627.7645
 30
0.0000
  0
VERTEX
  8
0
 10
861.3648
 20
627.6530
 30
0.0000
  0
VERTEX
  8
0
 10
860.6038
 20
627.4453
 30
0.0000
  0
VERTEX
  8
0
 10
859.9051
 20
627.1477
 30
0.0000
  0
VERTEX
  8
0
 10
859.3469
 20
626.8103
 30
0.0000
  0
SEQEND
  0
POLYLINE
  6
continous
  8
BYBLOCK
 70
0
 66
1
  0
VERTEX
  8
0
 10
816.9205
 20
596.8103
 30
0.0000
  0
VERTEX
  8
0
 10
816.4004
 20
596.3731
 30
0.0000
  0
VERTEX
  8
0
 10
816.0290
 20
595.9309
 30
0.0000
  0
VERTEX
  8
0
 10
815.7586
 20
595.4535
 30
0.0000
  0
VERTEX
  8
0
 10
815.5956
 20
594.9523
 30
0.0000
  0
VERTEX
  8
0
 10
815.5441
 20
594.4965
 30
0.0000
  0
SEQEND
  0
LINE
  6
continous
  8
BYBLOCK
 10
816.9205
 20
596.8103
 30
0.0000
 11
816.9205
 21
596.8810
 31
0.0000
  0
POLYLINE
  6
continous
  8
BYBLOCK
 70
0
 66
1
  0
VERTEX
  8
0
 10
824.9436
 20
594.4946
 30
0.0000
  0
VERTEX
  8
0
 10
824.8787
 20
595.0118
 30
0.0000
  0
VERTEX
  8
0
 10
824.7007
 20
595.5155
 30
0.0000
  0
VERTEX
  8
0
 10
824.4139
 20
595.9935
 30
0.0000
  0
VERTEX
  8
0
 10
824.0253
 20
596.4341
 30
0.0000
  0
VERTEX
  8
0
 10
823.4857
 20
596.8666
 30
0.0000
  0
VERTEX
  8
0
 10
822.8485
 20
597.2267
 30
0.0000
  0
VERTEX
  8
0
 10
822.1329
 20
597.5035
 30
0.0000
  0
VERTEX
  8
0
 10
821.3603
 20
597.6886
 30
0.0000
  0
VERTEX
  8
0
 10
820.5542
 20
597.7765
 30
0.0000
  0
VERTEX
  8
0
 10
819.7387
 20
597.7645
 30
0.0000
  0
VERTEX
  8
0
 10
818.9384
 20
597.6530
 30
0.0000
  0
VERTEX
  8
0
 10
818.1774
 20
597.4453
 30
0.0000
  0
VERTEX
  8
0
 10
817.4787
 20
597.1477
 30
0.0000
  0
VERTEX
  8
0
 10
816.9205
 20
596.8103
 30
0.0000
  0
SEQEND
  0
POLYLINE
  6
continous
  8
BYBLOCK
 70
0
 66
1
  0
VERTEX
  8
0
 10
774.4941
 20
566.8103
 30
0.0000
  0
VERTEX
  8
0
 10
773.9740
 20
566.3731
 30
0.0000
  0
VERTEX
  8
0
 10
773.6026
 20
565.9309
 30
0.0000
  0
VERTEX
  8
0
 10
773.3322
 20
565.4535
 30
0.0000
  0
VERTEX
  8
0
 10
773.1692
 20
564.9523
 30
0.0000
  0
VERTEX
  8
0
 10
773.1177
 20
564.4965
 30
0.0000
  0
SEQEND
  0
LINE
  6
continous
  8
BYBLOCK
 10
774.4941
 20
566.8103
 30
0.0000
 11
774.4941
 21
566.8810
 31
0.0000
  0
POLYLINE
  6
continous
  8
BYBLOCK
 70
0
 66
1
  0
VERTEX
  8
0
 10
782.5172
 20
564.4946
 30
0.0000
  0
VERTEX
  8
0
 10
782.4523
 20
565.0118
 30
0.0000
  0
VERTEX
  8
0
 10
782.2743
 20
565.5155
 30
0.0000
  0
VERTEX
  8
0
 10
781.9875
 20
565.9935
 30
0.0000
  0
VERTEX
  8
0
 10
781.5988
 20
566.4341
 30
0.0000
  0
VERTEX
  8
0
 10
781.0593
 20
566.8666
 30
0.0000
  0
VERTEX
  8
0
 10
780.4221
 20
567.2267
 30
0.0000
  0
VERTEX
  8
0
 10
779.7065
 20
567.5035
 30
0.0000
  0
VERTEX
  8
0
 10
778.9339
 20
567.6886
 30
0.0000
  0
VERTEX
  8
0
 10
778.1278
 20
567.7765
 30
0.0000
  0
VERTEX
  8
0
 10
777.3123
 20
567.7645
 30
0.0000
  0
VERTEX
  8
0
 10
776.5120
 20
567.6530
 30
0.0000
  0
VERTEX
  8
0
 10
775.7510
 20
567.4453
 30
0.0000
  0
VERTEX
  8
0
 10
775.0523
 20
567.1477
 30
0.0000
  0
VERTEX
  8
0
 10
774.4941
 20
566.8103
 30
0.0000
  0
SEQEND
  0
POLYLINE
  6
continous
  8
BYBLOCK
 70
0
 66
1
  0
VERTEX
  8
0
 10
732.0677
 20
536.8103
 30
0.0000
  0
VERTEX
  8
0
 10
731.5476
 20
536.3731
 30
0.0000
  0
VERTEX
  8
0
 10
731.1762
 20
535.9309
 30
0.0000
  0
VERTEX
  8
0
 10
730.9058
 20
535.4535
 30
0.0000
  0
VERTEX
  8
0
 10
730.7428
 20
534.9523
 30
0.0000
  0
VERTEX
  8
0
 10
730.6913
 20
534.4965
 30
0.0000
  0
SEQEND
  0
LINE
  6
continous
  8
BYBLOCK
 10
732.0677
 20
536.8103
 30
0.0000
 11
732.0677
 21
536.8810
 31
0.0000
  0
POLYLINE
  6
continous
  8
BYBLOCK
 70
0
 66
1
  0
VERTEX
  8
0
 10
740.0908
 20
534.4946
 30
0.0000
  0
VERTEX
  8
0
 10
740.0259
 20
535.0118
 30
0.0000
  0
VERTEX
  8
0
 10
739.8479
 20
535.5155
 30
0.0000
  0
VERTEX
  8
0
 10
739.5610
 20
535.9935
 30
0.0000
  0
VERTEX
  8
0
 10
739.1724
 20
536.4341
 30
0.0000
  0
VERTEX
  8
0
 10
738.6329
 20
536.8666
 30
0.0000
  0
VERTEX
  8
0
 10
737.9957
 20
537.2267
 30
0.0000
  0
VERTEX
  8
0
 10
737.2801
 20
537.5035
 30
0.0000
  0
VERTEX
  8
0
 10
736.5075
 20
537.6886
 30
0.0000
  0
VERTEX
  8
0
 10
735.7014
 20
537.7765
 30
0.0000
  0
VERTEX
  8
0
 10
734.8859
 20
537.7645
 30
0.0000
  0
VERTEX
  8
0
 10
734.0856
 20
537.6530
 30
0.0000
  0
VERTEX
  8
0
 10
733.3246
 20
537.4453
 30
0.0000
  0
VERTEX
  8
0
 10
732.6258
 20
537.1477
 30
0.0000
  0
VERTEX
  8
0
 10
732.0677
 20
536.8103
 30
0.0000
  0
SEQEND
  0
POLYLINE
  6
continous
  8
BYBLOCK
 70
0
 66
1
  0
VERTEX
  8
0
 10
689.6412
 20
506.8103
 30
0.0000
  0
VERTEX
  8
0
 10
689.1212
 20
506.3731
 30
0.0000
  0
VERTEX
  8
0
 10
688.7498
 20
505.9309
 30
0.0000
  0
VERTEX
  8
0
 10
688.4794
 20
505.4535
 30
0.0000
  0
VERTEX
  8
0
 10
688.3164
 20
504.9523
 30
0.0000
  0
VERTEX
  8
0
 10
688.2649
 20
504.4965
 30
0.0000
  0
SEQEND
  0
LINE
  6
continous
  8
BYBLOCK
 10
689.6412
 20
506.8103
 30
0.0000
 11
689.6412
 21
506.8810
 31
0.0000
  0
POLYLINE
  6
continous
  8
BYBLOCK
 70
0
 66
1
  0
VERTEX
  8
0
 10
697.6644
 20
504.4946
 30
0.0000
  0
VERTEX
  8
0
 10
697.5995
 20
505.0118
 30
0.0000
  0
VERTEX
  8
0
 10
697.4215
 20
505.5155
 30
0.0000
  0
VERTEX
  8
0
 10
697.1346
 20
505.9935
 30
0.0000
  0
VERTEX
  8
0
 10
696.7460
 20
506.4341
 30
0.0000
  0
VERTEX
  8
0
 10
696.2065
 20
506.8666
 30
0.0000
  0
VERTEX
  8
0
 10
695.5693
 20
507.2267
 30
0.0000
  0
VERTEX
  8
0
 10
694.8537
 20
507.5035
 30
0.0000
  0
VERTEX
  8
0
 10
694.0811
 20
507.6886
 30
0.0000
  0
VERTEX
  8
0
 10
693.2750
 20
507.7765
 30
0.0000
  0
VERTEX
  8
0
 10
692.4594
 20
507.7645
 30
0.0000
  0
VERTEX
  8
0
 10
691.6591
 20
507.6530
 30
0.0000
  0
VERTEX
  8
0
 10
690.8982
 20
507.4453
 30
0.0000
  0
VERTEX
  8
0
 10
690.1994
 20
507.1477
 30
0.0000
  0
VERTEX
  8
0
 10
689.6412
 20
506.8103
 30
0.0000
  0
SEQEND
  0
POLYLINE
  6
continous
  8
BYBLOCK
 70
0
 66
1
  0
VERTEX
  8
0
 10
647.2148
 20
476.8103
 30
0.0000
  0
VERTEX
  8
0
 10
646.6948
 20
476.3731
 30
0.0000
  0
VERTEX
  8
0
 10
646.3234
 20
475.9309
 30
0.0000
  0
VERTEX
  8
0
 10
646.0530
 20
475.4535
 30
0.0000
  0
VERTEX
  8
0
 10
645.8900
 20
474.9523
 30
0.0000
  0
VERTEX
  8
0
 10
645.8385
 20
474.4965
 30
0.0000
  0
SEQEND
  0
LINE
  6
continous
  8
BYBLOCK
 10
647.2148
 20
476.8103
 30
0.0000
 11
647.2148
 21
476.8810
 31
0.0000
  0
POLYLINE
  6
continous
  8
BYBLOCK
 70
0
 66
1
  0
VERTEX
  8
0
 10
655.2380
 20
474.4946
 30
0.0000
  0
VERTEX
  8
0
 10
655.1731
 20
475.0118
 30
0.0000
  0
VERTEX
  8
0
 10
654.9951
 20
475.5155
 30
0.0000
  0
VERTEX
  8
0
 10
654.7082
 20
475.9935
 30
0.0000
  0
VERTEX
  8
0
 10
654.3196
 20
476.4341
 30
0.0000
  0
VERTEX
  8
0
 10
653.7801
 20
476.8666
 30
0.0000
  0
VERTEX
  8
0
 10
653.1429
 20
477.2267
 30
0.0000
  0
VERTEX
  8
0
 10
652.4273
 20
477.5035
 30
0.0000
  0
VERTEX
  8
0
 10
651.6547
 20
477.6886
 30
0.0000
  0
VERTEX
  8
0
 10
650.8485
 20
477.7765
 30
0.0000
  0
VERTEX
  8
0
 10
650.0330
 20
477.7645
 30
0.0000
  0
VERTEX
  8
0
 10
649.2327
 20
477.6530
 30
0.0000
  0
VERTEX
  8
0
 10
648.4718
 20
477.4453
 30
0.0000
  0
VERTEX
  8
0
 10
647.7730
 20
477.1477
 30
0.0000
  0
VERTEX
  8
0
 10
647.2148
 20
476.8103
 30
0.0000
  0
SEQEND
  0
POLYLINE
  6
continous
  8
BYBLOCK
 70
0
 66
1
  0
VERTEX
  8
0
 10
604.7884
 20
446.8103
 30
0.0000
  0
VERTEX
  8
0
 10
604.2683
 20
446.3731
 30
0.0000
  0
VERTEX
  8
0
 10
603.8970
 20
445.9309
 30
0.0000
  0
VERTEX
  8
0
 10
603.6266
 20
445.4535
 30
0.0000
  0
VERTEX
  8
0
 10
603.4636
 20
444.9523
 30
0.0000
  0
VERTEX
  8
0
 10
603.4121
 20
444.4965
 30
0.0000
  0
SEQEND
  0
LINE
  6
continous
  8
BYBLOCK
 10
604.7884
 20
446.8103
 30
0.0000
 11
604.7884
 21
446.8810
 31
0.0000
  0
POLYLINE
  6
continous
  8
BYBLOCK
 70
0
 66
1
  0
VERTEX
  8
0
 10
612.8116
 20
444.4946
 30
0.0000
  0
VERTEX
  8
0
 10
612.7467
 20
445.0118
 30
0.0000
  0
VERTEX
  8
0
 10
612.5686
 20
445.5155
 30
0.0000
  0
VERTEX
  8
0
 10
612.2818
 20
445.9935
 30
0.0000
  0
VERTEX
  8
0
 10
611.8932
 20
446.4341
 30
0.0000
  0
VERTEX
  8
0
 10
611.3537
 20
446.8666
 30
0.0000
  0
VERTEX
  8
0
 10
610.7165
 20
447.2267
 30
0.0000
  0
VERTEX
  8
0
 10
610.0008
 20
447.5035
 30
0.0000
  0
VERTEX
  8
0
 10
609.2283
 20
447.6886
 30
0.0000
  0
VERTEX
  8
0
 10
608.4221
 20
447.7765
 30
0.0000
  0
VERTEX
  8
0
 10
607.6066
 20
447.7645
 30
0.0000
  0
VERTEX
  8
0
 10
606.8063
 20
447.6530
 30
0.0000
  0
VERTEX
  8
0
 10
606.0454
 20
447.4453
 30
0.0000
  0
VERTEX
  8
0
 10
605.3466
 20
447.1477
 30
0.0000
  0
VERTEX
  8
0
 10
604.7884
 20
446.8103
 30
0.0000
  0
SEQEND
  0
POLYLINE
  6
continous
  8
BYBLOCK
 70
0
 66
1
  0
VERTEX
  8
0
 10
562.3620
 20
416.8103
 30
0.0000
  0
VERTEX
  8
0
 10
561.8419
 20
416.3731
 30
0.0000
  0
VERTEX
  8
0
 10
561.4706
 20
415.9309
 30
0.0000
  0
VERTEX
  8
0
 10
561.2002
 20
415.4535
 30
0.0000
  0
VERTEX
  8
0
 10
561.0372
 20
414.9523
 30
0.0000
  0
VERTEX
  8
0
 10
560.9857
 20
414.4965
 30
0.0000
  0
SEQEND
  0
LINE
  6
continous
  8
BYBLOCK
 10
562.3620
 20
416.8103
 30
0.0000
 11
562.3620
 21
416.8810
 31
0.0000
  0
POLYLINE
  6
continous
  8
BYBLOCK
 70
0
 66
1
  0
VERTEX
  8
0
 10
570.3852
 20
414.4946
 30
0.0000
  0
VERTEX
  8
0
 10
570.3203
 20
415.0118
 30
0.0000
  0
VERTEX
  8
0
 10
570.1422
 20
415.5155
 30
0.0000
  0
VERTEX
  8
0
 10
569.8554
 20
415.9935
 30
0.0000
  0
VERTEX
  8
0
 10
569.4668
 20
416.4341
 30
0.0000
  0
VERTEX
  8
0
 10
568.9273
 20
416.8666
 30
0.0000
  0
VERTEX
  8
0
 10
568.2901
 20
417.2267
 30
0.0000
  0
VERTEX
  8
0
 10
567.5744
 20
417.5035
 30
0.0000
  0
VERTEX
  8
0
 10
566.8019
 20
417.6886
 30
0.0000
  0
VERTEX
  8
0
 10
565.9957
 20
417.7765
 30
0.0000
  0
VERTEX
  8
0
 10
565.1802
 20
417.7645
 30
0.0000
  0
VERTEX
  8
0
 10
564.3799
 20
417.6530
 30
0.0000
  0
VERTEX
  8
0
 10
563.6190
 20
417.4453
 30
0.0000
  0
VERTEX
  8
0
 10
562.9202
 20
417.1477
 30
0.0000
  0
VERTEX
  8
0
 10
562.3620
 20
416.8103
 30
0.0000
  0
SEQEND
  0
POLYLINE
  6
continous
  8
BYBLOCK
 70
0
 66
1
  0
VERTEX
  8
0
 10
519.9356
 20
386.8103
 30
0.0000
  0
VERTEX
  8
0
 10
519.4155
 20
386.3731
 30
0.0000
  0
VERTEX
  8
0
 10
519.0442
 20
385.9309
 30
0.0000
  0
VERTEX
  8
0
 10
518.7738
 20
385.4535
 30
0.0000
  0
VERTEX
  8
0
 10
518.6108
 20
384.9523
 30
0.0000
  0
VERTEX
  8
0
 10
518.5593
 20
384.4965
 30
0.0000
  0
SEQEND
  0
LINE
  6
continous
  8
BYBLOCK
 10
519.9356
 20
386.8103
 30
0.0000
 11
519.9356
 21
386.8810
 31
0.0000
  0
POLYLINE
  6
continous
  8
BYBLOCK
 70
0
 66
1
  0
VERTEX
  8
0
 10
527.9588
 20
384.4946
 30
0.0000
  0
VERTEX
  8
0
 10
527.8939
 20
385.0118
 30
0.0000
  0
VERTEX
  8
0
 10
527.7158
 20
385.5155
 30
0.0000
  0
VERTEX
  8
0
 10
527.4290
 20
385.9935
 30
0.0000
  0
VERTEX
  8
0
 10
527.0404
 20
386.4341
 30
0.0000
  0
VERTEX
  8
0
 10
526.5009
 20
386.8666
 30
0.0000
  0
VERTEX
  8
0
 10
525.8637
 20
387.2267
 30
0.0000
  0
VERTEX
  8
0
 10
525.1480
 20
387.5035
 30
0.0000
  0
VERTEX
  8
0
 10
524.3755
 20
387.6886
 30
0.0000
  0
VERTEX
  8
0
 10
523.5693
 20
387.7765
 30
0.0000
  0
VERTEX
  8
0
 10
522.7538
 20
387.7645
 30
0.0000
  0
VERTEX
  8
0
 10
521.9535
 20
387.6530
 30
0.0000
  0
VERTEX
  8
0
 10
521.1925
 20
387.4453
 30
0.0000
  0
VERTEX
  8
0
 10
520.4938
 20
387.1477
 30
0.0000
  0
VERTEX
  8
0
 10
519.9356
 20
386.8103
 30
0.0000
  0
SEQEND
  0
POLYLINE
  6
continous
  8
BYBLOCK
 70
0
 66
1
  0
VERTEX
  8
0
 10
477.5092
 20
356.8103
 30
0.0000
  0
VERTEX
  8
0
 10
476.9891
 20
356.3731
 30
0.0000
  0
VERTEX
  8
0
 10
476.6178
 20
355.9309
 30
0.0000
  0
VERTEX
  8
0
 10
476.3474
 20
355.4535
 30
0.0000
  0
VERTEX
  8
0
 10
476.1844
 20
354.9523
 30
0.0000
  0
VERTEX
  8
0
 10
476.1329
 20
354.4965
 30
0.0000
  0
SEQEND
  0
LINE
  6
continous
  8
BYBLOCK
 10
477.5092
 20
356.8103
 30
0.0000
 11
477.5092
 21
356.8810
 31
0.0000
  0
POLYLINE
  6
continous
  8
BYBLOCK
 70
0
 66
1
  0
VERTEX
  8
0
 10
485.5324
 20
354.4946
 30
0.0000
  0
VERTEX
  8
0
 10
485.4675
 20
355.0118
 30
0.0000
  0
VERTEX
  8
0
 10
485.2894
 20
355.5155
 30
0.0000
  0
VERTEX
  8
0
 10
485.0026
 20
355.9935
 30
0.0000
  0
VERTEX
  8
0
 10
484.6140
 20
356.4341
 30
0.0000
  0
VERTEX
  8
0
 10
484.0745
 20
356.8666
 30
0.0000
  0
VERTEX
  8
0
 10
483.4373
 20
357.2267
 30
0.0000
  0
VERTEX
  8
0
 10
482.7216
 20
357.5035
 30
0.0000
  0
VERTEX
  8
0
 10
481.9491
 20
357.6886
 30
0.0000
  0
VERTEX
  8
0
 10
481.1429
 20
357.7765
 30
0.0000
  0
VERTEX
  8
0
 10
480.3274
 20
357.7645
 30
0.0000
  0
VERTEX
  8
0
 10
479.5271
 20
357.6530
 30
0.0000
  0
VERTEX
  8
0
 10
478.7661
 20
357.4453
 30
0.0000
  0
VERTEX
  8
0
 10
478.0674
 20
357.1477
 30
0.0000
  0
VERTEX
  8
0
 10
477.5092
 20
356.8103
 30
0.0000
  0
SEQEND
  0
POLYLINE
  6
continous
  8
BYBLOCK
 70
0
 66
1
  0
VERTEX
  8
0
 10
435.0828
 20
326.8103
 30
0.0000
  0
VERTEX
  8
0
 10
434.5627
 20
326.3731
 30
0.0000
  0
VERTEX
  8
0
 10
434.1914
 20
325.9309
 30
0.0000
  0
VERTEX
  8
0
 10
433.9210
 20
325.4535
 30
0.0000
  0
VERTEX
  8
0
 10
433.7580
 20
324.9523
 30
0.0000
  0
VERTEX
  8
0
 10
433.7065
 20
324.4965
 30
0.0000
  0
SEQEND
  0
LINE
  6
continous
  8
BYBLOCK
 10
435.0828
 20
326.8103
 30
0.0000
 11
435.0828
 21
326.8810
 31
0.0000
  0
POLYLINE
  6
continous
  8
BYBLOCK
 70
0
 66
1
  0
VERTEX
  8
0
 10
443.1060
 20
324.4946
 30
0.0000
  0
VERTEX
  8
0
 10
443.0411
 20
325.0118
 30
0.0000
  0
VERTEX
  8
0
 10
442.8630
 20
325.5155
 30
0.0000
  0
VERTEX
  8
0
 10
442.5762
 20
325.9935
 30
0.0000
  0
VERTEX
  8
0
 10
442.1876
 20
326.4341
 30
0.0000
  0
VERTEX
  8
0
 10
441.6480
 20
326.8666
 30
0.0000
  0
VERTEX
  8
0
 10
441.0109
 20
327.2267
 30
0.0000
  0
VERTEX
  8
0
 10
440.2952
 20
327.5035
 30
0.0000
  0
VERTEX
  8
0
 10
439.5227
 20
327.6886
 30
0.0000
  0
VERTEX
  8
0
 10
438.7165
 20
327.7765
 30
0.0000
  0
VERTEX
  8
0
 10
437.9010
 20
327.7645
 30
0.0000
  0
VERTEX
  8
0
 10
437.1007
 20
327.6530
 30
0.0000
  0
VERTEX
  8
0
 10
436.3397
 20
327.4453
 30
0.0000
  0
VERTEX
  8
0
 10
435.6410
 20
327.1477
 30
0.0000
  0
VERTEX
  8
0
 10
435.0828
 20
326.8103
 30
0.0000
  0
SEQEND
  0
POLYLINE
  6
continous
  8
BYBLOCK
 70
0
 66
1
  0
VERTEX
  8
0
 10
392.6564
 20
296.8103
 30
0.0000
  0
VERTEX
  8
0
 10
392.1363
 20
296.3731
 30
0.0000
  0
VERTEX
  8
0
 10
391.7650
 20
295.9309
 30
0.0000
  0
VERTEX
  8
0
 10
391.4946
 20
295.4535
 30
0.0000
  0
VERTEX
  8
0
 10
391.3316
 20
294.9523
 30
0.0000
  0
VERTEX
  8
0
 10
391.2801
 20
294.4965
 30
0.0000
  0
SEQEND
  0
LINE
  6
continous
  8
BYBLOCK
 10
392.6564
 20
296.8103
 30
0.0000
 11
392.6564
 21
296.8810
 31
0.0000
  0
POLYLINE
  6
continous
  8
BYBLOCK
 70
0
 66
1
  0
VERTEX
  8
0
 10
400.6795
 20
294.4946
 30
0.0000
  0
VERTEX
  8
0
 10
400.6146
 20
295.0118
 30
0.0000
  0
VERTEX
  8
0
 10
400.4366
 20
295.5155
 30
0.0000
  0
VERTEX
  8
0
 10
400.1498
 20
295.9935
 30
0.0000
  0
VERTEX
  8
0
 10
399.7612
 20
296.4341
 30
0.0000
  0
VERTEX
  8
0
 10
399.2216
 20
296.8666
 30
0.0000
  0
VERTEX
  8
0
 10
398.5845
 20
297.2267
 30
0.0000
  0
VERTEX
  8
0
 10
397.8688
 20
297.5035
 30
0.0000
  0
VERTEX
  8
0
 10
397.0963
 20
297.6886
 30
0.0000
  0
VERTEX
  8
0
 10
396.2901
 20
297.7765
 30
0.0000
  0
VERTEX
  8
0
 10
395.4746
 20
297.7645
 30
0.0000
  0
VERTEX
  8
0
 10
394.6743
 20
297.6530
 30
0.0000
  0
VERTEX
  8
0
 10
393.9133
 20
297.4453
 30
0.0000
  0
VERTEX
  8
0
 10
393.2146
 20
297.1477
 30
0.0000
  0
VERTEX
  8
0
 10
392.6564
 20
296.8103
 30
0.0000
  0
SEQEND
  0
POLYLINE
  6
continous
  8
BYBLOCK
 70
0
 66
1
  0
VERTEX
  8
0
 10
350.2300
 20
266.8103
 30
0.0000
  0
VERTEX
  8
0
 10
349.7099
 20
266.3731
 30
0.0000
  0
VERTEX
  8
0
 10
349.3386
 20
265.9309
 30
0.0000
  0
VERTEX
  8
0
 10
349.0682
 20
265.4535
 30
0.0000
  0
VERTEX
  8
0
 10
348.9052
 20
264.9523
 30
0.0000
  0
VERTEX
  8
0
 10
348.8537
 20
264.4965
 30
0.0000
  0
SEQEND
  0
LINE
  6
continous
  8
BYBLOCK
 10
350.2300
 20
266.8103
 30
0.0000
 11
350.2300
 21
266.8810
 31
0.0000
  0
POLYLINE
  6
continous
  8
BYBLOCK
 70
0
 66
1
  0
VERTEX
  8
0
 10
358.2531
 20
264.4946
 30
0.0000
  0
VERTEX
  8
0
 10
358.1882
 20
265.0118
 30
0.0000
  0
VERTEX
  8
0
 10
358.0102
 20
265.5155
 30
0.0000
  0
VERTEX
  8
0
 10
357.7234
 20
265.9935
 30
0.0000
  0
VERTEX
  8
0
 10
357.3348
 20
266.4341
 30
0.0000
  0
VERTEX
  8
0
 10
356.7952
 20
266.8666
 30
0.0000
  0
VERTEX
  8
0
 10
356.1580
 20
267.2267
 30
0.0000
  0
VERTEX
  8
0
 10
355.4424
 20
267.5035
 30
0.0000
  0
VERTEX
  8
0
 10
354.6699
 20
267.6886
 30
0.0000
  0
VERTEX
  8
0
 10
353.8637
 20
267.7765
 30
0.0000
  0
VERTEX
  8
0
 10
353.0482
 20
267.7645
 30
0.0000
  0
VERTEX
  8
0
 10
352.2479
 20
267.6530
 30
0.0000
  0
VERTEX
  8
0
 10
351.4869
 20
267.4453
 30
0.0000
  0
VERTEX
  8
0
 10
350.7882
 20
267.1477
 30
0.0000
  0
VERTEX
  8
0
 10
350.2300
 20
266.8103
 30
0.0000
  0
SEQEND
  0
POLYLINE
  6
continous
  8
BYBLOCK
 70
0
 66
1
  0
VERTEX
  8
0
 10
307.8036
 20
236.8103
 30
0.0000
  0
VERTEX
  8
0
 10
307.2835
 20
236.3731
 30
0.0000
  0
VERTEX
  8
0
 10
306.9122
 20
235.9309
 30
0.0000
  0
VERTEX
  8
0
 10
306.6418
 20
235.4535
 30
0.0000
  0
VERTEX
  8
0
 10
306.4788
 20
234.9523
 30
0.0000
  0
VERTEX
  8
0
 10
306.4273
 20
234.4965
 30
0.0000
  0
SEQEND
  0
LINE
  6
continous
  8
BYBLOCK
 10
307.8036
 20
236.8103
 30
0.0000
 11
307.8036
 21
236.8810
 31
0.0000
  0
POLYLINE
  6
continous
  8
BYBLOCK
 70
0
 66
1
  0
VERTEX
  8
0
 10
315.8267
 20
234.4946
 30
0.0000
  0
VERTEX
  8
0
 10
315.7618
 20
235.0118
 30
0.0000
  0
VERTEX
  8
0
 10
315.5838
 20
235.5155
 30
0.0000
  0
VERTEX
  8
0
 10
315.2970
 20
235.9935
 30
0.0000
  0
VERTEX
  8
0
 10
314.9084
 20
236.4341
 30
0.0000
  0
VERTEX
  8
0
 10
314.3688
 20
236.8666
 30
0.0000
  0
VERTEX
  8
0
 10
313.7316
 20
237.2267
 30
0.0000
  0
VERTEX
  8
0
 10
313.0160
 20
237.5035
 30
0.0000
  0
VERTEX
  8
0
 10
312.2435
 20
237.6886
 30
0.0000
  0
VERTEX
  8
0
 10
311.4373
 20
237.7765
 30
0.0000
  0
VERTEX
  8
0
 10
310.6218
 20
237.7645
 30
0.0000
  0
VERTEX
  8
0
 10
309.8215
 20
237.6530
 30
0.0000
  0
VERTEX
  8
0
 10
309.0605
 20
237.4453
 30
0.0000
  0
VERTEX
  8
0
 10
308.3618
 20
237.1477
 30
0.0000
  0
VERTEX
  8
0
 10
307.8036
 20
236.8103
 30
0.0000
  0
SEQEND
  0
POLYLINE
  6
continous
  8
BYBLOCK
 70
0
 66
1
  0
VERTEX
  8
0
 10
265.3772
 20
206.8103
 30
0.0000
  0
VERTEX
  8
0
 10
264.8571
 20
206.3731
 30
0.0000
  0
VERTEX
  8
0
 10
264.4858
 20
205.9309
 30
0.0000
  0
VERTEX
  8
0
 10
264.2154
 20
205.4535
 30
0.0000
  0
VERTEX
  8
0
 10
264.0524
 20
204.9523
 30
0.0000
  0
VERTEX
  8
0
 10
264.0009
 20
204.4965
 30
0.0000
  0
SEQEND
  0
LINE
  6
continous
  8
BYBLOCK
 10
265.3772
 20
206.8103
 30
0.0000
 11
265.3772
 21
206.8810
 31
0.0000
  0
POLYLINE
  6
continous
  8
BYBLOCK
 70
0
 66
1
  0
VERTEX
  8
0
 10
273.4003
 20
204.4946
 30
0.0000
  0
VERTEX
  8
0
 10
273.3354
 20
205.0118
 30
0.0000
  0
VERTEX
  8
0
 10
273.1574
 20
205.5155
 30
0.0000
  0
VERTEX
  8
0
 10
272.8706
 20
205.9935
 30
0.0000
  0
VERTEX
  8
0
 10
272.4820
 20
206.4341
 30
0.0000
  0
VERTEX
  8
0
 10
271.9424
 20
206.8666
 30
0.0000
  0
VERTEX
  8
0
 10
271.3052
 20
207.2267
 30
0.0000
  0
VERTEX
  8
0
 10
270.5896
 20
207.5035
 30
0.0000
  0
VERTEX
  8
0
 10
269.8171
 20
207.6886
 30
0.0000
  0
VERTEX
  8
0
 10
269.0109
 20
207.7765
 30
0.0000
  0
VERTEX
  8
0
 10
268.1954
 20
207.7645
 30
0.0000
  0
VERTEX
  8
0
 10
267.3951
 20
207.6530
 30
0.0000
  0
VERTEX
  8
0
 10
266.6341
 20
207.4453
 30
0.0000
  0
VERTEX
  8
0
 10
265.9354
 20
207.1477
 30
0.0000
  0
VERTEX
  8
0
 10
265.3772
 20
206.8103
 30
0.0000
  0
SEQEND
  0
POLYLINE
  6
continous
  8
BYBLOCK
 70
0
 66
1
  0
VERTEX
  8
0
 10
222.9508
 20
176.8103
 30
0.0000
  0
VERTEX
  8
0
 10
222.4307
 20
176.3731
 30
0.0000
  0
VERTEX
  8
0
 10
222.0594
 20
175.9309
 30
0.0000
  0
VERTEX
  8
0
 10
221.7889
 20
175.4535
 30
0.0000
  0
VERTEX
  8
0
 10
221.6260
 20
174.9523
 30
0.0000
  0
VERTEX
  8
0
 10
221.5744
 20
174.4965
 30
0.0000
  0
SEQEND
  0
LINE
  6
continous
  8
BYBLOCK
 10
222.9508
 20
176.8103
 30
0.0000
 11
222.9508
 21
176.8810
 31
0.0000
  0
POLYLINE
  6
continous
  8
BYBLOCK
 70
0
 66
1
  0
VERTEX
  8
0
 10
230.9739
 20
174.4946
 30
0.0000
  0
VERTEX
  8
0
 10
230.9090
 20
175.0118
 30
0.0000
  0
VERTEX
  8
0
 10
230.7310
 20
175.5155
 30
0.0000
  0
VERTEX
  8
0
 10
230.4442
 20
175.9935
 30
0.0000
  0
VERTEX
  8
0
 10
230.0556
 20
176.4341
 30
0.0000
  0
VERTEX
  8
0
 10
229.5160
 20
176.8666
 30
0.0000
  0
VERTEX
  8
0
 10
228.8788
 20
177.2267
 30
0.0000
  0
VERTEX
  8
0
 10
228.1632
 20
177.5035
 30
0.0000
  0
VERTEX
  8
0
 10
227.3906
 20
177.6886
 30
0.0000
  0
VERTEX
  8
0
 10
226.5845
 20
177.7765
 30
0.0000
  0
VERTEX
  8
0
 10
225.7690
 20
177.7645
 30
0.0000
  0
VERTEX
  8
0
 10
224.9687
 20
177.6530
 30
0.0000
  0
VERTEX
  8
0
 10
224.2077
 20
177.4453
 30
0.0000
  0
VERTEX
  8
0
 10
223.5090
 20
177.1477
 30
0.0000
  0
VERTEX
  8
0
 10
222.9508
 20
176.8103
 30
0.0000
  0
SEQEND
  0
POLYLINE
  6
continous
  8
BYBLOCK
 70
0
 66
1
  0
VERTEX
  8
0
 10
180.5244
 20
146.8103
 30
0.0000
  0
VERTEX
  8
0
 10
180.0043
 20
146.3731
 30
0.0000
  0
VERTEX
  8
0
 10
179.6329
 20
145.9309
 30
0.0000
  0
VERTEX
  8
0
 10
179.3625
 20
145.4535
 30
0.0000
  0
VERTEX
  8
0
 10
179.1995
 20
144.9523
 30
0.0000
  0
VERTEX
  8
0
 10
179.1480
 20
144.4965
 30
0.0000
  0
SEQEND
  0
LINE
  6
continous
  8
BYBLOCK
 10
180.5244
 20
146.8103
 30
0.0000
 11
180.5244
 21
146.8810
 31
0.0000
  0
POLYLINE
  6
continous
  8
BYBLOCK
 70
0
 66
1
  0
VERTEX
  8
0
 10
188.5475
 20
144.4946
 30
0.0000
  0
VERTEX
  8
0
 10
188.4826
 20
145.0118
 30
0.0000
  0
VERTEX
  8
0
 10
188.3046
 20
145.5155
 30
0.0000
  0
VERTEX
  8
0
 10
188.0178
 20
145.9935
 30
0.0000
  0
VERTEX
  8
0
 10
187.6292
 20
146.4341
 30
0.0000
  0
VERTEX
  8
0
 10
187.0896
 20
146.8666
 30
0.0000
  0
VERTEX
  8
0
 10
186.4524
 20
147.2267
 30
0.0000
  0
VERTEX
  8
0
 10
185.7368
 20
147.5035
 30
0.0000
  0
VERTEX
  8
0
 10
184.9642
 20
147.6886
 30
0.0000
  0
VERTEX
  8
0
 10
184.1581
 20
147.7765
 30
0.0000
  0
VERTEX
  8
0
 10
183.3426
 20
147.7645
 30
0.0000
  0
VERTEX
  8
0
 10
182.5423
 20
147.6530
 30
0.0000
  0
VERTEX
  8
0
 10
181.7813
 20
147.4453
 30
0.0000
  0
VERTEX
  8
0
 10
181.0826
 20
147.1477
 30
0.0000
  0
VERTEX
  8
0
 10
180.5244
 20
146.8103
 30
0.0000
  0
SEQEND
  0
POLYLINE
  6
continous
  8
BYBLOCK
 70
0
 66
1
  0
VERTEX
  8
0
 10
138.0980
 20
116.8103
 30
0.0000
  0
VERTEX
  8
0
 10
137.5779
 20
116.3731
 30
0.0000
  0
VERTEX
  8
0
 10
137.2065
 20
115.9309
 30
0.0000
  0
VERTEX
  8
0
 10
136.9361
 20
115.4535
 30
0.0000
  0
VERTEX
  8
0
 10
136.7731
 20
114.9523
 30
0.0000
  0
VERTEX
  8
0
 10
136.7216
 20
114.4965
 30
0.0000
  0
SEQEND
  0
LINE
  6
continous
  8
BYBLOCK
 10
138.0980
 20
116.8103
 30
0.0000
 11
138.0980
 21
116.8810
 31
0.0000
  0
POLYLINE
  6
continous
  8
BYBLOCK
 70
0
 66
1
  0
VERTEX
  8
0
 10
146.1211
 20
114.4946
 30
0.0000
  0
VERTEX
  8
0
 10
146.0562
 20
115.0118
 30
0.0000
  0
VERTEX
  8
0
 10
145.8782
 20
115.5155
 30
0.0000
  0
VERTEX
  8
0
 10
145.5913
 20
115.9935
 30
0.0000
  0
VERTEX
  8
0
 10
145.2027
 20
116.4341
 30
0.0000
  0
VERTEX
  8
0
 10
144.6632
 20
116.8666
 30
0.0000
  0
VERTEX
  8
0
 10
144.0260
 20
117.2267
 30
0.0000
  0
VERTEX
  8
0
 10
143.3104
 20
117.5035
 30
0.0000
  0
VERTEX
  8
0
 10
142.5378
 20
117.6886
 30
0.0000
  0
VERTEX
  8
0
 10
141.7317
 20
117.7765
 30
0.0000
  0
VERTEX
  8
0
 10
140.9162
 20
117.7645
 30
0.0000
  0
VERTEX
  8
0
 10
140.1159
 20
117.6530
 30
0.0000
  0
VERTEX
  8
0
 10
139.3549
 20
117.4453
 30
0.0000
  0
VERTEX
  8
0
 10
138.6562
 20
117.1477
 30
0.0000
  0
VERTEX
  8
0
 10
138.0980
 20
116.8103
 30
0.0000
  0
SEQEND
  0
POLYLINE
  6
continous
  8
BYBLOCK
 70
0
 66
1
  0
VERTEX
  8
0
 10
95.6715
 20
86.8103
 30
0.0000
  0
VERTEX
  8
0
 10
95.1515
 20
86.3731
 30
0.0000
  0
VERTEX
  8
0
 10
94.7801
 20
85.9309
 30
0.0000
  0
VERTEX
  8
0
 10
94.5097
 20
85.4535
 30
0.0000
  0
VERTEX
  8
0
 10
94.3467
 20
84.9523
 30
0.0000
  0
VERTEX
  8
0
 10
94.2952
 20
84.4965
 30
0.0000
  0
SEQEND
  0
LINE
  6
continous
  8
BYBLOCK
 10
95.6715
 20
86.8103
 30
0.0000
 11
95.6715
 21
86.8810
 31
0.0000
  0
POLYLINE
  6
continous
  8
BYBLOCK
 70
0
 66
1
  0
VERTEX
  8
0
 10
103.6947
 20
84.4946
 30
0.0000
  0
VERTEX
  8
0
 10
103.6298
 20
85.0118
 30
0.0000
  0
VERTEX
  8
0
 10
103.4518
 20
85.5155
 30
0.0000
  0
VERTEX
  8
0
 10
103.1649
 20
85.9935
 30
0.0000
  0
VERTEX
  8
0
 10
102.7763
 20
86.4341
 30
0.0000
  0
VERTEX
  8
0
 10
102.2368
 20
86.8666
 30
0.0000
  0
VERTEX
  8
0
 10
101.5996
 20
87.2267
 30
0.0000
  0
VERTEX
  8
0
 10
100.8840
 20
87.5035
 30
0.0000
  0
VERTEX
  8
0
 10
100.1114
 20
87.6886
 30
0.0000
  0
VERTEX
  8
0
 10
99.3053
 20
87.7765
 30
0.0000
  0
VERTEX
  8
0
 10
98.4897
 20
87.7645
 30
0.0000
  0
VERTEX
  8
0
 10
97.6895
 20
87.6530
 30
0.0000
  0
VERTEX
  8
0
 10
96.9285
 20
87.4453
 30
0.0000
  0
VERTEX
  8
0
 10
96.2297
 20
87.1477
 30
0.0000
  0
VERTEX
  8
0
 10
95.6715
 20
86.8103
 30
0.0000
  0
SEQEND
  0
POLYLINE
  6
continous
  8
BYBLOCK
 70
0
 66
1
  0
VERTEX
  8
0
 10
53.2451
 20
56.8103
 30
0.0000
  0
VERTEX
  8
0
 10
52.7251
 20
56.3731
 30
0.0000
  0
VERTEX
  8
0
 10
52.3537
 20
55.9309
 30
0.0000
  0
VERTEX
  8
0
 10
52.0833
 20
55.4535
 30
0.0000
  0
VERTEX
  8
0
 10
51.9203
 20
54.9523
 30
0.0000
  0
VERTEX
  8
0
 10
51.8688
 20
54.4965
 30
0.0000
  0
SEQEND
  0
LINE
  6
continous
  8
BYBLOCK
 10
53.2451
 20
56.8103
 30
0.0000
 11
53.2451
 21
56.8810
 31
0.0000
  0
POLYLINE
  6
continous
  8
BYBLOCK
 70
0
 66
1
  0
VERTEX
  8
0
 10
61.2683
 20
54.4946
 30
0.0000
  0
VERTEX
  8
0
 10
61.2034
 20
55.0118
 30
0.0000
  0
VERTEX
  8
0
 10
61.0254
 20
55.5155
 30
0.0000
  0
VERTEX
  8
0
 10
60.7385
 20
55.9935
 30
0.0000
  0
VERTEX
  8
0
 10
60.3499
 20
56.4341
 30
0.0000
  0
VERTEX
  8
0
 10
59.8104
 20
56.8666
 30
0.0000
  0
VERTEX
  8
0
 10
59.1732
 20
57.2267
 30
0.0000
  0
VERTEX
  8
0
 10
58.4576
 20
57.5035
 30
0.0000
  0
VERTEX
  8
0
 10
57.6850
 20
57.6886
 30
0.0000
  0
VERTEX
  8
0
 10
56.8789
 20
57.7765
 30
0.0000
  0
VERTEX
  8
0
 10
56.0633
 20
57.7645
 30
0.0000
  0
VERTEX
  8
0
 10
55.2630
 20
57.6530
 30
0.0000
  0
VERTEX
  8
0
 10
54.5021
 20
57.4453
 30
0.0000
  0
VERTEX
  8
0
 10
53.8033
 20
57.1477
 30
0.0000
  0
VERTEX
  8
0
 10
53.2451
 20
56.8103
 30
0.0000
  0
SEQEND
  0
LINE
  6
continous
  8
BYBLOCK
 10
10.8187
 20
26.8103
 30
0.0000
 11
10.8187
 21
26.8810
 31
0.0000
  0
POLYLINE
  6
continous
  8
BYBLOCK
 70
0
 66
1
  0
VERTEX
  8
0
 10
9.4421
 20
24.5310
 30
0.0000
  0
VERTEX
  8
0
 10
9.5000
 20
24.0111
 30
0.0000
  0
VERTEX
  8
0
 10
9.6722
 20
23.5041
 30
0.0000
  0
VERTEX
  8
0
 10
9.9544
 20
23.0223
 30
0.0000
  0
VERTEX
  8
0
 10
10.3398
 20
22.5776
 30
0.0000
  0
VERTEX
  8
0
 10
10.8772
 20
22.1404
 30
0.0000
  0
VERTEX
  8
0
 10
11.5139
 20
21.7758
 30
0.0000
  0
VERTEX
  8
0
 10
12.2305
 20
21.4950
 30
0.0000
  0
VERTEX
  8
0
 10
13.0051
 20
21.3064
 30
0.0000
  0
VERTEX
  8
0
 10
13.8143
 20
21.2157
 30
0.0000
  0
VERTEX
  8
0
 10
14.6334
 20
21.2258
 30
0.0000
  0
VERTEX
  8
0
 10
15.4376
 20
21.3364
 30
0.0000
  0
VERTEX
  8
0
 10
16.2025
 20
21.5440
 30
0.0000
  0
VERTEX
  8
0
 10
16.9047
 20
21.8424
 30
0.0000
  0
VERTEX
  8
0
 10
17.4655
 20
22.1810
 30
0.0000
  0
SEQEND
  0
POLYLINE
  6
continous
  8
BYBLOCK
 70
0
 66
1
  0
VERTEX
  8
0
 10
10.8187
 20
26.8810
 30
0.0000
  0
VERTEX
  8
0
 10
10.2921
 20
26.4373
 30
0.0000
  0
VERTEX
  8
0
 10
9.9178
 20
25.9879
 30
0.0000
  0
VERTEX
  8
0
 10
9.6475
 20
25.5027
 30
0.0000
  0
VERTEX
  8
0
 10
9.4879
 20
24.9936
 30
0.0000
  0
VERTEX
  8
0
 10
9.4421
 20
24.5310
 30
0.0000
  0
SEQEND
  0
POLYLINE
  6
continous
  8
BYBLOCK
 70
0
 66
1
  0
VERTEX
  8
0
 10
18.8421
 20
24.5310
 30
0.0000
  0
VERTEX
  8
0
 10
18.7843
 20
25.0509
 30
0.0000
  0
VERTEX
  8
0
 10
18.6121
 20
25.5580
 30
0.0000
  0
VERTEX
  8
0
 10
18.3299
 20
26.0398
 30
0.0000
  0
VERTEX
  8
0
 10
17.9445
 20
26.4845
 30
0.0000
  0
VERTEX
  8
0
 10
17.4070
 20
26.9217
 30
0.0000
  0
VERTEX
  8
0
 10
16.7703
 20
27.2863
 30
0.0000
  0
VERTEX
  8
0
 10
16.0538
 20
27.5671
 30
0.0000
  0
VERTEX
  8
0
 10
15.2792
 20
27.7557
 30
0.0000
  0
VERTEX
  8
0
 10
14.4700
 20
27.8464
 30
0.0000
  0
VERTEX
  8
0
 10
13.6509
 20
27.8362
 30
0.0000
  0
VERTEX
  8
0
 10
12.8466
 20
27.7257
 30
0.0000
  0
VERTEX
  8
0
 10
12.0818
 20
27.5181
 30
0.0000
  0
VERTEX
  8
0
 10
11.3795
 20
27.2197
 30
0.0000
  0
VERTEX
  8
0
 10
10.8187
 20
26.8810
 30
0.0000
  0
SEQEND
  0
POLYLINE
  6
continous
  8
BYBLOCK
 70
0
 66
1
  0
VERTEX
  8
0
 10
17.4655
 20
22.1810
 30
0.0000
  0
VERTEX
  8
0
 10
17.9922
 20
22.6248
 30
0.0000
  0
VERTEX
  8
0
 10
18.3665
 20
23.0742
 30
0.0000
  0
VERTEX
  8
0
 10
18.6368
 20
23.5594
 30
0.0000
  0
VERTEX
  8
0
 10
18.7964
 20
24.0685
 30
0.0000
  0
VERTEX
  8
0
 10
18.8421
 20
24.5310
 30
0.0000
  0
SEQEND
  0
POLYLINE
  6
continous
  8
BYBLOCK
 70
0
 66
1
  0
VERTEX
  8
0
 10
2809.5850
 20
2004.5310
 30
0.0000
  0
VERTEX
  8
0
 10
2809.6429
 20
2004.0111
 30
0.0000
  0
VERTEX
  8
0
 10
2809.8150
 20
2003.5041
 30
0.0000
  0
VERTEX
  8
0
 10
2810.0973
 20
2003.0223
 30
0.0000
  0
VERTEX
  8
0
 10
2810.4826
 20
2002.5776
 30
0.0000
  0
VERTEX
  8
0
 10
2811.0201
 20
2002.1404
 30
0.0000
  0
VERTEX
  8
0
 10
2811.6568
 20
2001.7758
 30
0.0000
  0
VERTEX
  8
0
 10
2812.3733
 20
2001.4950
 30
0.0000
  0
VERTEX
  8
0
 10
2813.1480
 20
2001.3064
 30
0.0000
  0
VERTEX
  8
0
 10
2813.9571
 20
2001.2157
 30
0.0000
  0
VERTEX
  8
0
 10
2814.7763
 20
2001.2258
 30
0.0000
  0
VERTEX
  8
0
 10
2815.5805
 20
2001.3364
 30
0.0000
  0
VERTEX
  8
0
 10
2816.3453
 20
2001.5440
 30
0.0000
  0
VERTEX
  8
0
 10
2817.0476
 20
2001.8424
 30
0.0000
  0
VERTEX
  8
0
 10
2817.6084
 20
2002.1810
 30
0.0000
  0
SEQEND
  0
POLYLINE
  6
continous
  8
BYBLOCK
 70
0
 66
1
  0
VERTEX
  8
0
 10
2810.9616
 20
2006.8810
 30
0.0000
  0
VERTEX
  8
0
 10
2810.4350
 20
2006.4373
 30
0.0000
  0
VERTEX
  8
0
 10
2810.0607
 20
2005.9879
 30
0.0000
  0
VERTEX
  8
0
 10
2809.7904
 20
2005.5027
 30
0.0000
  0
VERTEX
  8
0
 10
2809.6307
 20
2004.9936
 30
0.0000
  0
VERTEX
  8
0
 10
2809.5850
 20
2004.5310
 30
0.0000
  0
SEQEND
  0
POLYLINE
  6
continous
  8
BYBLOCK
 70
0
 66
1
  0
VERTEX
  8
0
 10
2818.9850
 20
2004.5310
 30
0.0000
  0
VERTEX
  8
0
 10
2818.9271
 20
2005.0509
 30
0.0000
  0
VERTEX
  8
0
 10
2818.7550
 20
2005.5580
 30
0.0000
  0
VERTEX
  8
0
 10
2818.4727
 20
2006.0398
 30
0.0000
  0
VERTEX
  8
0
 10
2818.0874
 20
2006.4845
 30
0.0000
  0
VERTEX
  8
0
 10
2817.5499
 20
2006.9217
 30
0.0000
  0
VERTEX
  8
0
 10
2816.9132
 20
2007.2863
 30
0.0000
  0
VERTEX
  8
0
 10
2816.1967
 20
2007.5671
 30
0.0000
  0
VERTEX
  8
0
 10
2815.4220
 20
2007.7557
 30
0.0000
  0
VERTEX
  8
0
 10
2814.6128
 20
2007.8464
 30
0.0000
  0
VERTEX
  8
0
 10
2813.7937
 20
2007.8362
 30
0.0000
  0
VERTEX
  8
0
 10
2812.9895
 20
2007.7257
 30
0.0000
  0
VERTEX
  8
0
 10
2812.2246
 20
2007.5181
 30
0.0000
  0
VERTEX
  8
0
 10
2811.5224
 20
2007.2197
 30
0.0000
  0
VERTEX
  8
0
 10
2810.9616
 20
2006.8810
 30
0.0000
  0
SEQEND
  0
POLYLINE
  6
continous
  8
BYBLOCK
 70
0
 66
1
  0
VERTEX
  8
0
 10
2817.6084
 20
2002.1810
 30
0.0000
  0
VERTEX
  8
0
 10
2818.1350
 20
2002.6248
 30
0.0000
  0
VERTEX
  8
0
 10
2818.5093
 20
2003.0742
 30
0.0000
  0
VERTEX
  8
0
 10
2818.7796
 20
2003.5594
 30
0.0000
  0
VERTEX
  8
0
 10
2818.9392
 20
2004.0685
 30
0.0000
  0
VERTEX
  8
0
 10
2818.9850
 20
2004.5310
 30
0.0000
  0
SEQEND
  0
POLYLINE
  6
continous
  8
BYBLOCK
 70
0
 66
1
  0
VERTEX
  8
0
 10
2767.1586
 20
1974.5310
 30
0.0000
  0
VERTEX
  8
0
 10
2767.2164
 20
1974.0111
 30
0.0000
  0
VERTEX
  8
0
 10
2767.3886
 20
1973.5041
 30
0.0000
  0
VERTEX
  8
0
 10
2767.6709
 20
1973.0223
 30
0.0000
  0
VERTEX
  8
0
 10
2768.0562
 20
1972.5776
 30
0.0000
  0
VERTEX
  8
0
 10
2768.5937
 20
1972.1404
 30
0.0000
  0
VERTEX
  8
0
 10
2769.2304
 20
1971.7758
 30
0.0000
  0
VERTEX
  8
0
 10
2769.9469
 20
1971.4950
 30
0.0000
  0
VERTEX
  8
0
 10
2770.7215
 20
1971.3064
 30
0.0000
  0
VERTEX
  8
0
 10
2771.5307
 20
1971.2157
 30
0.0000
  0
VERTEX
  8
0
 10
2772.3499
 20
1971.2258
 30
0.0000
  0
VERTEX
  8
0
 10
2773.1541
 20
1971.3364
 30
0.0000
  0
VERTEX
  8
0
 10
2773.9189
 20
1971.5440
 30
0.0000
  0
VERTEX
  8
0
 10
2774.6212
 20
1971.8424
 30
0.0000
  0
VERTEX
  8
0
 10
2775.1820
 20
1972.1810
 30
0.0000
  0
SEQEND
  0
POLYLINE
  6
continous
  8
BYBLOCK
 70
0
 66
1
  0
VERTEX
  8
0
 10
2768.5352
 20
1976.8810
 30
0.0000
  0
VERTEX
  8
0
 10
2768.0086
 20
1976.4373
 30
0.0000
  0
VERTEX
  8
0
 10
2767.6343
 20
1975.9879
 30
0.0000
  0
VERTEX
  8
0
 10
2767.3639
 20
1975.5027
 30
0.0000
  0
VERTEX
  8
0
 10
2767.2043
 20
1974.9936
 30
0.0000
  0
VERTEX
  8
0
 10
2767.1586
 20
1974.5310
 30
0.0000
  0
SEQEND
  0
POLYLINE
  6
continous
  8
BYBLOCK
 70
0
 66
1
  0
VERTEX
  8
0
 10
2776.5586
 20
1974.5310
 30
0.0000
  0
VERTEX
  8
0
 10
2776.5007
 20
1975.0509
 30
0.0000
  0
VERTEX
  8
0
 10
2776.3285
 20
1975.5580
 30
0.0000
  0
VERTEX
  8
0
 10
2776.0463
 20
1976.0398
 30
0.0000
  0
VERTEX
  8
0
 10
2775.6610
 20
1976.4845
 30
0.0000
  0
VERTEX
  8
0
 10
2775.1235
 20
1976.9217
 30
0.0000
  0
VERTEX
  8
0
 10
2774.4868
 20
1977.2863
 30
0.0000
  0
VERTEX
  8
0
 10
2773.7702
 20
1977.5671
 30
0.0000
  0
VERTEX
  8
0
 10
2772.9956
 20
1977.7557
 30
0.0000
  0
VERTEX
  8
0
 10
2772.1864
 20
1977.8464
 30
0.0000
  0
VERTEX
  8
0
 10
2771.3673
 20
1977.8362
 30
0.0000
  0
VERTEX
  8
0
 10
2770.5631
 20
1977.7257
 30
0.0000
  0
VERTEX
  8
0
 10
2769.7982
 20
1977.5181
 30
0.0000
  0
VERTEX
  8
0
 10
2769.0960
 20
1977.2197
 30
0.0000
  0
VERTEX
  8
0
 10
2768.5352
 20
1976.8810
 30
0.0000
  0
SEQEND
  0
POLYLINE
  6
continous
  8
BYBLOCK
 70
0
 66
1
  0
VERTEX
  8
0
 10
2775.1820
 20
1972.1810
 30
0.0000
  0
VERTEX
  8
0
 10
2775.7086
 20
1972.6248
 30
0.0000
  0
VERTEX
  8
0
 10
2776.0829
 20
1973.0742
 30
0.0000
  0
VERTEX
  8
0
 10
2776.3532
 20
1973.5594
 30
0.0000
  0
VERTEX
  8
0
 10
2776.5128
 20
1974.0685
 30
0.0000
  0
VERTEX
  8
0
 10
2776.5586
 20
1974.5310
 30
0.0000
  0
SEQEND
  0
POLYLINE
  6
continous
  8
BYBLOCK
 70
0
 66
1
  0
VERTEX
  8
0
 10
2724.7322
 20
1944.5310
 30
0.0000
  0
VERTEX
  8
0
 10
2724.7900
 20
1944.0111
 30
0.0000
  0
VERTEX
  8
0
 10
2724.9622
 20
1943.5041
 30
0.0000
  0
VERTEX
  8
0
 10
2725.2444
 20
1943.0223
 30
0.0000
  0
VERTEX
  8
0
 10
2725.6298
 20
1942.5776
 30
0.0000
  0
VERTEX
  8
0
 10
2726.1673
 20
1942.1404
 30
0.0000
  0
VERTEX
  8
0
 10
2726.8040
 20
1941.7758
 30
0.0000
  0
VERTEX
  8
0
 10
2727.5205
 20
1941.4950
 30
0.0000
  0
VERTEX
  8
0
 10
2728.2951
 20
1941.3064
 30
0.0000
  0
VERTEX
  8
0
 10
2729.1043
 20
1941.2157
 30
0.0000
  0
VERTEX
  8
0
 10
2729.9235
 20
1941.2258
 30
0.0000
  0
VERTEX
  8
0
 10
2730.7277
 20
1941.3364
 30
0.0000
  0
VERTEX
  8
0
 10
2731.4925
 20
1941.5440
 30
0.0000
  0
VERTEX
  8
0
 10
2732.1948
 20
1941.8424
 30
0.0000
  0
VERTEX
  8
0
 10
2732.7556
 20
1942.1810
 30
0.0000
  0
SEQEND
  0
POLYLINE
  6
continous
  8
BYBLOCK
 70
0
 66
1
  0
VERTEX
  8
0
 10
2726.1088
 20
1946.8810
 30
0.0000
  0
VERTEX
  8
0
 10
2725.5822
 20
1946.4373
 30
0.0000
  0
VERTEX
  8
0
 10
2725.2078
 20
1945.9879
 30
0.0000
  0
VERTEX
  8
0
 10
2724.9375
 20
1945.5027
 30
0.0000
  0
VERTEX
  8
0
 10
2724.7779
 20
1944.9936
 30
0.0000
  0
VERTEX
  8
0
 10
2724.7322
 20
1944.5310
 30
0.0000
  0
SEQEND
  0
POLYLINE
  6
continous
  8
BYBLOCK
 70
0
 66
1
  0
VERTEX
  8
0
 10
2734.1322
 20
1944.5310
 30
0.0000
  0
VERTEX
  8
0
 10
2734.0743
 20
1945.0509
 30
0.0000
  0
VERTEX
  8
0
 10
2733.9021
 20
1945.5580
 30
0.0000
  0
VERTEX
  8
0
 10
2733.6199
 20
1946.0398
 30
0.0000
  0
VERTEX
  8
0
 10
2733.2346
 20
1946.4845
 30
0.0000
  0
VERTEX
  8
0
 10
2732.6971
 20
1946.9217
 30
0.0000
  0
VERTEX
  8
0
 10
2732.0604
 20
1947.2863
 30
0.0000
  0
VERTEX
  8
0
 10
2731.3438
 20
1947.5671
 30
0.0000
  0
VERTEX
  8
0
 10
2730.5692
 20
1947.7557
 30
0.0000
  0
VERTEX
  8
0
 10
2729.7600
 20
1947.8464
 30
0.0000
  0
VERTEX
  8
0
 10
2728.9409
 20
1947.8362
 30
0.0000
  0
VERTEX
  8
0
 10
2728.1367
 20
1947.7257
 30
0.0000
  0
VERTEX
  8
0
 10
2727.3718
 20
1947.5181
 30
0.0000
  0
VERTEX
  8
0
 10
2726.6696
 20
1947.2197
 30
0.0000
  0
VERTEX
  8
0
 10
2726.1088
 20
1946.8810
 30
0.0000
  0
SEQEND
  0
POLYLINE
  6
continous
  8
BYBLOCK
 70
0
 66
1
  0
VERTEX
  8
0
 10
2732.7556
 20
1942.1810
 30
0.0000
  0
VERTEX
  8
0
 10
2733.2822
 20
1942.6248
 30
0.0000
  0
VERTEX
  8
0
 10
2733.6565
 20
1943.0742
 30
0.0000
  0
VERTEX
  8
0
 10
2733.9268
 20
1943.5594
 30
0.0000
  0
VERTEX
  8
0
 10
2734.0864
 20
1944.0685
 30
0.0000
  0
VERTEX
  8
0
 10
2734.1322
 20
1944.5310
 30
0.0000
  0
SEQEND
  0
POLYLINE
  6
continous
  8
BYBLOCK
 70
0
 66
1
  0
VERTEX
  8
0
 10
2682.3058
 20
1914.5310
 30
0.0000
  0
VERTEX
  8
0
 10
2682.3636
 20
1914.0111
 30
0.0000
  0
VERTEX
  8
0
 10
2682.5358
 20
1913.5041
 30
0.0000
  0
VERTEX
  8
0
 10
2682.8180
 20
1913.0223
 30
0.0000
  0
VERTEX
  8
0
 10
2683.2034
 20
1912.5776
 30
0.0000
  0
VERTEX
  8
0
 10
2683.7409
 20
1912.1404
 30
0.0000
  0
VERTEX
  8
0
 10
2684.3776
 20
1911.7758
 30
0.0000
  0
VERTEX
  8
0
 10
2685.0941
 20
1911.4950
 30
0.0000
  0
VERTEX
  8
0
 10
2685.8687
 20
1911.3064
 30
0.0000
  0
VERTEX
  8
0
 10
2686.6779
 20
1911.2157
 30
0.0000
  0
VERTEX
  8
0
 10
2687.4971
 20
1911.2258
 30
0.0000
  0
VERTEX
  8
0
 10
2688.3013
 20
1911.3364
 30
0.0000
  0
VERTEX
  8
0
 10
2689.0661
 20
1911.5440
 30
0.0000
  0
VERTEX
  8
0
 10
2689.7684
 20
1911.8424
 30
0.0000
  0
VERTEX
  8
0
 10
2690.3292
 20
1912.1810
 30
0.0000
  0
SEQEND
  0
POLYLINE
  6
continous
  8
BYBLOCK
 70
0
 66
1
  0
VERTEX
  8
0
 10
2683.6824
 20
1916.8810
 30
0.0000
  0
VERTEX
  8
0
 10
2683.1558
 20
1916.4373
 30
0.0000
  0
VERTEX
  8
0
 10
2682.7814
 20
1915.9879
 30
0.0000
  0
VERTEX
  8
0
 10
2682.5111
 20
1915.5027
 30
0.0000
  0
VERTEX
  8
0
 10
2682.3515
 20
1914.9936
 30
0.0000
  0
VERTEX
  8
0
 10
2682.3058
 20
1914.5310
 30
0.0000
  0
SEQEND
  0
POLYLINE
  6
continous
  8
BYBLOCK
 70
0
 66
1
  0
VERTEX
  8
0
 10
2691.7058
 20
1914.5310
 30
0.0000
  0
VERTEX
  8
0
 10
2691.6479
 20
1915.0509
 30
0.0000
  0
VERTEX
  8
0
 10
2691.4757
 20
1915.5580
 30
0.0000
  0
VERTEX
  8
0
 10
2691.1935
 20
1916.0398
 30
0.0000
  0
VERTEX
  8
0
 10
2690.8081
 20
1916.4845
 30
0.0000
  0
VERTEX
  8
0
 10
2690.2707
 20
1916.9217
 30
0.0000
  0
VERTEX
  8
0
 10
2689.6340
 20
1917.2863
 30
0.0000
  0
VERTEX
  8
0
 10
2688.9174
 20
1917.5671
 30
0.0000
  0
VERTEX
  8
0
 10
2688.1428
 20
1917.7557
 30
0.0000
  0
VERTEX
  8
0
 10
2687.3336
 20
1917.8464
 30
0.0000
  0
VERTEX
  8
0
 10
2686.5145
 20
1917.8362
 30
0.0000
  0
VERTEX
  8
0
 10
2685.7103
 20
1917.7257
 30
0.0000
  0
VERTEX
  8
0
 10
2684.9454
 20
1917.5181
 30
0.0000
  0
VERTEX
  8
0
 10
2684.2432
 20
1917.2197
 30
0.0000
  0
VERTEX
  8
0
 10
2683.6824
 20
1916.8810
 30
0.0000
  0
SEQEND
  0
POLYLINE
  6
continous
  8
BYBLOCK
 70
0
 66
1
  0
VERTEX
  8
0
 10
2690.3292
 20
1912.1810
 30
0.0000
  0
VERTEX
  8
0
 10
2690.8558
 20
1912.6248
 30
0.0000
  0
VERTEX
  8
0
 10
2691.2301
 20
1913.0742
 30
0.0000
  0
VERTEX
  8
0
 10
2691.5004
 20
1913.5594
 30
0.0000
  0
VERTEX
  8
0
 10
2691.6600
 20
1914.0685
 30
0.0000
  0
VERTEX
  8
0
 10
2691.7058
 20
1914.5310
 30
0.0000
  0
SEQEND
  0
POLYLINE
  6
continous
  8
BYBLOCK
 70
0
 66
1
  0
VERTEX
  8
0
 10
2639.8794
 20
1884.5310
 30
0.0000
  0
VERTEX
  8
0
 10
2639.9372
 20
1884.0111
 30
0.0000
  0
VERTEX
  8
0
 10
2640.1094
 20
1883.5041
 30
0.0000
  0
VERTEX
  8
0
 10
2640.3916
 20
1883.0223
 30
0.0000
  0
VERTEX
  8
0
 10
2640.7770
 20
1882.5776
 30
0.0000
  0
VERTEX
  8
0
 10
2641.3145
 20
1882.1404
 30
0.0000
  0
VERTEX
  8
0
 10
2641.9512
 20
1881.7758
 30
0.0000
  0
VERTEX
  8
0
 10
2642.6677
 20
1881.4950
 30
0.0000
  0
VERTEX
  8
0
 10
2643.4423
 20
1881.3064
 30
0.0000
  0
VERTEX
  8
0
 10
2644.2515
 20
1881.2157
 30
0.0000
  0
VERTEX
  8
0
 10
2645.0706
 20
1881.2258
 30
0.0000
  0
VERTEX
  8
0
 10
2645.8749
 20
1881.3364
 30
0.0000
  0
VERTEX
  8
0
 10
2646.6397
 20
1881.5440
 30
0.0000
  0
VERTEX
  8
0
 10
2647.3420
 20
1881.8424
 30
0.0000
  0
VERTEX
  8
0
 10
2647.9028
 20
1882.1810
 30
0.0000
  0
SEQEND
  0
POLYLINE
  6
continous
  8
BYBLOCK
 70
0
 66
1
  0
VERTEX
  8
0
 10
2641.2560
 20
1886.8810
 30
0.0000
  0
VERTEX
  8
0
 10
2640.7293
 20
1886.4373
 30
0.0000
  0
VERTEX
  8
0
 10
2640.3550
 20
1885.9879
 30
0.0000
  0
VERTEX
  8
0
 10
2640.0847
 20
1885.5027
 30
0.0000
  0
VERTEX
  8
0
 10
2639.9251
 20
1884.9936
 30
0.0000
  0
VERTEX
  8
0
 10
2639.8794
 20
1884.5310
 30
0.0000
  0
SEQEND
  0
POLYLINE
  6
continous
  8
BYBLOCK
 70
0
 66
1
  0
VERTEX
  8
0
 10
2649.2794
 20
1884.5310
 30
0.0000
  0
VERTEX
  8
0
 10
2649.2215
 20
1885.0509
 30
0.0000
  0
VERTEX
  8
0
 10
2649.0493
 20
1885.5580
 30
0.0000
  0
VERTEX
  8
0
 10
2648.7671
 20
1886.0398
 30
0.0000
  0
VERTEX
  8
0
 10
2648.3817
 20
1886.4845
 30
0.0000
  0
VERTEX
  8
0
 10
2647.8443
 20
1886.9217
 30
0.0000
  0
VERTEX
  8
0
 10
2647.2076
 20
1887.2863
 30
0.0000
  0
VERTEX
  8
0
 10
2646.4910
 20
1887.5671
 30
0.0000
  0
VERTEX
  8
0
 10
2645.7164
 20
1887.7557
 30
0.0000
  0
VERTEX
  8
0
 10
2644.9072
 20
1887.8464
 30
0.0000
  0
VERTEX
  8
0
 10
2644.0881
 20
1887.8362
 30
0.0000
  0
VERTEX
  8
0
 10
2643.2839
 20
1887.7257
 30
0.0000
  0
VERTEX
  8
0
 10
2642.5190
 20
1887.5181
 30
0.0000
  0
VERTEX
  8
0
 10
2641.8168
 20
1887.2197
 30
0.0000
  0
VERTEX
  8
0
 10
2641.2560
 20
1886.8810
 30
0.0000
  0
SEQEND
  0
POLYLINE
  6
continous
  8
BYBLOCK
 70
0
 66
1
  0
VERTEX
  8
0
 10
2647.9028
 20
1882.1810
 30
0.0000
  0
VERTEX
  8
0
 10
2648.4294
 20
1882.6248
 30
0.0000
  0
VERTEX
  8
0
 10
2648.8037
 20
1883.0742
 30
0.0000
  0
VERTEX
  8
0
 10
2649.0740
 20
1883.5594
 30
0.0000
  0
VERTEX
  8
0
 10
2649.2336
 20
1884.0685
 30
0.0000
  0
VERTEX
  8
0
 10
2649.2794
 20
1884.5310
 30
0.0000
  0
SEQEND
  0
POLYLINE
  6
continous
  8
BYBLOCK
 70
0
 66
1
  0
VERTEX
  8
0
 10
2597.4530
 20
1854.5310
 30
0.0000
  0
VERTEX
  8
0
 10
2597.5108
 20
1854.0111
 30
0.0000
  0
VERTEX
  8
0
 10
2597.6830
 20
1853.5041
 30
0.0000
  0
VERTEX
  8
0
 10
2597.9652
 20
1853.0223
 30
0.0000
  0
VERTEX
  8
0
 10
2598.3506
 20
1852.5776
 30
0.0000
  0
VERTEX
  8
0
 10
2598.8881
 20
1852.1404
 30
0.0000
  0
VERTEX
  8
0
 10
2599.5247
 20
1851.7758
 30
0.0000
  0
VERTEX
  8
0
 10
2600.2413
 20
1851.4950
 30
0.0000
  0
VERTEX
  8
0
 10
2601.0159
 20
1851.3064
 30
0.0000
  0
VERTEX
  8
0
 10
2601.8251
 20
1851.2157
 30
0.0000
  0
VERTEX
  8
0
 10
2602.6442
 20
1851.2258
 30
0.0000
  0
VERTEX
  8
0
 10
2603.4485
 20
1851.3364
 30
0.0000
  0
VERTEX
  8
0
 10
2604.2133
 20
1851.5440
 30
0.0000
  0
VERTEX
  8
0
 10
2604.9155
 20
1851.8424
 30
0.0000
  0
VERTEX
  8
0
 10
2605.4764
 20
1852.1810
 30
0.0000
  0
SEQEND
  0
POLYLINE
  6
continous
  8
BYBLOCK
 70
0
 66
1
  0
VERTEX
  8
0
 10
2598.8296
 20
1856.8810
 30
0.0000
  0
VERTEX
  8
0
 10
2598.3029
 20
1856.4373
 30
0.0000
  0
VERTEX
  8
0
 10
2597.9286
 20
1855.9879
 30
0.0000
  0
VERTEX
  8
0
 10
2597.6583
 20
1855.5027
 30
0.0000
  0
VERTEX
  8
0
 10
2597.4987
 20
1854.9936
 30
0.0000
  0
VERTEX
  8
0
 10
2597.4530
 20
1854.5310
 30
0.0000
  0
SEQEND
  0
POLYLINE
  6
continous
  8
BYBLOCK
 70
0
 66
1
  0
VERTEX
  8
0
 10
2606.8530
 20
1854.5310
 30
0.0000
  0
VERTEX
  8
0
 10
2606.7951
 20
1855.0509
 30
0.0000
  0
VERTEX
  8
0
 10
2606.6229
 20
1855.5580
 30
0.0000
  0
VERTEX
  8
0
 10
2606.3407
 20
1856.0398
 30
0.0000
  0
VERTEX
  8
0
 10
2605.9553
 20
1856.4845
 30
0.0000
  0
VERTEX
  8
0
 10
2605.4178
 20
1856.9217
 30
0.0000
  0
VERTEX
  8
0
 10
2604.7812
 20
1857.2863
 30
0.0000
  0
VERTEX
  8
0
 10
2604.0646
 20
1857.5671
 30
0.0000
  0
VERTEX
  8
0
 10
2603.2900
 20
1857.7557
 30
0.0000
  0
VERTEX
  8
0
 10
2602.4808
 20
1857.8464
 30
0.0000
  0
VERTEX
  8
0
 10
2601.6617
 20
1857.8362
 30
0.0000
  0
VERTEX
  8
0
 10
2600.8575
 20
1857.7257
 30
0.0000
  0
VERTEX
  8
0
 10
2600.0926
 20
1857.5181
 30
0.0000
  0
VERTEX
  8
0
 10
2599.3904
 20
1857.2197
 30
0.0000
  0
VERTEX
  8
0
 10
2598.8296
 20
1856.8810
 30
0.0000
  0
SEQEND
  0
POLYLINE
  6
continous
  8
BYBLOCK
 70
0
 66
1
  0
VERTEX
  8
0
 10
2605.4764
 20
1852.1810
 30
0.0000
  0
VERTEX
  8
0
 10
2606.0030
 20
1852.6248
 30
0.0000
  0
VERTEX
  8
0
 10
2606.3773
 20
1853.0742
 30
0.0000
  0
VERTEX
  8
0
 10
2606.6476
 20
1853.5594
 30
0.0000
  0
VERTEX
  8
0
 10
2606.8072
 20
1854.0685
 30
0.0000
  0
VERTEX
  8
0
 10
2606.8530
 20
1854.5310
 30
0.0000
  0
SEQEND
  0
POLYLINE
  6
continous
  8
BYBLOCK
 70
0
 66
1
  0
VERTEX
  8
0
 10
2555.0265
 20
1824.5310
 30
0.0000
  0
VERTEX
  8
0
 10
2555.0844
 20
1824.0111
 30
0.0000
  0
VERTEX
  8
0
 10
2555.2566
 20
1823.5041
 30
0.0000
  0
VERTEX
  8
0
 10
2555.5388
 20
1823.0223
 30
0.0000
  0
VERTEX
  8
0
 10
2555.9242
 20
1822.5776
 30
0.0000
  0
VERTEX
  8
0
 10
2556.4617
 20
1822.1404
 30
0.0000
  0
VERTEX
  8
0
 10
2557.0983
 20
1821.7758
 30
0.0000
  0
VERTEX
  8
0
 10
2557.8149
 20
1821.4950
 30
0.0000
  0
VERTEX
  8
0
 10
2558.5895
 20
1821.3064
 30
0.0000
  0
VERTEX
  8
0
 10
2559.3987
 20
1821.2157
 30
0.0000
  0
VERTEX
  8
0
 10
2560.2178
 20
1821.2258
 30
0.0000
  0
VERTEX
  8
0
 10
2561.0220
 20
1821.3364
 30
0.0000
  0
VERTEX
  8
0
 10
2561.7869
 20
1821.5440
 30
0.0000
  0
VERTEX
  8
0
 10
2562.4891
 20
1821.8424
 30
0.0000
  0
VERTEX
  8
0
 10
2563.0499
 20
1822.1810
 30
0.0000
  0
SEQEND
  0
POLYLINE
  6
continous
  8
BYBLOCK
 70
0
 66
1
  0
VERTEX
  8
0
 10
2556.4031
 20
1826.8810
 30
0.0000
  0
VERTEX
  8
0
 10
2555.8765
 20
1826.4373
 30
0.0000
  0
VERTEX
  8
0
 10
2555.5022
 20
1825.9879
 30
0.0000
  0
VERTEX
  8
0
 10
2555.2319
 20
1825.5027
 30
0.0000
  0
VERTEX
  8
0
 10
2555.0723
 20
1824.9936
 30
0.0000
  0
VERTEX
  8
0
 10
2555.0265
 20
1824.5310
 30
0.0000
  0
SEQEND
  0
POLYLINE
  6
continous
  8
BYBLOCK
 70
0
 66
1
  0
VERTEX
  8
0
 10
2564.4265
 20
1824.5310
 30
0.0000
  0
VERTEX
  8
0
 10
2564.3687
 20
1825.0509
 30
0.0000
  0
VERTEX
  8
0
 10
2564.1965
 20
1825.5580
 30
0.0000
  0
VERTEX
  8
0
 10
2563.9143
 20
1826.0398
 30
0.0000
  0
VERTEX
  8
0
 10
2563.5289
 20
1826.4845
 30
0.0000
  0
VERTEX
  8
0
 10
2562.9914
 20
1826.9217
 30
0.0000
  0
VERTEX
  8
0
 10
2562.3548
 20
1827.2863
 30
0.0000
  0
VERTEX
  8
0
 10
2561.6382
 20
1827.5671
 30
0.0000
  0
VERTEX
  8
0
 10
2560.8636
 20
1827.7557
 30
0.0000
  0
VERTEX
  8
0
 10
2560.0544
 20
1827.8464
 30
0.0000
  0
VERTEX
  8
0
 10
2559.2353
 20
1827.8362
 30
0.0000
  0
VERTEX
  8
0
 10
2558.4311
 20
1827.7257
 30
0.0000
  0
VERTEX
  8
0
 10
2557.6662
 20
1827.5181
 30
0.0000
  0
VERTEX
  8
0
 10
2556.9640
 20
1827.2197
 30
0.0000
  0
VERTEX
  8
0
 10
2556.4031
 20
1826.8810
 30
0.0000
  0
SEQEND
  0
POLYLINE
  6
continous
  8
BYBLOCK
 70
0
 66
1
  0
VERTEX
  8
0
 10
2563.0499
 20
1822.1810
 30
0.0000
  0
VERTEX
  8
0
 10
2563.5766
 20
1822.6248
 30
0.0000
  0
VERTEX
  8
0
 10
2563.9509
 20
1823.0742
 30
0.0000
  0
VERTEX
  8
0
 10
2564.2212
 20
1823.5594
 30
0.0000
  0
VERTEX
  8
0
 10
2564.3808
 20
1824.0685
 30
0.0000
  0
VERTEX
  8
0
 10
2564.4265
 20
1824.5310
 30
0.0000
  0
SEQEND
  0
POLYLINE
  6
continous
  8
BYBLOCK
 70
0
 66
1
  0
VERTEX
  8
0
 10
2512.6001
 20
1794.5310
 30
0.0000
  0
VERTEX
  8
0
 10
2512.6580
 20
1794.0111
 30
0.0000
  0
VERTEX
  8
0
 10
2512.8302
 20
1793.5041
 30
0.0000
  0
VERTEX
  8
0
 10
2513.1124
 20
1793.0223
 30
0.0000
  0
VERTEX
  8
0
 10
2513.4978
 20
1792.5776
 30
0.0000
  0
VERTEX
  8
0
 10
2514.0352
 20
1792.1404
 30
0.0000
  0
VERTEX
  8
0
 10
2514.6719
 20
1791.7758
 30
0.0000
  0
VERTEX
  8
0
 10
2515.3885
 20
1791.4950
 30
0.0000
  0
VERTEX
  8
0
 10
2516.1631
 20
1791.3064
 30
0.0000
  0
VERTEX
  8
0
 10
2516.9723
 20
1791.2157
 30
0.0000
  0
VERTEX
  8
0
 10
2517.7914
 20
1791.2258
 30
0.0000
  0
VERTEX
  8
0
 10
2518.5956
 20
1791.3364
 30
0.0000
  0
VERTEX
  8
0
 10
2519.3605
 20
1791.5440
 30
0.0000
  0
VERTEX
  8
0
 10
2520.0627
 20
1791.8424
 30
0.0000
  0
VERTEX
  8
0
 10
2520.6235
 20
1792.1810
 30
0.0000
  0
SEQEND
  0
POLYLINE
  6
continous
  8
BYBLOCK
 70
0
 66
1
  0
VERTEX
  8
0
 10
2513.9767
 20
1796.8810
 30
0.0000
  0
VERTEX
  8
0
 10
2513.4501
 20
1796.4373
 30
0.0000
  0
VERTEX
  8
0
 10
2513.0758
 20
1795.9879
 30
0.0000
  0
VERTEX
  8
0
 10
2512.8055
 20
1795.5027
 30
0.0000
  0
VERTEX
  8
0
 10
2512.6459
 20
1794.9936
 30
0.0000
  0
VERTEX
  8
0
 10
2512.6001
 20
1794.5310
 30
0.0000
  0
SEQEND
  0
POLYLINE
  6
continous
  8
BYBLOCK
 70
0
 66
1
  0
VERTEX
  8
0
 10
2522.0001
 20
1794.5310
 30
0.0000
  0
VERTEX
  8
0
 10
2521.9423
 20
1795.0509
 30
0.0000
  0
VERTEX
  8
0
 10
2521.7701
 20
1795.5580
 30
0.0000
  0
VERTEX
  8
0
 10
2521.4879
 20
1796.0398
 30
0.0000
  0
VERTEX
  8
0
 10
2521.1025
 20
1796.4845
 30
0.0000
  0
VERTEX
  8
0
 10
2520.5650
 20
1796.9217
 30
0.0000
  0
VERTEX
  8
0
 10
2519.9283
 20
1797.2863
 30
0.0000
  0
VERTEX
  8
0
 10
2519.2118
 20
1797.5671
 30
0.0000
  0
VERTEX
  8
0
 10
2518.4372
 20
1797.7557
 30
0.0000
  0
VERTEX
  8
0
 10
2517.6280
 20
1797.8464
 30
0.0000
  0
VERTEX
  8
0
 10
2516.8089
 20
1797.8362
 30
0.0000
  0
VERTEX
  8
0
 10
2516.0046
 20
1797.7257
 30
0.0000
  0
VERTEX
  8
0
 10
2515.2398
 20
1797.5181
 30
0.0000
  0
VERTEX
  8
0
 10
2514.5376
 20
1797.2197
 30
0.0000
  0
VERTEX
  8
0
 10
2513.9767
 20
1796.8810
 30
0.0000
  0
SEQEND
  0
POLYLINE
  6
continous
  8
BYBLOCK
 70
0
 66
1
  0
VERTEX
  8
0
 10
2520.6235
 20
1792.1810
 30
0.0000
  0
VERTEX
  8
0
 10
2521.1502
 20
1792.6248
 30
0.0000
  0
VERTEX
  8
0
 10
2521.5245
 20
1793.0742
 30
0.0000
  0
VERTEX
  8
0
 10
2521.7948
 20
1793.5594
 30
0.0000
  0
VERTEX
  8
0
 10
2521.9544
 20
1794.0685
 30
0.0000
  0
VERTEX
  8
0
 10
2522.0001
 20
1794.5310
 30
0.0000
  0
SEQEND
  0
POLYLINE
  6
continous
  8
BYBLOCK
 70
0
 66
1
  0
VERTEX
  8
0
 10
2470.1737
 20
1764.5310
 30
0.0000
  0
VERTEX
  8
0
 10
2470.2316
 20
1764.0111
 30
0.0000
  0
VERTEX
  8
0
 10
2470.4038
 20
1763.5041
 30
0.0000
  0
VERTEX
  8
0
 10
2470.6860
 20
1763.0223
 30
0.0000
  0
VERTEX
  8
0
 10
2471.0714
 20
1762.5776
 30
0.0000
  0
VERTEX
  8
0
 10
2471.6088
 20
1762.1404
 30
0.0000
  0
VERTEX
  8
0
 10
2472.2455
 20
1761.7758
 30
0.0000
  0
VERTEX
  8
0
 10
2472.9621
 20
1761.4950
 30
0.0000
  0
VERTEX
  8
0
 10
2473.7367
 20
1761.3064
 30
0.0000
  0
VERTEX
  8
0
 10
2474.5459
 20
1761.2157
 30
0.0000
  0
VERTEX
  8
0
 10
2475.3650
 20
1761.2258
 30
0.0000
  0
VERTEX
  8
0
 10
2476.1692
 20
1761.3364
 30
0.0000
  0
VERTEX
  8
0
 10
2476.9341
 20
1761.5440
 30
0.0000
  0
VERTEX
  8
0
 10
2477.6363
 20
1761.8424
 30
0.0000
  0
VERTEX
  8
0
 10
2478.1971
 20
1762.1810
 30
0.0000
  0
SEQEND
  0
POLYLINE
  6
continous
  8
BYBLOCK
 70
0
 66
1
  0
VERTEX
  8
0
 10
2471.5503
 20
1766.8810
 30
0.0000
  0
VERTEX
  8
0
 10
2471.0237
 20
1766.4373
 30
0.0000
  0
VERTEX
  8
0
 10
2470.6494
 20
1765.9879
 30
0.0000
  0
VERTEX
  8
0
 10
2470.3791
 20
1765.5027
 30
0.0000
  0
VERTEX
  8
0
 10
2470.2195
 20
1764.9936
 30
0.0000
  0
VERTEX
  8
0
 10
2470.1737
 20
1764.5310
 30
0.0000
  0
SEQEND
  0
POLYLINE
  6
continous
  8
BYBLOCK
 70
0
 66
1
  0
VERTEX
  8
0
 10
2479.5737
 20
1764.5310
 30
0.0000
  0
VERTEX
  8
0
 10
2479.5159
 20
1765.0509
 30
0.0000
  0
VERTEX
  8
0
 10
2479.3437
 20
1765.5580
 30
0.0000
  0
VERTEX
  8
0
 10
2479.0615
 20
1766.0398
 30
0.0000
  0
VERTEX
  8
0
 10
2478.6761
 20
1766.4845
 30
0.0000
  0
VERTEX
  8
0
 10
2478.1386
 20
1766.9217
 30
0.0000
  0
VERTEX
  8
0
 10
2477.5019
 20
1767.2863
 30
0.0000
  0
VERTEX
  8
0
 10
2476.7854
 20
1767.5671
 30
0.0000
  0
VERTEX
  8
0
 10
2476.0108
 20
1767.7557
 30
0.0000
  0
VERTEX
  8
0
 10
2475.2016
 20
1767.8464
 30
0.0000
  0
VERTEX
  8
0
 10
2474.3825
 20
1767.8362
 30
0.0000
  0
VERTEX
  8
0
 10
2473.5782
 20
1767.7257
 30
0.0000
  0
VERTEX
  8
0
 10
2472.8134
 20
1767.5181
 30
0.0000
  0
VERTEX
  8
0
 10
2472.1111
 20
1767.2197
 30
0.0000
  0
VERTEX
  8
0
 10
2471.5503
 20
1766.8810
 30
0.0000
  0
SEQEND
  0
POLYLINE
  6
continous
  8
BYBLOCK
 70
0
 66
1
  0
VERTEX
  8
0
 10
2478.1971
 20
1762.1810
 30
0.0000
  0
VERTEX
  8
0
 10
2478.7237
 20
1762.6248
 30
0.0000
  0
VERTEX
  8
0
 10
2479.0981
 20
1763.0742
 30
0.0000
  0
VERTEX
  8
0
 10
2479.3684
 20
1763.5594
 30
0.0000
  0
VERTEX
  8
0
 10
2479.5280
 20
1764.0685
 30
0.0000
  0
VERTEX
  8
0
 10
2479.5737
 20
1764.5310
 30
0.0000
  0
SEQEND
  0
POLYLINE
  6
continous
  8
BYBLOCK
 70
0
 66
1
  0
VERTEX
  8
0
 10
2427.7473
 20
1734.5310
 30
0.0000
  0
VERTEX
  8
0
 10
2427.8052
 20
1734.0111
 30
0.0000
  0
VERTEX
  8
0
 10
2427.9774
 20
1733.5041
 30
0.0000
  0
VERTEX
  8
0
 10
2428.2596
 20
1733.0223
 30
0.0000
  0
VERTEX
  8
0
 10
2428.6449
 20
1732.5776
 30
0.0000
  0
VERTEX
  8
0
 10
2429.1824
 20
1732.1404
 30
0.0000
  0
VERTEX
  8
0
 10
2429.8191
 20
1731.7758
 30
0.0000
  0
VERTEX
  8
0
 10
2430.5357
 20
1731.4950
 30
0.0000
  0
VERTEX
  8
0
 10
2431.3103
 20
1731.3064
 30
0.0000
  0
VERTEX
  8
0
 10
2432.1195
 20
1731.2157
 30
0.0000
  0
VERTEX
  8
0
 10
2432.9386
 20
1731.2258
 30
0.0000
  0
VERTEX
  8
0
 10
2433.7428
 20
1731.3364
 30
0.0000
  0
VERTEX
  8
0
 10
2434.5077
 20
1731.5440
 30
0.0000
  0
VERTEX
  8
0
 10
2435.2099
 20
1731.8424
 30
0.0000
  0
VERTEX
  8
0
 10
2435.7707
 20
1732.1810
 30
0.0000
  0
SEQEND
  0
POLYLINE
  6
continous
  8
BYBLOCK
 70
0
 66
1
  0
VERTEX
  8
0
 10
2429.1239
 20
1736.8810
 30
0.0000
  0
VERTEX
  8
0
 10
2428.5973
 20
1736.4373
 30
0.0000
  0
VERTEX
  8
0
 10
2428.2230
 20
1735.9879
 30
0.0000
  0
VERTEX
  8
0
 10
2427.9527
 20
1735.5027
 30
0.0000
  0
VERTEX
  8
0
 10
2427.7931
 20
1734.9936
 30
0.0000
  0
VERTEX
  8
0
 10
2427.7473
 20
1734.5310
 30
0.0000
  0
SEQEND
  0
POLYLINE
  6
continous
  8
BYBLOCK
 70
0
 66
1
  0
VERTEX
  8
0
 10
2437.1473
 20
1734.5310
 30
0.0000
  0
VERTEX
  8
0
 10
2437.0895
 20
1735.0509
 30
0.0000
  0
VERTEX
  8
0
 10
2436.9173
 20
1735.5580
 30
0.0000
  0
VERTEX
  8
0
 10
2436.6351
 20
1736.0398
 30
0.0000
  0
VERTEX
  8
0
 10
2436.2497
 20
1736.4845
 30
0.0000
  0
VERTEX
  8
0
 10
2435.7122
 20
1736.9217
 30
0.0000
  0
VERTEX
  8
0
 10
2435.0755
 20
1737.2863
 30
0.0000
  0
VERTEX
  8
0
 10
2434.3590
 20
1737.5671
 30
0.0000
  0
VERTEX
  8
0
 10
2433.5844
 20
1737.7557
 30
0.0000
  0
VERTEX
  8
0
 10
2432.7752
 20
1737.8464
 30
0.0000
  0
VERTEX
  8
0
 10
2431.9560
 20
1737.8362
 30
0.0000
  0
VERTEX
  8
0
 10
2431.1518
 20
1737.7257
 30
0.0000
  0
VERTEX
  8
0
 10
2430.3870
 20
1737.5181
 30
0.0000
  0
VERTEX
  8
0
 10
2429.6847
 20
1737.2197
 30
0.0000
  0
VERTEX
  8
0
 10
2429.1239
 20
1736.8810
 30
0.0000
  0
SEQEND
  0
POLYLINE
  6
continous
  8
BYBLOCK
 70
0
 66
1
  0
VERTEX
  8
0
 10
2435.7707
 20
1732.1810
 30
0.0000
  0
VERTEX
  8
0
 10
2436.2973
 20
1732.6248
 30
0.0000
  0
VERTEX
  8
0
 10
2436.6717
 20
1733.0742
 30
0.0000
  0
VERTEX
  8
0
 10
2436.9420
 20
1733.5594
 30
0.0000
  0
VERTEX
  8
0
 10
2437.1016
 20
1734.0685
 30
0.0000
  0
VERTEX
  8
0
 10
2437.1473
 20
1734.5310
 30
0.0000
  0
SEQEND
  0
POLYLINE
  6
continous
  8
BYBLOCK
 70
0
 66
1
  0
VERTEX
  8
0
 10
2385.3209
 20
1704.5310
 30
0.0000
  0
VERTEX
  8
0
 10
2385.3788
 20
1704.0111
 30
0.0000
  0
VERTEX
  8
0
 10
2385.5510
 20
1703.5041
 30
0.0000
  0
VERTEX
  8
0
 10
2385.8332
 20
1703.0223
 30
0.0000
  0
VERTEX
  8
0
 10
2386.2185
 20
1702.5776
 30
0.0000
  0
VERTEX
  8
0
 10
2386.7560
 20
1702.1404
 30
0.0000
  0
VERTEX
  8
0
 10
2387.3927
 20
1701.7758
 30
0.0000
  0
VERTEX
  8
0
 10
2388.1093
 20
1701.4950
 30
0.0000
  0
VERTEX
  8
0
 10
2388.8839
 20
1701.3064
 30
0.0000
  0
VERTEX
  8
0
 10
2389.6931
 20
1701.2157
 30
0.0000
  0
VERTEX
  8
0
 10
2390.5122
 20
1701.2258
 30
0.0000
  0
VERTEX
  8
0
 10
2391.3164
 20
1701.3364
 30
0.0000
  0
VERTEX
  8
0
 10
2392.0813
 20
1701.5440
 30
0.0000
  0
VERTEX
  8
0
 10
2392.7835
 20
1701.8424
 30
0.0000
  0
VERTEX
  8
0
 10
2393.3443
 20
1702.1810
 30
0.0000
  0
SEQEND
  0
POLYLINE
  6
continous
  8
BYBLOCK
 70
0
 66
1
  0
VERTEX
  8
0
 10
2386.6975
 20
1706.8810
 30
0.0000
  0
VERTEX
  8
0
 10
2386.1709
 20
1706.4373
 30
0.0000
  0
VERTEX
  8
0
 10
2385.7966
 20
1705.9879
 30
0.0000
  0
VERTEX
  8
0
 10
2385.5263
 20
1705.5027
 30
0.0000
  0
VERTEX
  8
0
 10
2385.3667
 20
1704.9936
 30
0.0000
  0
VERTEX
  8
0
 10
2385.3209
 20
1704.5310
 30
0.0000
  0
SEQEND
  0
POLYLINE
  6
continous
  8
BYBLOCK
 70
0
 66
1
  0
VERTEX
  8
0
 10
2394.7209
 20
1704.5310
 30
0.0000
  0
VERTEX
  8
0
 10
2394.6631
 20
1705.0509
 30
0.0000
  0
VERTEX
  8
0
 10
2394.4909
 20
1705.5580
 30
0.0000
  0
VERTEX
  8
0
 10
2394.2087
 20
1706.0398
 30
0.0000
  0
VERTEX
  8
0
 10
2393.8233
 20
1706.4845
 30
0.0000
  0
VERTEX
  8
0
 10
2393.2858
 20
1706.9217
 30
0.0000
  0
VERTEX
  8
0
 10
2392.6491
 20
1707.2863
 30
0.0000
  0
VERTEX
  8
0
 10
2391.9326
 20
1707.5671
 30
0.0000
  0
VERTEX
  8
0
 10
2391.1580
 20
1707.7557
 30
0.0000
  0
VERTEX
  8
0
 10
2390.3488
 20
1707.8464
 30
0.0000
  0
VERTEX
  8
0
 10
2389.5296
 20
1707.8362
 30
0.0000
  0
VERTEX
  8
0
 10
2388.7254
 20
1707.7257
 30
0.0000
  0
VERTEX
  8
0
 10
2387.9606
 20
1707.5181
 30
0.0000
  0
VERTEX
  8
0
 10
2387.2583
 20
1707.2197
 30
0.0000
  0
VERTEX
  8
0
 10
2386.6975
 20
1706.8810
 30
0.0000
  0
SEQEND
  0
POLYLINE
  6
continous
  8
BYBLOCK
 70
0
 66
1
  0
VERTEX
  8
0
 10
2393.3443
 20
1702.1810
 30
0.0000
  0
VERTEX
  8
0
 10
2393.8709
 20
1702.6248
 30
0.0000
  0
VERTEX
  8
0
 10
2394.2453
 20
1703.0742
 30
0.0000
  0
VERTEX
  8
0
 10
2394.5156
 20
1703.5594
 30
0.0000
  0
VERTEX
  8
0
 10
2394.6752
 20
1704.0685
 30
0.0000
  0
VERTEX
  8
0
 10
2394.7209
 20
1704.5310
 30
0.0000
  0
SEQEND
  0
POLYLINE
  6
continous
  8
BYBLOCK
 70
0
 66
1
  0
VERTEX
  8
0
 10
2342.8945
 20
1674.5310
 30
0.0000
  0
VERTEX
  8
0
 10
2342.9524
 20
1674.0111
 30
0.0000
  0
VERTEX
  8
0
 10
2343.1245
 20
1673.5041
 30
0.0000
  0
VERTEX
  8
0
 10
2343.4068
 20
1673.0223
 30
0.0000
  0
VERTEX
  8
0
 10
2343.7921
 20
1672.5776
 30
0.0000
  0
VERTEX
  8
0
 10
2344.3296
 20
1672.1404
 30
0.0000
  0
VERTEX
  8
0
 10
2344.9663
 20
1671.7758
 30
0.0000
  0
VERTEX
  8
0
 10
2345.6829
 20
1671.4950
 30
0.0000
  0
VERTEX
  8
0
 10
2346.4575
 20
1671.3064
 30
0.0000
  0
VERTEX
  8
0
 10
2347.2667
 20
1671.2157
 30
0.0000
  0
VERTEX
  8
0
 10
2348.0858
 20
1671.2258
 30
0.0000
  0
VERTEX
  8
0
 10
2348.8900
 20
1671.3364
 30
0.0000
  0
VERTEX
  8
0
 10
2349.6549
 20
1671.5440
 30
0.0000
  0
VERTEX
  8
0
 10
2350.3571
 20
1671.8424
 30
0.0000
  0
VERTEX
  8
0
 10
2350.9179
 20
1672.1810
 30
0.0000
  0
SEQEND
  0
POLYLINE
  6
continous
  8
BYBLOCK
 70
0
 66
1
  0
VERTEX
  8
0
 10
2344.2711
 20
1676.8810
 30
0.0000
  0
VERTEX
  8
0
 10
2343.7445
 20
1676.4373
 30
0.0000
  0
VERTEX
  8
0
 10
2343.3702
 20
1675.9879
 30
0.0000
  0
VERTEX
  8
0
 10
2343.0999
 20
1675.5027
 30
0.0000
  0
VERTEX
  8
0
 10
2342.9403
 20
1674.9936
 30
0.0000
  0
VERTEX
  8
0
 10
2342.8945
 20
1674.5310
 30
0.0000
  0
SEQEND
  0
POLYLINE
  6
continous
  8
BYBLOCK
 70
0
 66
1
  0
VERTEX
  8
0
 10
2352.2945
 20
1674.5310
 30
0.0000
  0
VERTEX
  8
0
 10
2352.2366
 20
1675.0509
 30
0.0000
  0
VERTEX
  8
0
 10
2352.0645
 20
1675.5580
 30
0.0000
  0
VERTEX
  8
0
 10
2351.7822
 20
1676.0398
 30
0.0000
  0
VERTEX
  8
0
 10
2351.3969
 20
1676.4845
 30
0.0000
  0
VERTEX
  8
0
 10
2350.8594
 20
1676.9217
 30
0.0000
  0
VERTEX
  8
0
 10
2350.2227
 20
1677.2863
 30
0.0000
  0
VERTEX
  8
0
 10
2349.5062
 20
1677.5671
 30
0.0000
  0
VERTEX
  8
0
 10
2348.7315
 20
1677.7557
 30
0.0000
  0
VERTEX
  8
0
 10
2347.9224
 20
1677.8464
 30
0.0000
  0
VERTEX
  8
0
 10
2347.1032
 20
1677.8362
 30
0.0000
  0
VERTEX
  8
0
 10
2346.2990
 20
1677.7257
 30
0.0000
  0
VERTEX
  8
0
 10
2345.5342
 20
1677.5181
 30
0.0000
  0
VERTEX
  8
0
 10
2344.8319
 20
1677.2197
 30
0.0000
  0
VERTEX
  8
0
 10
2344.2711
 20
1676.8810
 30
0.0000
  0
SEQEND
  0
POLYLINE
  6
continous
  8
BYBLOCK
 70
0
 66
1
  0
VERTEX
  8
0
 10
2350.9179
 20
1672.1810
 30
0.0000
  0
VERTEX
  8
0
 10
2351.4445
 20
1672.6248
 30
0.0000
  0
VERTEX
  8
0
 10
2351.8188
 20
1673.0742
 30
0.0000
  0
VERTEX
  8
0
 10
2352.0891
 20
1673.5594
 30
0.0000
  0
VERTEX
  8
0
 10
2352.2488
 20
1674.0685
 30
0.0000
  0
VERTEX
  8
0
 10
2352.2945
 20
1674.5310
 30
0.0000
  0
SEQEND
  0
POLYLINE
  6
continous
  8
BYBLOCK
 70
0
 66
1
  0
VERTEX
  8
0
 10
2300.4681
 20
1644.5310
 30
0.0000
  0
VERTEX
  8
0
 10
2300.5260
 20
1644.0111
 30
0.0000
  0
VERTEX
  8
0
 10
2300.6981
 20
1643.5041
 30
0.0000
  0
VERTEX
  8
0
 10
2300.9804
 20
1643.0223
 30
0.0000
  0
VERTEX
  8
0
 10
2301.3657
 20
1642.5776
 30
0.0000
  0
VERTEX
  8
0
 10
2301.9032
 20
1642.1404
 30
0.0000
  0
VERTEX
  8
0
 10
2302.5399
 20
1641.7758
 30
0.0000
  0
VERTEX
  8
0
 10
2303.2564
 20
1641.4950
 30
0.0000
  0
VERTEX
  8
0
 10
2304.0311
 20
1641.3064
 30
0.0000
  0
VERTEX
  8
0
 10
2304.8403
 20
1641.2157
 30
0.0000
  0
VERTEX
  8
0
 10
2305.6594
 20
1641.2258
 30
0.0000
  0
VERTEX
  8
0
 10
2306.4636
 20
1641.3364
 30
0.0000
  0
VERTEX
  8
0
 10
2307.2285
 20
1641.5440
 30
0.0000
  0
VERTEX
  8
0
 10
2307.9307
 20
1641.8424
 30
0.0000
  0
VERTEX
  8
0
 10
2308.4915
 20
1642.1810
 30
0.0000
  0
SEQEND
  0
POLYLINE
  6
continous
  8
BYBLOCK
 70
0
 66
1
  0
VERTEX
  8
0
 10
2301.8447
 20
1646.8810
 30
0.0000
  0
VERTEX
  8
0
 10
2301.3181
 20
1646.4373
 30
0.0000
  0
VERTEX
  8
0
 10
2300.9438
 20
1645.9879
 30
0.0000
  0
VERTEX
  8
0
 10
2300.6735
 20
1645.5027
 30
0.0000
  0
VERTEX
  8
0
 10
2300.5138
 20
1644.9936
 30
0.0000
  0
VERTEX
  8
0
 10
2300.4681
 20
1644.5310
 30
0.0000
  0
SEQEND
  0
POLYLINE
  6
continous
  8
BYBLOCK
 70
0
 66
1
  0
VERTEX
  8
0
 10
2309.8681
 20
1644.5310
 30
0.0000
  0
VERTEX
  8
0
 10
2309.8102
 20
1645.0509
 30
0.0000
  0
VERTEX
  8
0
 10
2309.6381
 20
1645.5580
 30
0.0000
  0
VERTEX
  8
0
 10
2309.3558
 20
1646.0398
 30
0.0000
  0
VERTEX
  8
0
 10
2308.9705
 20
1646.4845
 30
0.0000
  0
VERTEX
  8
0
 10
2308.4330
 20
1646.9217
 30
0.0000
  0
VERTEX
  8
0
 10
2307.7963
 20
1647.2863
 30
0.0000
  0
VERTEX
  8
0
 10
2307.0798
 20
1647.5671
 30
0.0000
  0
VERTEX
  8
0
 10
2306.3051
 20
1647.7557
 30
0.0000
  0
VERTEX
  8
0
 10
2305.4960
 20
1647.8464
 30
0.0000
  0
VERTEX
  8
0
 10
2304.6768
 20
1647.8362
 30
0.0000
  0
VERTEX
  8
0
 10
2303.8726
 20
1647.7257
 30
0.0000
  0
VERTEX
  8
0
 10
2303.1078
 20
1647.5181
 30
0.0000
  0
VERTEX
  8
0
 10
2302.4055
 20
1647.2197
 30
0.0000
  0
VERTEX
  8
0
 10
2301.8447
 20
1646.8810
 30
0.0000
  0
SEQEND
  0
POLYLINE
  6
continous
  8
BYBLOCK
 70
0
 66
1
  0
VERTEX
  8
0
 10
2308.4915
 20
1642.1810
 30
0.0000
  0
VERTEX
  8
0
 10
2309.0181
 20
1642.6248
 30
0.0000
  0
VERTEX
  8
0
 10
2309.3924
 20
1643.0742
 30
0.0000
  0
VERTEX
  8
0
 10
2309.6627
 20
1643.5594
 30
0.0000
  0
VERTEX
  8
0
 10
2309.8224
 20
1644.0685
 30
0.0000
  0
VERTEX
  8
0
 10
2309.8681
 20
1644.5310
 30
0.0000
  0
SEQEND
  0
POLYLINE
  6
continous
  8
BYBLOCK
 70
0
 66
1
  0
VERTEX
  8
0
 10
2258.0417
 20
1614.5310
 30
0.0000
  0
VERTEX
  8
0
 10
2258.0996
 20
1614.0111
 30
0.0000
  0
VERTEX
  8
0
 10
2258.2717
 20
1613.5041
 30
0.0000
  0
VERTEX
  8
0
 10
2258.5540
 20
1613.0223
 30
0.0000
  0
VERTEX
  8
0
 10
2258.9393
 20
1612.5776
 30
0.0000
  0
VERTEX
  8
0
 10
2259.4768
 20
1612.1404
 30
0.0000
  0
VERTEX
  8
0
 10
2260.1135
 20
1611.7758
 30
0.0000
  0
VERTEX
  8
0
 10
2260.8300
 20
1611.4950
 30
0.0000
  0
VERTEX
  8
0
 10
2261.6047
 20
1611.3064
 30
0.0000
  0
VERTEX
  8
0
 10
2262.4138
 20
1611.2157
 30
0.0000
  0
VERTEX
  8
0
 10
2263.2330
 20
1611.2258
 30
0.0000
  0
VERTEX
  8
0
 10
2264.0372
 20
1611.3364
 30
0.0000
  0
VERTEX
  8
0
 10
2264.8020
 20
1611.5440
 30
0.0000
  0
VERTEX
  8
0
 10
2265.5043
 20
1611.8424
 30
0.0000
  0
VERTEX
  8
0
 10
2266.0651
 20
1612.1810
 30
0.0000
  0
SEQEND
  0
POLYLINE
  6
continous
  8
BYBLOCK
 70
0
 66
1
  0
VERTEX
  8
0
 10
2259.4183
 20
1616.8810
 30
0.0000
  0
VERTEX
  8
0
 10
2258.8917
 20
1616.4373
 30
0.0000
  0
VERTEX
  8
0
 10
2258.5174
 20
1615.9879
 30
0.0000
  0
VERTEX
  8
0
 10
2258.2471
 20
1615.5027
 30
0.0000
  0
VERTEX
  8
0
 10
2258.0874
 20
1614.9936
 30
0.0000
  0
VERTEX
  8
0
 10
2258.0417
 20
1614.5310
 30
0.0000
  0
SEQEND
  0
POLYLINE
  6
continous
  8
BYBLOCK
 70
0
 66
1
  0
VERTEX
  8
0
 10
2267.4417
 20
1614.5310
 30
0.0000
  0
VERTEX
  8
0
 10
2267.3838
 20
1615.0509
 30
0.0000
  0
VERTEX
  8
0
 10
2267.2117
 20
1615.5580
 30
0.0000
  0
VERTEX
  8
0
 10
2266.9294
 20
1616.0398
 30
0.0000
  0
VERTEX
  8
0
 10
2266.5441
 20
1616.4845
 30
0.0000
  0
VERTEX
  8
0
 10
2266.0066
 20
1616.9217
 30
0.0000
  0
VERTEX
  8
0
 10
2265.3699
 20
1617.2863
 30
0.0000
  0
VERTEX
  8
0
 10
2264.6534
 20
1617.5671
 30
0.0000
  0
VERTEX
  8
0
 10
2263.8787
 20
1617.7557
 30
0.0000
  0
VERTEX
  8
0
 10
2263.0696
 20
1617.8464
 30
0.0000
  0
VERTEX
  8
0
 10
2262.2504
 20
1617.8362
 30
0.0000
  0
VERTEX
  8
0
 10
2261.4462
 20
1617.7257
 30
0.0000
  0
VERTEX
  8
0
 10
2260.6814
 20
1617.5181
 30
0.0000
  0
VERTEX
  8
0
 10
2259.9791
 20
1617.2197
 30
0.0000
  0
VERTEX
  8
0
 10
2259.4183
 20
1616.8810
 30
0.0000
  0
SEQEND
  0
POLYLINE
  6
continous
  8
BYBLOCK
 70
0
 66
1
  0
VERTEX
  8
0
 10
2266.0651
 20
1612.1810
 30
0.0000
  0
VERTEX
  8
0
 10
2266.5917
 20
1612.6248
 30
0.0000
  0
VERTEX
  8
0
 10
2266.9660
 20
1613.0742
 30
0.0000
  0
VERTEX
  8
0
 10
2267.2363
 20
1613.5594
 30
0.0000
  0
VERTEX
  8
0
 10
2267.3960
 20
1614.0685
 30
0.0000
  0
VERTEX
  8
0
 10
2267.4417
 20
1614.5310
 30
0.0000
  0
SEQEND
  0
POLYLINE
  6
continous
  8
BYBLOCK
 70
0
 66
1
  0
VERTEX
  8
0
 10
2215.6153
 20
1584.5310
 30
0.0000
  0
VERTEX
  8
0
 10
2215.6732
 20
1584.0111
 30
0.0000
  0
VERTEX
  8
0
 10
2215.8453
 20
1583.5041
 30
0.0000
  0
VERTEX
  8
0
 10
2216.1276
 20
1583.0223
 30
0.0000
  0
VERTEX
  8
0
 10
2216.5129
 20
1582.5776
 30
0.0000
  0
VERTEX
  8
0
 10
2217.0504
 20
1582.1404
 30
0.0000
  0
VERTEX
  8
0
 10
2217.6871
 20
1581.7758
 30
0.0000
  0
VERTEX
  8
0
 10
2218.4036
 20
1581.4950
 30
0.0000
  0
VERTEX
  8
0
 10
2219.1783
 20
1581.3064
 30
0.0000
  0
VERTEX
  8
0
 10
2219.9874
 20
1581.2157
 30
0.0000
  0
VERTEX
  8
0
 10
2220.8066
 20
1581.2258
 30
0.0000
  0
VERTEX
  8
0
 10
2221.6108
 20
1581.3364
 30
0.0000
  0
VERTEX
  8
0
 10
2222.3756
 20
1581.5440
 30
0.0000
  0
VERTEX
  8
0
 10
2223.0779
 20
1581.8424
 30
0.0000
  0
VERTEX
  8
0
 10
2223.6387
 20
1582.1810
 30
0.0000
  0
SEQEND
  0
POLYLINE
  6
continous
  8
BYBLOCK
 70
0
 66
1
  0
VERTEX
  8
0
 10
2216.9919
 20
1586.8810
 30
0.0000
  0
VERTEX
  8
0
 10
2216.4653
 20
1586.4373
 30
0.0000
  0
VERTEX
  8
0
 10
2216.0910
 20
1585.9879
 30
0.0000
  0
VERTEX
  8
0
 10
2215.8207
 20
1585.5027
 30
0.0000
  0
VERTEX
  8
0
 10
2215.6610
 20
1584.9936
 30
0.0000
  0
VERTEX
  8
0
 10
2215.6153
 20
1584.5310
 30
0.0000
  0
SEQEND
  0
POLYLINE
  6
continous
  8
BYBLOCK
 70
0
 66
1
  0
VERTEX
  8
0
 10
2225.0153
 20
1584.5310
 30
0.0000
  0
VERTEX
  8
0
 10
2224.9574
 20
1585.0509
 30
0.0000
  0
VERTEX
  8
0
 10
2224.7853
 20
1585.5580
 30
0.0000
  0
VERTEX
  8
0
 10
2224.5030
 20
1586.0398
 30
0.0000
  0
VERTEX
  8
0
 10
2224.1177
 20
1586.4845
 30
0.0000
  0
VERTEX
  8
0
 10
2223.5802
 20
1586.9217
 30
0.0000
  0
VERTEX
  8
0
 10
2222.9435
 20
1587.2863
 30
0.0000
  0
VERTEX
  8
0
 10
2222.2270
 20
1587.5671
 30
0.0000
  0
VERTEX
  8
0
 10
2221.4523
 20
1587.7557
 30
0.0000
  0
VERTEX
  8
0
 10
2220.6431
 20
1587.8464
 30
0.0000
  0
VERTEX
  8
0
 10
2219.8240
 20
1587.8362
 30
0.0000
  0
VERTEX
  8
0
 10
2219.0198
 20
1587.7257
 30
0.0000
  0
VERTEX
  8
0
 10
2218.2549
 20
1587.5181
 30
0.0000
  0
VERTEX
  8
0
 10
2217.5527
 20
1587.2197
 30
0.0000
  0
VERTEX
  8
0
 10
2216.9919
 20
1586.8810
 30
0.0000
  0
SEQEND
  0
POLYLINE
  6
continous
  8
BYBLOCK
 70
0
 66
1
  0
VERTEX
  8
0
 10
2223.6387
 20
1582.1810
 30
0.0000
  0
VERTEX
  8
0
 10
2224.1653
 20
1582.6248
 30
0.0000
  0
VERTEX
  8
0
 10
2224.5396
 20
1583.0742
 30
0.0000
  0
VERTEX
  8
0
 10
2224.8099
 20
1583.5594
 30
0.0000
  0
VERTEX
  8
0
 10
2224.9696
 20
1584.0685
 30
0.0000
  0
VERTEX
  8
0
 10
2225.0153
 20
1584.5310
 30
0.0000
  0
SEQEND
  0
POLYLINE
  6
continous
  8
BYBLOCK
 70
0
 66
1
  0
VERTEX
  8
0
 10
2173.1889
 20
1554.5310
 30
0.0000
  0
VERTEX
  8
0
 10
2173.2468
 20
1554.0111
 30
0.0000
  0
VERTEX
  8
0
 10
2173.4189
 20
1553.5041
 30
0.0000
  0
VERTEX
  8
0
 10
2173.7012
 20
1553.0223
 30
0.0000
  0
VERTEX
  8
0
 10
2174.0865
 20
1552.5776
 30
0.0000
  0
VERTEX
  8
0
 10
2174.6240
 20
1552.1404
 30
0.0000
  0
VERTEX
  8
0
 10
2175.2607
 20
1551.7758
 30
0.0000
  0
VERTEX
  8
0
 10
2175.9772
 20
1551.4950
 30
0.0000
  0
VERTEX
  8
0
 10
2176.7519
 20
1551.3064
 30
0.0000
  0
VERTEX
  8
0
 10
2177.5610
 20
1551.2157
 30
0.0000
  0
VERTEX
  8
0
 10
2178.3802
 20
1551.2258
 30
0.0000
  0
VERTEX
  8
0
 10
2179.1844
 20
1551.3364
 30
0.0000
  0
VERTEX
  8
0
 10
2179.9492
 20
1551.5440
 30
0.0000
  0
VERTEX
  8
0
 10
2180.6515
 20
1551.8424
 30
0.0000
  0
VERTEX
  8
0
 10
2181.2123
 20
1552.1810
 30
0.0000
  0
SEQEND
  0
POLYLINE
  6
continous
  8
BYBLOCK
 70
0
 66
1
  0
VERTEX
  8
0
 10
2174.5655
 20
1556.8810
 30
0.0000
  0
VERTEX
  8
0
 10
2174.0389
 20
1556.4373
 30
0.0000
  0
VERTEX
  8
0
 10
2173.6646
 20
1555.9879
 30
0.0000
  0
VERTEX
  8
0
 10
2173.3943
 20
1555.5027
 30
0.0000
  0
VERTEX
  8
0
 10
2173.2346
 20
1554.9936
 30
0.0000
  0
VERTEX
  8
0
 10
2173.1889
 20
1554.5310
 30
0.0000
  0
SEQEND
  0
POLYLINE
  6
continous
  8
BYBLOCK
 70
0
 66
1
  0
VERTEX
  8
0
 10
2182.5889
 20
1554.5310
 30
0.0000
  0
VERTEX
  8
0
 10
2182.5310
 20
1555.0509
 30
0.0000
  0
VERTEX
  8
0
 10
2182.3589
 20
1555.5580
 30
0.0000
  0
VERTEX
  8
0
 10
2182.0766
 20
1556.0398
 30
0.0000
  0
VERTEX
  8
0
 10
2181.6913
 20
1556.4845
 30
0.0000
  0
VERTEX
  8
0
 10
2181.1538
 20
1556.9217
 30
0.0000
  0
VERTEX
  8
0
 10
2180.5171
 20
1557.2863
 30
0.0000
  0
VERTEX
  8
0
 10
2179.8005
 20
1557.5671
 30
0.0000
  0
VERTEX
  8
0
 10
2179.0259
 20
1557.7557
 30
0.0000
  0
VERTEX
  8
0
 10
2178.2167
 20
1557.8464
 30
0.0000
  0
VERTEX
  8
0
 10
2177.3976
 20
1557.8362
 30
0.0000
  0
VERTEX
  8
0
 10
2176.5934
 20
1557.7257
 30
0.0000
  0
VERTEX
  8
0
 10
2175.8285
 20
1557.5181
 30
0.0000
  0
VERTEX
  8
0
 10
2175.1263
 20
1557.2197
 30
0.0000
  0
VERTEX
  8
0
 10
2174.5655
 20
1556.8810
 30
0.0000
  0
SEQEND
  0
POLYLINE
  6
continous
  8
BYBLOCK
 70
0
 66
1
  0
VERTEX
  8
0
 10
2181.2123
 20
1552.1810
 30
0.0000
  0
VERTEX
  8
0
 10
2181.7389
 20
1552.6248
 30
0.0000
  0
VERTEX
  8
0
 10
2182.1132
 20
1553.0742
 30
0.0000
  0
VERTEX
  8
0
 10
2182.3835
 20
1553.5594
 30
0.0000
  0
VERTEX
  8
0
 10
2182.5431
 20
1554.0685
 30
0.0000
  0
VERTEX
  8
0
 10
2182.5889
 20
1554.5310
 30
0.0000
  0
SEQEND
  0
POLYLINE
  6
continous
  8
BYBLOCK
 70
0
 66
1
  0
VERTEX
  8
0
 10
2130.7625
 20
1524.5310
 30
0.0000
  0
VERTEX
  8
0
 10
2130.8203
 20
1524.0111
 30
0.0000
  0
VERTEX
  8
0
 10
2130.9925
 20
1523.5041
 30
0.0000
  0
VERTEX
  8
0
 10
2131.2747
 20
1523.0223
 30
0.0000
  0
VERTEX
  8
0
 10
2131.6601
 20
1522.5776
 30
0.0000
  0
VERTEX
  8
0
 10
2132.1976
 20
1522.1404
 30
0.0000
  0
VERTEX
  8
0
 10
2132.8343
 20
1521.7758
 30
0.0000
  0
VERTEX
  8
0
 10
2133.5508
 20
1521.4950
 30
0.0000
  0
VERTEX
  8
0
 10
2134.3254
 20
1521.3064
 30
0.0000
  0
VERTEX
  8
0
 10
2135.1346
 20
1521.2157
 30
0.0000
  0
VERTEX
  8
0
 10
2135.9538
 20
1521.2258
 30
0.0000
  0
VERTEX
  8
0
 10
2136.7580
 20
1521.3364
 30
0.0000
  0
VERTEX
  8
0
 10
2137.5228
 20
1521.5440
 30
0.0000
  0
VERTEX
  8
0
 10
2138.2251
 20
1521.8424
 30
0.0000
  0
VERTEX
  8
0
 10
2138.7859
 20
1522.1810
 30
0.0000
  0
SEQEND
  0
POLYLINE
  6
continous
  8
BYBLOCK
 70
0
 66
1
  0
VERTEX
  8
0
 10
2132.1391
 20
1526.8810
 30
0.0000
  0
VERTEX
  8
0
 10
2131.6125
 20
1526.4373
 30
0.0000
  0
VERTEX
  8
0
 10
2131.2381
 20
1525.9879
 30
0.0000
  0
VERTEX
  8
0
 10
2130.9678
 20
1525.5027
 30
0.0000
  0
VERTEX
  8
0
 10
2130.8082
 20
1524.9936
 30
0.0000
  0
VERTEX
  8
0
 10
2130.7625
 20
1524.5310
 30
0.0000
  0
SEQEND
  0
POLYLINE
  6
continous
  8
BYBLOCK
 70
0
 66
1
  0
VERTEX
  8
0
 10
2140.1625
 20
1524.5310
 30
0.0000
  0
VERTEX
  8
0
 10
2140.1046
 20
1525.0509
 30
0.0000
  0
VERTEX
  8
0
 10
2139.9324
 20
1525.5580
 30
0.0000
  0
VERTEX
  8
0
 10
2139.6502
 20
1526.0398
 30
0.0000
  0
VERTEX
  8
0
 10
2139.2649
 20
1526.4845
 30
0.0000
  0
VERTEX
  8
0
 10
2138.7274
 20
1526.9217
 30
0.0000
  0
VERTEX
  8
0
 10
2138.0907
 20
1527.2863
 30
0.0000
  0
VERTEX
  8
0
 10
2137.3741
 20
1527.5671
 30
0.0000
  0
VERTEX
  8
0
 10
2136.5995
 20
1527.7557
 30
0.0000
  0
VERTEX
  8
0
 10
2135.7903
 20
1527.8464
 30
0.0000
  0
VERTEX
  8
0
 10
2134.9712
 20
1527.8362
 30
0.0000
  0
VERTEX
  8
0
 10
2134.1670
 20
1527.7257
 30
0.0000
  0
VERTEX
  8
0
 10
2133.4021
 20
1527.5181
 30
0.0000
  0
VERTEX
  8
0
 10
2132.6999
 20
1527.2197
 30
0.0000
  0
VERTEX
  8
0
 10
2132.1391
 20
1526.8810
 30
0.0000
  0
SEQEND
  0
POLYLINE
  6
continous
  8
BYBLOCK
 70
0
 66
1
  0
VERTEX
  8
0
 10
2138.7859
 20
1522.1810
 30
0.0000
  0
VERTEX
  8
0
 10
2139.3125
 20
1522.6248
 30
0.0000
  0
VERTEX
  8
0
 10
2139.6868
 20
1523.0742
 30
0.0000
  0
VERTEX
  8
0
 10
2139.9571
 20
1523.5594
 30
0.0000
  0
VERTEX
  8
0
 10
2140.1167
 20
1524.0685
 30
0.0000
  0
VERTEX
  8
0
 10
2140.1625
 20
1524.5310
 30
0.0000
  0
SEQEND
  0
POLYLINE
  6
continous
  8
BYBLOCK
 70
0
 66
1
  0
VERTEX
  8
0
 10
2088.3361
 20
1494.5310
 30
0.0000
  0
VERTEX
  8
0
 10
2088.3939
 20
1494.0111
 30
0.0000
  0
VERTEX
  8
0
 10
2088.5661
 20
1493.5041
 30
0.0000
  0
VERTEX
  8
0
 10
2088.8483
 20
1493.0223
 30
0.0000
  0
VERTEX
  8
0
 10
2089.2337
 20
1492.5776
 30
0.0000
  0
VERTEX
  8
0
 10
2089.7712
 20
1492.1404
 30
0.0000
  0
VERTEX
  8
0
 10
2090.4079
 20
1491.7758
 30
0.0000
  0
VERTEX
  8
0
 10
2091.1244
 20
1491.4950
 30
0.0000
  0
VERTEX
  8
0
 10
2091.8990
 20
1491.3064
 30
0.0000
  0
VERTEX
  8
0
 10
2092.7082
 20
1491.2157
 30
0.0000
  0
VERTEX
  8
0
 10
2093.5274
 20
1491.2258
 30
0.0000
  0
VERTEX
  8
0
 10
2094.3316
 20
1491.3364
 30
0.0000
  0
VERTEX
  8
0
 10
2095.0964
 20
1491.5440
 30
0.0000
  0
VERTEX
  8
0
 10
2095.7987
 20
1491.8424
 30
0.0000
  0
VERTEX
  8
0
 10
2096.3595
 20
1492.1810
 30
0.0000
  0
SEQEND
  0
POLYLINE
  6
continous
  8
BYBLOCK
 70
0
 66
1
  0
VERTEX
  8
0
 10
2089.7127
 20
1496.8810
 30
0.0000
  0
VERTEX
  8
0
 10
2089.1861
 20
1496.4373
 30
0.0000
  0
VERTEX
  8
0
 10
2088.8117
 20
1495.9879
 30
0.0000
  0
VERTEX
  8
0
 10
2088.5414
 20
1495.5027
 30
0.0000
  0
VERTEX
  8
0
 10
2088.3818
 20
1494.9936
 30
0.0000
  0
VERTEX
  8
0
 10
2088.3361
 20
1494.5310
 30
0.0000
  0
SEQEND
  0
POLYLINE
  6
continous
  8
BYBLOCK
 70
0
 66
1
  0
VERTEX
  8
0
 10
2097.7361
 20
1494.5310
 30
0.0000
  0
VERTEX
  8
0
 10
2097.6782
 20
1495.0509
 30
0.0000
  0
VERTEX
  8
0
 10
2097.5060
 20
1495.5580
 30
0.0000
  0
VERTEX
  8
0
 10
2097.2238
 20
1496.0398
 30
0.0000
  0
VERTEX
  8
0
 10
2096.8385
 20
1496.4845
 30
0.0000
  0
VERTEX
  8
0
 10
2096.3010
 20
1496.9217
 30
0.0000
  0
VERTEX
  8
0
 10
2095.6643
 20
1497.2863
 30
0.0000
  0
VERTEX
  8
0
 10
2094.9477
 20
1497.5671
 30
0.0000
  0
VERTEX
  8
0
 10
2094.1731
 20
1497.7557
 30
0.0000
  0
VERTEX
  8
0
 10
2093.3639
 20
1497.8464
 30
0.0000
  0
VERTEX
  8
0
 10
2092.5448
 20
1497.8362
 30
0.0000
  0
VERTEX
  8
0
 10
2091.7406
 20
1497.7257
 30
0.0000
  0
VERTEX
  8
0
 10
2090.9757
 20
1497.5181
 30
0.0000
  0
VERTEX
  8
0
 10
2090.2735
 20
1497.2197
 30
0.0000
  0
VERTEX
  8
0
 10
2089.7127
 20
1496.8810
 30
0.0000
  0
SEQEND
  0
POLYLINE
  6
continous
  8
BYBLOCK
 70
0
 66
1
  0
VERTEX
  8
0
 10
2096.3595
 20
1492.1810
 30
0.0000
  0
VERTEX
  8
0
 10
2096.8861
 20
1492.6248
 30
0.0000
  0
VERTEX
  8
0
 10
2097.2604
 20
1493.0742
 30
0.0000
  0
VERTEX
  8
0
 10
2097.5307
 20
1493.5594
 30
0.0000
  0
VERTEX
  8
0
 10
2097.6903
 20
1494.0685
 30
0.0000
  0
VERTEX
  8
0
 10
2097.7361
 20
1494.5310
 30
0.0000
  0
SEQEND
  0
POLYLINE
  6
continous
  8
BYBLOCK
 70
0
 66
1
  0
VERTEX
  8
0
 10
2045.9097
 20
1464.5310
 30
0.0000
  0
VERTEX
  8
0
 10
2045.9675
 20
1464.0111
 30
0.0000
  0
VERTEX
  8
0
 10
2046.1397
 20
1463.5041
 30
0.0000
  0
VERTEX
  8
0
 10
2046.4219
 20
1463.0223
 30
0.0000
  0
VERTEX
  8
0
 10
2046.8073
 20
1462.5776
 30
0.0000
  0
VERTEX
  8
0
 10
2047.3448
 20
1462.1404
 30
0.0000
  0
VERTEX
  8
0
 10
2047.9815
 20
1461.7758
 30
0.0000
  0
VERTEX
  8
0
 10
2048.6980
 20
1461.4950
 30
0.0000
  0
VERTEX
  8
0
 10
2049.4726
 20
1461.3064
 30
0.0000
  0
VERTEX
  8
0
 10
2050.2818
 20
1461.2157
 30
0.0000
  0
VERTEX
  8
0
 10
2051.1009
 20
1461.2258
 30
0.0000
  0
VERTEX
  8
0
 10
2051.9052
 20
1461.3364
 30
0.0000
  0
VERTEX
  8
0
 10
2052.6700
 20
1461.5440
 30
0.0000
  0
VERTEX
  8
0
 10
2053.3723
 20
1461.8424
 30
0.0000
  0
VERTEX
  8
0
 10
2053.9331
 20
1462.1810
 30
0.0000
  0
SEQEND
  0
POLYLINE
  6
continous
  8
BYBLOCK
 70
0
 66
1
  0
VERTEX
  8
0
 10
2047.2863
 20
1466.8810
 30
0.0000
  0
VERTEX
  8
0
 10
2046.7597
 20
1466.4373
 30
0.0000
  0
VERTEX
  8
0
 10
2046.3853
 20
1465.9879
 30
0.0000
  0
VERTEX
  8
0
 10
2046.1150
 20
1465.5027
 30
0.0000
  0
VERTEX
  8
0
 10
2045.9554
 20
1464.9936
 30
0.0000
  0
VERTEX
  8
0
 10
2045.9097
 20
1464.5310
 30
0.0000
  0
SEQEND
  0
POLYLINE
  6
continous
  8
BYBLOCK
 70
0
 66
1
  0
VERTEX
  8
0
 10
2055.3097
 20
1464.5310
 30
0.0000
  0
VERTEX
  8
0
 10
2055.2518
 20
1465.0509
 30
0.0000
  0
VERTEX
  8
0
 10
2055.0796
 20
1465.5580
 30
0.0000
  0
VERTEX
  8
0
 10
2054.7974
 20
1466.0398
 30
0.0000
  0
VERTEX
  8
0
 10
2054.4120
 20
1466.4845
 30
0.0000
  0
VERTEX
  8
0
 10
2053.8746
 20
1466.9217
 30
0.0000
  0
VERTEX
  8
0
 10
2053.2379
 20
1467.2863
 30
0.0000
  0
VERTEX
  8
0
 10
2052.5213
 20
1467.5671
 30
0.0000
  0
VERTEX
  8
0
 10
2051.7467
 20
1467.7557
 30
0.0000
  0
VERTEX
  8
0
 10
2050.9375
 20
1467.8464
 30
0.0000
  0
VERTEX
  8
0
 10
2050.1184
 20
1467.8362
 30
0.0000
  0
VERTEX
  8
0
 10
2049.3142
 20
1467.7257
 30
0.0000
  0
VERTEX
  8
0
 10
2048.5493
 20
1467.5181
 30
0.0000
  0
VERTEX
  8
0
 10
2047.8471
 20
1467.2197
 30
0.0000
  0
VERTEX
  8
0
 10
2047.2863
 20
1466.8810
 30
0.0000
  0
SEQEND
  0
POLYLINE
  6
continous
  8
BYBLOCK
 70
0
 66
1
  0
VERTEX
  8
0
 10
2053.9331
 20
1462.1810
 30
0.0000
  0
VERTEX
  8
0
 10
2054.4597
 20
1462.6248
 30
0.0000
  0
VERTEX
  8
0
 10
2054.8340
 20
1463.0742
 30
0.0000
  0
VERTEX
  8
0
 10
2055.1043
 20
1463.5594
 30
0.0000
  0
VERTEX
  8
0
 10
2055.2639
 20
1464.0685
 30
0.0000
  0
VERTEX
  8
0
 10
2055.3097
 20
1464.5310
 30
0.0000
  0
SEQEND
  0
POLYLINE
  6
continous
  8
BYBLOCK
 70
0
 66
1
  0
VERTEX
  8
0
 10
2003.4833
 20
1434.5310
 30
0.0000
  0
VERTEX
  8
0
 10
2003.5411
 20
1434.0111
 30
0.0000
  0
VERTEX
  8
0
 10
2003.7133
 20
1433.5041
 30
0.0000
  0
VERTEX
  8
0
 10
2003.9955
 20
1433.0223
 30
0.0000
  0
VERTEX
  8
0
 10
2004.3809
 20
1432.5776
 30
0.0000
  0
VERTEX
  8
0
 10
2004.9184
 20
1432.1404
 30
0.0000
  0
VERTEX
  8
0
 10
2005.5551
 20
1431.7758
 30
0.0000
  0
VERTEX
  8
0
 10
2006.2716
 20
1431.4950
 30
0.0000
  0
VERTEX
  8
0
 10
2007.0462
 20
1431.3064
 30
0.0000
  0
VERTEX
  8
0
 10
2007.8554
 20
1431.2157
 30
0.0000
  0
VERTEX
  8
0
 10
2008.6745
 20
1431.2258
 30
0.0000
  0
VERTEX
  8
0
 10
2009.4788
 20
1431.3364
 30
0.0000
  0
VERTEX
  8
0
 10
2010.2436
 20
1431.5440
 30
0.0000
  0
VERTEX
  8
0
 10
2010.9458
 20
1431.8424
 30
0.0000
  0
VERTEX
  8
0
 10
2011.5067
 20
1432.1810
 30
0.0000
  0
SEQEND
  0
POLYLINE
  6
continous
  8
BYBLOCK
 70
0
 66
1
  0
VERTEX
  8
0
 10
2004.8599
 20
1436.8810
 30
0.0000
  0
VERTEX
  8
0
 10
2004.3332
 20
1436.4373
 30
0.0000
  0
VERTEX
  8
0
 10
2003.9589
 20
1435.9879
 30
0.0000
  0
VERTEX
  8
0
 10
2003.6886
 20
1435.5027
 30
0.0000
  0
VERTEX
  8
0
 10
2003.5290
 20
1434.9936
 30
0.0000
  0
VERTEX
  8
0
 10
2003.4833
 20
1434.5310
 30
0.0000
  0
SEQEND
  0
POLYLINE
  6
continous
  8
BYBLOCK
 70
0
 66
1
  0
VERTEX
  8
0
 10
2012.8833
 20
1434.5310
 30
0.0000
  0
VERTEX
  8
0
 10
2012.8254
 20
1435.0509
 30
0.0000
  0
VERTEX
  8
0
 10
2012.6532
 20
1435.5580
 30
0.0000
  0
VERTEX
  8
0
 10
2012.3710
 20
1436.0398
 30
0.0000
  0
VERTEX
  8
0
 10
2011.9856
 20
1436.4845
 30
0.0000
  0
VERTEX
  8
0
 10
2011.4482
 20
1436.9217
 30
0.0000
  0
VERTEX
  8
0
 10
2010.8115
 20
1437.2863
 30
0.0000
  0
VERTEX
  8
0
 10
2010.0949
 20
1437.5671
 30
0.0000
  0
VERTEX
  8
0
 10
2009.3203
 20
1437.7557
 30
0.0000
  0
VERTEX
  8
0
 10
2008.5111
 20
1437.8464
 30
0.0000
  0
VERTEX
  8
0
 10
2007.6920
 20
1437.8362
 30
0.0000
  0
VERTEX
  8
0
 10
2006.8878
 20
1437.7257
 30
0.0000
  0
VERTEX
  8
0
 10
2006.1229
 20
1437.5181
 30
0.0000
  0
VERTEX
  8
0
 10
2005.4207
 20
1437.2197
 30
0.0000
  0
VERTEX
  8
0
 10
2004.8599
 20
1436.8810
 30
0.0000
  0
SEQEND
  0
POLYLINE
  6
continous
  8
BYBLOCK
 70
0
 66
1
  0
VERTEX
  8
0
 10
2011.5067
 20
1432.1810
 30
0.0000
  0
VERTEX
  8
0
 10
2012.0333
 20
1432.6248
 30
0.0000
  0
VERTEX
  8
0
 10
2012.4076
 20
1433.0742
 30
0.0000
  0
VERTEX
  8
0
 10
2012.6779
 20
1433.5594
 30
0.0000
  0
VERTEX
  8
0
 10
2012.8375
 20
1434.0685
 30
0.0000
  0
VERTEX
  8
0
 10
2012.8833
 20
1434.5310
 30
0.0000
  0
SEQEND
  0
POLYLINE
  6
continous
  8
BYBLOCK
 70
0
 66
1
  0
VERTEX
  8
0
 10
1961.0569
 20
1404.5310
 30
0.0000
  0
VERTEX
  8
0
 10
1961.1147
 20
1404.0111
 30
0.0000
  0
VERTEX
  8
0
 10
1961.2869
 20
1403.5041
 30
0.0000
  0
VERTEX
  8
0
 10
1961.5691
 20
1403.0223
 30
0.0000
  0
VERTEX
  8
0
 10
1961.9545
 20
1402.5776
 30
0.0000
  0
VERTEX
  8
0
 10
1962.4920
 20
1402.1404
 30
0.0000
  0
VERTEX
  8
0
 10
1963.1286
 20
1401.7758
 30
0.0000
  0
VERTEX
  8
0
 10
1963.8452
 20
1401.4950
 30
0.0000
  0
VERTEX
  8
0
 10
1964.6198
 20
1401.3064
 30
0.0000
  0
VERTEX
  8
0
 10
1965.4290
 20
1401.2157
 30
0.0000
  0
VERTEX
  8
0
 10
1966.2481
 20
1401.2258
 30
0.0000
  0
VERTEX
  8
0
 10
1967.0523
 20
1401.3364
 30
0.0000
  0
VERTEX
  8
0
 10
1967.8172
 20
1401.5440
 30
0.0000
  0
VERTEX
  8
0
 10
1968.5194
 20
1401.8424
 30
0.0000
  0
VERTEX
  8
0
 10
1969.0803
 20
1402.1810
 30
0.0000
  0
SEQEND
  0
POLYLINE
  6
continous
  8
BYBLOCK
 70
0
 66
1
  0
VERTEX
  8
0
 10
1962.4334
 20
1406.8810
 30
0.0000
  0
VERTEX
  8
0
 10
1961.9068
 20
1406.4373
 30
0.0000
  0
VERTEX
  8
0
 10
1961.5325
 20
1405.9879
 30
0.0000
  0
VERTEX
  8
0
 10
1961.2622
 20
1405.5027
 30
0.0000
  0
VERTEX
  8
0
 10
1961.1026
 20
1404.9936
 30
0.0000
  0
VERTEX
  8
0
 10
1961.0569
 20
1404.5310
 30
0.0000
  0
SEQEND
  0
POLYLINE
  6
continous
  8
BYBLOCK
 70
0
 66
1
  0
VERTEX
  8
0
 10
1970.4569
 20
1404.5310
 30
0.0000
  0
VERTEX
  8
0
 10
1970.3990
 20
1405.0509
 30
0.0000
  0
VERTEX
  8
0
 10
1970.2268
 20
1405.5580
 30
0.0000
  0
VERTEX
  8
0
 10
1969.9446
 20
1406.0398
 30
0.0000
  0
VERTEX
  8
0
 10
1969.5592
 20
1406.4845
 30
0.0000
  0
VERTEX
  8
0
 10
1969.0217
 20
1406.9217
 30
0.0000
  0
VERTEX
  8
0
 10
1968.3851
 20
1407.2863
 30
0.0000
  0
VERTEX
  8
0
 10
1967.6685
 20
1407.5671
 30
0.0000
  0
VERTEX
  8
0
 10
1966.8939
 20
1407.7557
 30
0.0000
  0
VERTEX
  8
0
 10
1966.0847
 20
1407.8464
 30
0.0000
  0
VERTEX
  8
0
 10
1965.2656
 20
1407.8362
 30
0.0000
  0
VERTEX
  8
0
 10
1964.4614
 20
1407.7257
 30
0.0000
  0
VERTEX
  8
0
 10
1963.6965
 20
1407.5181
 30
0.0000
  0
VERTEX
  8
0
 10
1962.9943
 20
1407.2197
 30
0.0000
  0
VERTEX
  8
0
 10
1962.4334
 20
1406.8810
 30
0.0000
  0
SEQEND
  0
POLYLINE
  6
continous
  8
BYBLOCK
 70
0
 66
1
  0
VERTEX
  8
0
 10
1969.0803
 20
1402.1810
 30
0.0000
  0
VERTEX
  8
0
 10
1969.6069
 20
1402.6248
 30
0.0000
  0
VERTEX
  8
0
 10
1969.9812
 20
1403.0742
 30
0.0000
  0
VERTEX
  8
0
 10
1970.2515
 20
1403.5594
 30
0.0000
  0
VERTEX
  8
0
 10
1970.4111
 20
1404.0685
 30
0.0000
  0
VERTEX
  8
0
 10
1970.4569
 20
1404.5310
 30
0.0000
  0
SEQEND
  0
POLYLINE
  6
continous
  8
BYBLOCK
 70
0
 66
1
  0
VERTEX
  8
0
 10
1918.6304
 20
1374.5310
 30
0.0000
  0
VERTEX
  8
0
 10
1918.6883
 20
1374.0111
 30
0.0000
  0
VERTEX
  8
0
 10
1918.8605
 20
1373.5041
 30
0.0000
  0
VERTEX
  8
0
 10
1919.1427
 20
1373.0223
 30
0.0000
  0
VERTEX
  8
0
 10
1919.5281
 20
1372.5776
 30
0.0000
  0
VERTEX
  8
0
 10
1920.0656
 20
1372.1404
 30
0.0000
  0
VERTEX
  8
0
 10
1920.7022
 20
1371.7758
 30
0.0000
  0
VERTEX
  8
0
 10
1921.4188
 20
1371.4950
 30
0.0000
  0
VERTEX
  8
0
 10
1922.1934
 20
1371.3064
 30
0.0000
  0
VERTEX
  8
0
 10
1923.0026
 20
1371.2157
 30
0.0000
  0
VERTEX
  8
0
 10
1923.8217
 20
1371.2258
 30
0.0000
  0
VERTEX
  8
0
 10
1924.6259
 20
1371.3364
 30
0.0000
  0
VERTEX
  8
0
 10
1925.3908
 20
1371.5440
 30
0.0000
  0
VERTEX
  8
0
 10
1926.0930
 20
1371.8424
 30
0.0000
  0
VERTEX
  8
0
 10
1926.6538
 20
1372.1810
 30
0.0000
  0
SEQEND
  0
POLYLINE
  6
continous
  8
BYBLOCK
 70
0
 66
1
  0
VERTEX
  8
0
 10
1920.0070
 20
1376.8810
 30
0.0000
  0
VERTEX
  8
0
 10
1919.4804
 20
1376.4373
 30
0.0000
  0
VERTEX
  8
0
 10
1919.1061
 20
1375.9879
 30
0.0000
  0
VERTEX
  8
0
 10
1918.8358
 20
1375.5027
 30
0.0000
  0
VERTEX
  8
0
 10
1918.6762
 20
1374.9936
 30
0.0000
  0
VERTEX
  8
0
 10
1918.6304
 20
1374.5310
 30
0.0000
  0
SEQEND
  0
POLYLINE
  6
continous
  8
BYBLOCK
 70
0
 66
1
  0
VERTEX
  8
0
 10
1928.0304
 20
1374.5310
 30
0.0000
  0
VERTEX
  8
0
 10
1927.9726
 20
1375.0509
 30
0.0000
  0
VERTEX
  8
0
 10
1927.8004
 20
1375.5580
 30
0.0000
  0
VERTEX
  8
0
 10
1927.5182
 20
1376.0398
 30
0.0000
  0
VERTEX
  8
0
 10
1927.1328
 20
1376.4845
 30
0.0000
  0
VERTEX
  8
0
 10
1926.5953
 20
1376.9217
 30
0.0000
  0
VERTEX
  8
0
 10
1925.9587
 20
1377.2863
 30
0.0000
  0
VERTEX
  8
0
 10
1925.2421
 20
1377.5671
 30
0.0000
  0
VERTEX
  8
0
 10
1924.4675
 20
1377.7557
 30
0.0000
  0
VERTEX
  8
0
 10
1923.6583
 20
1377.8464
 30
0.0000
  0
VERTEX
  8
0
 10
1922.8392
 20
1377.8362
 30
0.0000
  0
VERTEX
  8
0
 10
1922.0349
 20
1377.7257
 30
0.0000
  0
VERTEX
  8
0
 10
1921.2701
 20
1377.5181
 30
0.0000
  0
VERTEX
  8
0
 10
1920.5679
 20
1377.2197
 30
0.0000
  0
VERTEX
  8
0
 10
1920.0070
 20
1376.8810
 30
0.0000
  0
SEQEND
  0
POLYLINE
  6
continous
  8
BYBLOCK
 70
0
 66
1
  0
VERTEX
  8
0
 10
1926.6538
 20
1372.1810
 30
0.0000
  0
VERTEX
  8
0
 10
1927.1805
 20
1372.6248
 30
0.0000
  0
VERTEX
  8
0
 10
1927.5548
 20
1373.0742
 30
0.0000
  0
VERTEX
  8
0
 10
1927.8251
 20
1373.5594
 30
0.0000
  0
VERTEX
  8
0
 10
1927.9847
 20
1374.0685
 30
0.0000
  0
VERTEX
  8
0
 10
1928.0304
 20
1374.5310
 30
0.0000
  0
SEQEND
  0
POLYLINE
  6
continous
  8
BYBLOCK
 70
0
 66
1
  0
VERTEX
  8
0
 10
1876.2040
 20
1344.5310
 30
0.0000
  0
VERTEX
  8
0
 10
1876.2619
 20
1344.0111
 30
0.0000
  0
VERTEX
  8
0
 10
1876.4341
 20
1343.5041
 30
0.0000
  0
VERTEX
  8
0
 10
1876.7163
 20
1343.0223
 30
0.0000
  0
VERTEX
  8
0
 10
1877.1017
 20
1342.5776
 30
0.0000
  0
VERTEX
  8
0
 10
1877.6391
 20
1342.1404
 30
0.0000
  0
VERTEX
  8
0
 10
1878.2758
 20
1341.7758
 30
0.0000
  0
VERTEX
  8
0
 10
1878.9924
 20
1341.4950
 30
0.0000
  0
VERTEX
  8
0
 10
1879.7670
 20
1341.3064
 30
0.0000
  0
VERTEX
  8
0
 10
1880.5762
 20
1341.2157
 30
0.0000
  0
VERTEX
  8
0
 10
1881.3953
 20
1341.2258
 30
0.0000
  0
VERTEX
  8
0
 10
1882.1995
 20
1341.3364
 30
0.0000
  0
VERTEX
  8
0
 10
1882.9644
 20
1341.5440
 30
0.0000
  0
VERTEX
  8
0
 10
1883.6666
 20
1341.8424
 30
0.0000
  0
VERTEX
  8
0
 10
1884.2274
 20
1342.1810
 30
0.0000
  0
SEQEND
  0
POLYLINE
  6
continous
  8
BYBLOCK
 70
0
 66
1
  0
VERTEX
  8
0
 10
1877.5806
 20
1346.8810
 30
0.0000
  0
VERTEX
  8
0
 10
1877.0540
 20
1346.4373
 30
0.0000
  0
VERTEX
  8
0
 10
1876.6797
 20
1345.9879
 30
0.0000
  0
VERTEX
  8
0
 10
1876.4094
 20
1345.5027
 30
0.0000
  0
VERTEX
  8
0
 10
1876.2498
 20
1344.9936
 30
0.0000
  0
VERTEX
  8
0
 10
1876.2040
 20
1344.5310
 30
0.0000
  0
SEQEND
  0
POLYLINE
  6
continous
  8
BYBLOCK
 70
0
 66
1
  0
VERTEX
  8
0
 10
1885.6040
 20
1344.5310
 30
0.0000
  0
VERTEX
  8
0
 10
1885.5462
 20
1345.0509
 30
0.0000
  0
VERTEX
  8
0
 10
1885.3740
 20
1345.5580
 30
0.0000
  0
VERTEX
  8
0
 10
1885.0918
 20
1346.0398
 30
0.0000
  0
VERTEX
  8
0
 10
1884.7064
 20
1346.4845
 30
0.0000
  0
VERTEX
  8
0
 10
1884.1689
 20
1346.9217
 30
0.0000
  0
VERTEX
  8
0
 10
1883.5322
 20
1347.2863
 30
0.0000
  0
VERTEX
  8
0
 10
1882.8157
 20
1347.5671
 30
0.0000
  0
VERTEX
  8
0
 10
1882.0411
 20
1347.7557
 30
0.0000
  0
VERTEX
  8
0
 10
1881.2319
 20
1347.8464
 30
0.0000
  0
VERTEX
  8
0
 10
1880.4128
 20
1347.8362
 30
0.0000
  0
VERTEX
  8
0
 10
1879.6085
 20
1347.7257
 30
0.0000
  0
VERTEX
  8
0
 10
1878.8437
 20
1347.5181
 30
0.0000
  0
VERTEX
  8
0
 10
1878.1414
 20
1347.2197
 30
0.0000
  0
VERTEX
  8
0
 10
1877.5806
 20
1346.8810
 30
0.0000
  0
SEQEND
  0
POLYLINE
  6
continous
  8
BYBLOCK
 70
0
 66
1
  0
VERTEX
  8
0
 10
1884.2274
 20
1342.1810
 30
0.0000
  0
VERTEX
  8
0
 10
1884.7541
 20
1342.6248
 30
0.0000
  0
VERTEX
  8
0
 10
1885.1284
 20
1343.0742
 30
0.0000
  0
VERTEX
  8
0
 10
1885.3987
 20
1343.5594
 30
0.0000
  0
VERTEX
  8
0
 10
1885.5583
 20
1344.0685
 30
0.0000
  0
VERTEX
  8
0
 10
1885.6040
 20
1344.5310
 30
0.0000
  0
SEQEND
  0
POLYLINE
  6
continous
  8
BYBLOCK
 70
0
 66
1
  0
VERTEX
  8
0
 10
1833.7776
 20
1314.5310
 30
0.0000
  0
VERTEX
  8
0
 10
1833.8355
 20
1314.0111
 30
0.0000
  0
VERTEX
  8
0
 10
1834.0077
 20
1313.5041
 30
0.0000
  0
VERTEX
  8
0
 10
1834.2899
 20
1313.0223
 30
0.0000
  0
VERTEX
  8
0
 10
1834.6753
 20
1312.5776
 30
0.0000
  0
VERTEX
  8
0
 10
1835.2127
 20
1312.1404
 30
0.0000
  0
VERTEX
  8
0
 10
1835.8494
 20
1311.7758
 30
0.0000
  0
VERTEX
  8
0
 10
1836.5660
 20
1311.4950
 30
0.0000
  0
VERTEX
  8
0
 10
1837.3406
 20
1311.3064
 30
0.0000
  0
VERTEX
  8
0
 10
1838.1498
 20
1311.2157
 30
0.0000
  0
VERTEX
  8
0
 10
1838.9689
 20
1311.2258
 30
0.0000
  0
VERTEX
  8
0
 10
1839.7731
 20
1311.3364
 30
0.0000
  0
VERTEX
  8
0
 10
1840.5380
 20
1311.5440
 30
0.0000
  0
VERTEX
  8
0
 10
1841.2402
 20
1311.8424
 30
0.0000
  0
VERTEX
  8
0
 10
1841.8010
 20
1312.1810
 30
0.0000
  0
SEQEND
  0
POLYLINE
  6
continous
  8
BYBLOCK
 70
0
 66
1
  0
VERTEX
  8
0
 10
1835.1542
 20
1316.8810
 30
0.0000
  0
VERTEX
  8
0
 10
1834.6276
 20
1316.4373
 30
0.0000
  0
VERTEX
  8
0
 10
1834.2533
 20
1315.9879
 30
0.0000
  0
VERTEX
  8
0
 10
1833.9830
 20
1315.5027
 30
0.0000
  0
VERTEX
  8
0
 10
1833.8234
 20
1314.9936
 30
0.0000
  0
VERTEX
  8
0
 10
1833.7776
 20
1314.5310
 30
0.0000
  0
SEQEND
  0
POLYLINE
  6
continous
  8
BYBLOCK
 70
0
 66
1
  0
VERTEX
  8
0
 10
1843.1776
 20
1314.5310
 30
0.0000
  0
VERTEX
  8
0
 10
1843.1198
 20
1315.0509
 30
0.0000
  0
VERTEX
  8
0
 10
1842.9476
 20
1315.5580
 30
0.0000
  0
VERTEX
  8
0
 10
1842.6654
 20
1316.0398
 30
0.0000
  0
VERTEX
  8
0
 10
1842.2800
 20
1316.4845
 30
0.0000
  0
VERTEX
  8
0
 10
1841.7425
 20
1316.9217
 30
0.0000
  0
VERTEX
  8
0
 10
1841.1058
 20
1317.2863
 30
0.0000
  0
VERTEX
  8
0
 10
1840.3893
 20
1317.5671
 30
0.0000
  0
VERTEX
  8
0
 10
1839.6147
 20
1317.7557
 30
0.0000
  0
VERTEX
  8
0
 10
1838.8055
 20
1317.8464
 30
0.0000
  0
VERTEX
  8
0
 10
1837.9863
 20
1317.8362
 30
0.0000
  0
VERTEX
  8
0
 10
1837.1821
 20
1317.7257
 30
0.0000
  0
VERTEX
  8
0
 10
1836.4173
 20
1317.5181
 30
0.0000
  0
VERTEX
  8
0
 10
1835.7150
 20
1317.2197
 30
0.0000
  0
VERTEX
  8
0
 10
1835.1542
 20
1316.8810
 30
0.0000
  0
SEQEND
  0
POLYLINE
  6
continous
  8
BYBLOCK
 70
0
 66
1
  0
VERTEX
  8
0
 10
1841.8010
 20
1312.1810
 30
0.0000
  0
VERTEX
  8
0
 10
1842.3276
 20
1312.6248
 30
0.0000
  0
VERTEX
  8
0
 10
1842.7020
 20
1313.0742
 30
0.0000
  0
VERTEX
  8
0
 10
1842.9723
 20
1313.5594
 30
0.0000
  0
VERTEX
  8
0
 10
1843.1319
 20
1314.0685
 30
0.0000
  0
VERTEX
  8
0
 10
1843.1776
 20
1314.5310
 30
0.0000
  0
SEQEND
  0
POLYLINE
  6
continous
  8
BYBLOCK
 70
0
 66
1
  0
VERTEX
  8
0
 10
1791.3512
 20
1284.5310
 30
0.0000
  0
VERTEX
  8
0
 10
1791.4091
 20
1284.0111
 30
0.0000
  0
VERTEX
  8
0
 10
1791.5813
 20
1283.5041
 30
0.0000
  0
VERTEX
  8
0
 10
1791.8635
 20
1283.0223
 30
0.0000
  0
VERTEX
  8
0
 10
1792.2488
 20
1282.5776
 30
0.0000
  0
VERTEX
  8
0
 10
1792.7863
 20
1282.1404
 30
0.0000
  0
VERTEX
  8
0
 10
1793.4230
 20
1281.7758
 30
0.0000
  0
VERTEX
  8
0
 10
1794.1396
 20
1281.4950
 30
0.0000
  0
VERTEX
  8
0
 10
1794.9142
 20
1281.3064
 30
0.0000
  0
VERTEX
  8
0
 10
1795.7234
 20
1281.2157
 30
0.0000
  0
VERTEX
  8
0
 10
1796.5425
 20
1281.2258
 30
0.0000
  0
VERTEX
  8
0
 10
1797.3467
 20
1281.3364
 30
0.0000
  0
VERTEX
  8
0
 10
1798.1116
 20
1281.5440
 30
0.0000
  0
VERTEX
  8
0
 10
1798.8138
 20
1281.8424
 30
0.0000
  0
VERTEX
  8
0
 10
1799.3746
 20
1282.1810
 30
0.0000
  0
SEQEND
  0
POLYLINE
  6
continous
  8
BYBLOCK
 70
0
 66
1
  0
VERTEX
  8
0
 10
1792.7278
 20
1286.8810
 30
0.0000
  0
VERTEX
  8
0
 10
1792.2012
 20
1286.4373
 30
0.0000
  0
VERTEX
  8
0
 10
1791.8269
 20
1285.9879
 30
0.0000
  0
VERTEX
  8
0
 10
1791.5566
 20
1285.5027
 30
0.0000
  0
VERTEX
  8
0
 10
1791.3970
 20
1284.9936
 30
0.0000
  0
VERTEX
  8
0
 10
1791.3512
 20
1284.5310
 30
0.0000
  0
SEQEND
  0
POLYLINE
  6
continous
  8
BYBLOCK
 70
0
 66
1
  0
VERTEX
  8
0
 10
1800.7512
 20
1284.5310
 30
0.0000
  0
VERTEX
  8
0
 10
1800.6934
 20
1285.0509
 30
0.0000
  0
VERTEX
  8
0
 10
1800.5212
 20
1285.5580
 30
0.0000
  0
VERTEX
  8
0
 10
1800.2390
 20
1286.0398
 30
0.0000
  0
VERTEX
  8
0
 10
1799.8536
 20
1286.4845
 30
0.0000
  0
VERTEX
  8
0
 10
1799.3161
 20
1286.9217
 30
0.0000
  0
VERTEX
  8
0
 10
1798.6794
 20
1287.2863
 30
0.0000
  0
VERTEX
  8
0
 10
1797.9629
 20
1287.5671
 30
0.0000
  0
VERTEX
  8
0
 10
1797.1883
 20
1287.7557
 30
0.0000
  0
VERTEX
  8
0
 10
1796.3791
 20
1287.8464
 30
0.0000
  0
VERTEX
  8
0
 10
1795.5599
 20
1287.8362
 30
0.0000
  0
VERTEX
  8
0
 10
1794.7557
 20
1287.7257
 30
0.0000
  0
VERTEX
  8
0
 10
1793.9909
 20
1287.5181
 30
0.0000
  0
VERTEX
  8
0
 10
1793.2886
 20
1287.2197
 30
0.0000
  0
VERTEX
  8
0
 10
1792.7278
 20
1286.8810
 30
0.0000
  0
SEQEND
  0
POLYLINE
  6
continous
  8
BYBLOCK
 70
0
 66
1
  0
VERTEX
  8
0
 10
1799.3746
 20
1282.1810
 30
0.0000
  0
VERTEX
  8
0
 10
1799.9012
 20
1282.6248
 30
0.0000
  0
VERTEX
  8
0
 10
1800.2756
 20
1283.0742
 30
0.0000
  0
VERTEX
  8
0
 10
1800.5459
 20
1283.5594
 30
0.0000
  0
VERTEX
  8
0
 10
1800.7055
 20
1284.0685
 30
0.0000
  0
VERTEX
  8
0
 10
1800.7512
 20
1284.5310
 30
0.0000
  0
SEQEND
  0
POLYLINE
  6
continous
  8
BYBLOCK
 70
0
 66
1
  0
VERTEX
  8
0
 10
1748.9248
 20
1254.5310
 30
0.0000
  0
VERTEX
  8
0
 10
1748.9827
 20
1254.0111
 30
0.0000
  0
VERTEX
  8
0
 10
1749.1549
 20
1253.5041
 30
0.0000
  0
VERTEX
  8
0
 10
1749.4371
 20
1253.0223
 30
0.0000
  0
VERTEX
  8
0
 10
1749.8224
 20
1252.5776
 30
0.0000
  0
VERTEX
  8
0
 10
1750.3599
 20
1252.1404
 30
0.0000
  0
VERTEX
  8
0
 10
1750.9966
 20
1251.7758
 30
0.0000
  0
VERTEX
  8
0
 10
1751.7132
 20
1251.4950
 30
0.0000
  0
VERTEX
  8
0
 10
1752.4878
 20
1251.3064
 30
0.0000
  0
VERTEX
  8
0
 10
1753.2970
 20
1251.2157
 30
0.0000
  0
VERTEX
  8
0
 10
1754.1161
 20
1251.2258
 30
0.0000
  0
VERTEX
  8
0
 10
1754.9203
 20
1251.3364
 30
0.0000
  0
VERTEX
  8
0
 10
1755.6852
 20
1251.5440
 30
0.0000
  0
VERTEX
  8
0
 10
1756.3874
 20
1251.8424
 30
0.0000
  0
VERTEX
  8
0
 10
1756.9482
 20
1252.1810
 30
0.0000
  0
SEQEND
  0
POLYLINE
  6
continous
  8
BYBLOCK
 70
0
 66
1
  0
VERTEX
  8
0
 10
1750.3014
 20
1256.8810
 30
0.0000
  0
VERTEX
  8
0
 10
1749.7748
 20
1256.4373
 30
0.0000
  0
VERTEX
  8
0
 10
1749.4005
 20
1255.9879
 30
0.0000
  0
VERTEX
  8
0
 10
1749.1302
 20
1255.5027
 30
0.0000
  0
VERTEX
  8
0
 10
1748.9706
 20
1254.9936
 30
0.0000
  0
VERTEX
  8
0
 10
1748.9248
 20
1254.5310
 30
0.0000
  0
SEQEND
  0
POLYLINE
  6
continous
  8
BYBLOCK
 70
0
 66
1
  0
VERTEX
  8
0
 10
1758.3248
 20
1254.5310
 30
0.0000
  0
VERTEX
  8
0
 10
1758.2670
 20
1255.0509
 30
0.0000
  0
VERTEX
  8
0
 10
1758.0948
 20
1255.5580
 30
0.0000
  0
VERTEX
  8
0
 10
1757.8125
 20
1256.0398
 30
0.0000
  0
VERTEX
  8
0
 10
1757.4272
 20
1256.4845
 30
0.0000
  0
VERTEX
  8
0
 10
1756.8897
 20
1256.9217
 30
0.0000
  0
VERTEX
  8
0
 10
1756.2530
 20
1257.2863
 30
0.0000
  0
VERTEX
  8
0
 10
1755.5365
 20
1257.5671
 30
0.0000
  0
VERTEX
  8
0
 10
1754.7619
 20
1257.7557
 30
0.0000
  0
VERTEX
  8
0
 10
1753.9527
 20
1257.8464
 30
0.0000
  0
VERTEX
  8
0
 10
1753.1335
 20
1257.8362
 30
0.0000
  0
VERTEX
  8
0
 10
1752.3293
 20
1257.7257
 30
0.0000
  0
VERTEX
  8
0
 10
1751.5645
 20
1257.5181
 30
0.0000
  0
VERTEX
  8
0
 10
1750.8622
 20
1257.2197
 30
0.0000
  0
VERTEX
  8
0
 10
1750.3014
 20
1256.8810
 30
0.0000
  0
SEQEND
  0
POLYLINE
  6
continous
  8
BYBLOCK
 70
0
 66
1
  0
VERTEX
  8
0
 10
1756.9482
 20
1252.1810
 30
0.0000
  0
VERTEX
  8
0
 10
1757.4748
 20
1252.6248
 30
0.0000
  0
VERTEX
  8
0
 10
1757.8491
 20
1253.0742
 30
0.0000
  0
VERTEX
  8
0
 10
1758.1194
 20
1253.5594
 30
0.0000
  0
VERTEX
  8
0
 10
1758.2791
 20
1254.0685
 30
0.0000
  0
VERTEX
  8
0
 10
1758.3248
 20
1254.5310
 30
0.0000
  0
SEQEND
  0
POLYLINE
  6
continous
  8
BYBLOCK
 70
0
 66
1
  0
VERTEX
  8
0
 10
1706.4984
 20
1224.5310
 30
0.0000
  0
VERTEX
  8
0
 10
1706.5563
 20
1224.0111
 30
0.0000
  0
VERTEX
  8
0
 10
1706.7284
 20
1223.5041
 30
0.0000
  0
VERTEX
  8
0
 10
1707.0107
 20
1223.0223
 30
0.0000
  0
VERTEX
  8
0
 10
1707.3960
 20
1222.5776
 30
0.0000
  0
VERTEX
  8
0
 10
1707.9335
 20
1222.1404
 30
0.0000
  0
VERTEX
  8
0
 10
1708.5702
 20
1221.7758
 30
0.0000
  0
VERTEX
  8
0
 10
1709.2867
 20
1221.4950
 30
0.0000
  0
VERTEX
  8
0
 10
1710.0614
 20
1221.3064
 30
0.0000
  0
VERTEX
  8
0
 10
1710.8706
 20
1221.2157
 30
0.0000
  0
VERTEX
  8
0
 10
1711.6897
 20
1221.2258
 30
0.0000
  0
VERTEX
  8
0
 10
1712.4939
 20
1221.3364
 30
0.0000
  0
VERTEX
  8
0
 10
1713.2588
 20
1221.5440
 30
0.0000
  0
VERTEX
  8
0
 10
1713.9610
 20
1221.8424
 30
0.0000
  0
VERTEX
  8
0
 10
1714.5218
 20
1222.1810
 30
0.0000
  0
SEQEND
  0
POLYLINE
  6
continous
  8
BYBLOCK
 70
0
 66
1
  0
VERTEX
  8
0
 10
1707.8750
 20
1226.8810
 30
0.0000
  0
VERTEX
  8
0
 10
1707.3484
 20
1226.4373
 30
0.0000
  0
VERTEX
  8
0
 10
1706.9741
 20
1225.9879
 30
0.0000
  0
VERTEX
  8
0
 10
1706.7038
 20
1225.5027
 30
0.0000
  0
VERTEX
  8
0
 10
1706.5442
 20
1224.9936
 30
0.0000
  0
VERTEX
  8
0
 10
1706.4984
 20
1224.5310
 30
0.0000
  0
SEQEND
  0
POLYLINE
  6
continous
  8
BYBLOCK
 70
0
 66
1
  0
VERTEX
  8
0
 10
1715.8984
 20
1224.5310
 30
0.0000
  0
VERTEX
  8
0
 10
1715.8405
 20
1225.0509
 30
0.0000
  0
VERTEX
  8
0
 10
1715.6684
 20
1225.5580
 30
0.0000
  0
VERTEX
  8
0
 10
1715.3861
 20
1226.0398
 30
0.0000
  0
VERTEX
  8
0
 10
1715.0008
 20
1226.4845
 30
0.0000
  0
VERTEX
  8
0
 10
1714.4633
 20
1226.9217
 30
0.0000
  0
VERTEX
  8
0
 10
1713.8266
 20
1227.2863
 30
0.0000
  0
VERTEX
  8
0
 10
1713.1101
 20
1227.5671
 30
0.0000
  0
VERTEX
  8
0
 10
1712.3354
 20
1227.7557
 30
0.0000
  0
VERTEX
  8
0
 10
1711.5263
 20
1227.8464
 30
0.0000
  0
VERTEX
  8
0
 10
1710.7071
 20
1227.8362
 30
0.0000
  0
VERTEX
  8
0
 10
1709.9029
 20
1227.7257
 30
0.0000
  0
VERTEX
  8
0
 10
1709.1381
 20
1227.5181
 30
0.0000
  0
VERTEX
  8
0
 10
1708.4358
 20
1227.2197
 30
0.0000
  0
VERTEX
  8
0
 10
1707.8750
 20
1226.8810
 30
0.0000
  0
SEQEND
  0
POLYLINE
  6
continous
  8
BYBLOCK
 70
0
 66
1
  0
VERTEX
  8
0
 10
1714.5218
 20
1222.1810
 30
0.0000
  0
VERTEX
  8
0
 10
1715.0484
 20
1222.6248
 30
0.0000
  0
VERTEX
  8
0
 10
1715.4227
 20
1223.0742
 30
0.0000
  0
VERTEX
  8
0
 10
1715.6930
 20
1223.5594
 30
0.0000
  0
VERTEX
  8
0
 10
1715.8527
 20
1224.0685
 30
0.0000
  0
VERTEX
  8
0
 10
1715.8984
 20
1224.5310
 30
0.0000
  0
SEQEND
  0
POLYLINE
  6
continous
  8
BYBLOCK
 70
0
 66
1
  0
VERTEX
  8
0
 10
1664.0720
 20
1194.5310
 30
0.0000
  0
VERTEX
  8
0
 10
1664.1299
 20
1194.0111
 30
0.0000
  0
VERTEX
  8
0
 10
1664.3020
 20
1193.5041
 30
0.0000
  0
VERTEX
  8
0
 10
1664.5843
 20
1193.0223
 30
0.0000
  0
VERTEX
  8
0
 10
1664.9696
 20
1192.5776
 30
0.0000
  0
VERTEX
  8
0
 10
1665.5071
 20
1192.1404
 30
0.0000
  0
VERTEX
  8
0
 10
1666.1438
 20
1191.7758
 30
0.0000
  0
VERTEX
  8
0
 10
1666.8603
 20
1191.4950
 30
0.0000
  0
VERTEX
  8
0
 10
1667.6350
 20
1191.3064
 30
0.0000
  0
VERTEX
  8
0
 10
1668.4441
 20
1191.2157
 30
0.0000
  0
VERTEX
  8
0
 10
1669.2633
 20
1191.2258
 30
0.0000
  0
VERTEX
  8
0
 10
1670.0675
 20
1191.3364
 30
0.0000
  0
VERTEX
  8
0
 10
1670.8323
 20
1191.5440
 30
0.0000
  0
VERTEX
  8
0
 10
1671.5346
 20
1191.8424
 30
0.0000
  0
VERTEX
  8
0
 10
1672.0954
 20
1192.1810
 30
0.0000
  0
SEQEND
  0
POLYLINE
  6
continous
  8
BYBLOCK
 70
0
 66
1
  0
VERTEX
  8
0
 10
1665.4486
 20
1196.8810
 30
0.0000
  0
VERTEX
  8
0
 10
1664.9220
 20
1196.4373
 30
0.0000
  0
VERTEX
  8
0
 10
1664.5477
 20
1195.9879
 30
0.0000
  0
VERTEX
  8
0
 10
1664.2774
 20
1195.5027
 30
0.0000
  0
VERTEX
  8
0
 10
1664.1177
 20
1194.9936
 30
0.0000
  0
VERTEX
  8
0
 10
1664.0720
 20
1194.5310
 30
0.0000
  0
SEQEND
  0
POLYLINE
  6
continous
  8
BYBLOCK
 70
0
 66
1
  0
VERTEX
  8
0
 10
1673.4720
 20
1194.5310
 30
0.0000
  0
VERTEX
  8
0
 10
1673.4141
 20
1195.0509
 30
0.0000
  0
VERTEX
  8
0
 10
1673.2420
 20
1195.5580
 30
0.0000
  0
VERTEX
  8
0
 10
1672.9597
 20
1196.0398
 30
0.0000
  0
VERTEX
  8
0
 10
1672.5744
 20
1196.4845
 30
0.0000
  0
VERTEX
  8
0
 10
1672.0369
 20
1196.9217
 30
0.0000
  0
VERTEX
  8
0
 10
1671.4002
 20
1197.2863
 30
0.0000
  0
VERTEX
  8
0
 10
1670.6837
 20
1197.5671
 30
0.0000
  0
VERTEX
  8
0
 10
1669.9090
 20
1197.7557
 30
0.0000
  0
VERTEX
  8
0
 10
1669.0999
 20
1197.8464
 30
0.0000
  0
VERTEX
  8
0
 10
1668.2807
 20
1197.8362
 30
0.0000
  0
VERTEX
  8
0
 10
1667.4765
 20
1197.7257
 30
0.0000
  0
VERTEX
  8
0
 10
1666.7117
 20
1197.5181
 30
0.0000
  0
VERTEX
  8
0
 10
1666.0094
 20
1197.2197
 30
0.0000
  0
VERTEX
  8
0
 10
1665.4486
 20
1196.8810
 30
0.0000
  0
SEQEND
  0
POLYLINE
  6
continous
  8
BYBLOCK
 70
0
 66
1
  0
VERTEX
  8
0
 10
1672.0954
 20
1192.1810
 30
0.0000
  0
VERTEX
  8
0
 10
1672.6220
 20
1192.6248
 30
0.0000
  0
VERTEX
  8
0
 10
1672.9963
 20
1193.0742
 30
0.0000
  0
VERTEX
  8
0
 10
1673.2666
 20
1193.5594
 30
0.0000
  0
VERTEX
  8
0
 10
1673.4263
 20
1194.0685
 30
0.0000
  0
VERTEX
  8
0
 10
1673.4720
 20
1194.5310
 30
0.0000
  0
SEQEND
  0
POLYLINE
  6
continous
  8
BYBLOCK
 70
0
 66
1
  0
VERTEX
  8
0
 10
1621.6456
 20
1164.5310
 30
0.0000
  0
VERTEX
  8
0
 10
1621.7035
 20
1164.0111
 30
0.0000
  0
VERTEX
  8
0
 10
1621.8756
 20
1163.5041
 30
0.0000
  0
VERTEX
  8
0
 10
1622.1579
 20
1163.0223
 30
0.0000
  0
VERTEX
  8
0
 10
1622.5432
 20
1162.5776
 30
0.0000
  0
VERTEX
  8
0
 10
1623.0807
 20
1162.1404
 30
0.0000
  0
VERTEX
  8
0
 10
1623.7174
 20
1161.7758
 30
0.0000
  0
VERTEX
  8
0
 10
1624.4339
 20
1161.4950
 30
0.0000
  0
VERTEX
  8
0
 10
1625.2086
 20
1161.3064
 30
0.0000
  0
VERTEX
  8
0
 10
1626.0177
 20
1161.2157
 30
0.0000
  0
VERTEX
  8
0
 10
1626.8369
 20
1161.2258
 30
0.0000
  0
VERTEX
  8
0
 10
1627.6411
 20
1161.3364
 30
0.0000
  0
VERTEX
  8
0
 10
1628.4059
 20
1161.5440
 30
0.0000
  0
VERTEX
  8
0
 10
1629.1082
 20
1161.8424
 30
0.0000
  0
VERTEX
  8
0
 10
1629.6690
 20
1162.1810
 30
0.0000
  0
SEQEND
  0
POLYLINE
  6
continous
  8
BYBLOCK
 70
0
 66
1
  0
VERTEX
  8
0
 10
1623.0222
 20
1166.8810
 30
0.0000
  0
VERTEX
  8
0
 10
1622.4956
 20
1166.4373
 30
0.0000
  0
VERTEX
  8
0
 10
1622.1213
 20
1165.9879
 30
0.0000
  0
VERTEX
  8
0
 10
1621.8510
 20
1165.5027
 30
0.0000
  0
VERTEX
  8
0
 10
1621.6913
 20
1164.9936
 30
0.0000
  0
VERTEX
  8
0
 10
1621.6456
 20
1164.5310
 30
0.0000
  0
SEQEND
  0
POLYLINE
  6
continous
  8
BYBLOCK
 70
0
 66
1
  0
VERTEX
  8
0
 10
1631.0456
 20
1164.5310
 30
0.0000
  0
VERTEX
  8
0
 10
1630.9877
 20
1165.0509
 30
0.0000
  0
VERTEX
  8
0
 10
1630.8156
 20
1165.5580
 30
0.0000
  0
VERTEX
  8
0
 10
1630.5333
 20
1166.0398
 30
0.0000
  0
VERTEX
  8
0
 10
1630.1480
 20
1166.4845
 30
0.0000
  0
VERTEX
  8
0
 10
1629.6105
 20
1166.9217
 30
0.0000
  0
VERTEX
  8
0
 10
1628.9738
 20
1167.2863
 30
0.0000
  0
VERTEX
  8
0
 10
1628.2573
 20
1167.5671
 30
0.0000
  0
VERTEX
  8
0
 10
1627.4826
 20
1167.7557
 30
0.0000
  0
VERTEX
  8
0
 10
1626.6735
 20
1167.8464
 30
0.0000
  0
VERTEX
  8
0
 10
1625.8543
 20
1167.8362
 30
0.0000
  0
VERTEX
  8
0
 10
1625.0501
 20
1167.7257
 30
0.0000
  0
VERTEX
  8
0
 10
1624.2853
 20
1167.5181
 30
0.0000
  0
VERTEX
  8
0
 10
1623.5830
 20
1167.2197
 30
0.0000
  0
VERTEX
  8
0
 10
1623.0222
 20
1166.8810
 30
0.0000
  0
SEQEND
  0
POLYLINE
  6
continous
  8
BYBLOCK
 70
0
 66
1
  0
VERTEX
  8
0
 10
1629.6690
 20
1162.1810
 30
0.0000
  0
VERTEX
  8
0
 10
1630.1956
 20
1162.6248
 30
0.0000
  0
VERTEX
  8
0
 10
1630.5699
 20
1163.0742
 30
0.0000
  0
VERTEX
  8
0
 10
1630.8402
 20
1163.5594
 30
0.0000
  0
VERTEX
  8
0
 10
1630.9999
 20
1164.0685
 30
0.0000
  0
VERTEX
  8
0
 10
1631.0456
 20
1164.5310
 30
0.0000
  0
SEQEND
  0
POLYLINE
  6
continous
  8
BYBLOCK
 70
0
 66
1
  0
VERTEX
  8
0
 10
1579.2192
 20
1134.5310
 30
0.0000
  0
VERTEX
  8
0
 10
1579.2771
 20
1134.0111
 30
0.0000
  0
VERTEX
  8
0
 10
1579.4492
 20
1133.5041
 30
0.0000
  0
VERTEX
  8
0
 10
1579.7315
 20
1133.0223
 30
0.0000
  0
VERTEX
  8
0
 10
1580.1168
 20
1132.5776
 30
0.0000
  0
VERTEX
  8
0
 10
1580.6543
 20
1132.1404
 30
0.0000
  0
VERTEX
  8
0
 10
1581.2910
 20
1131.7758
 30
0.0000
  0
VERTEX
  8
0
 10
1582.0075
 20
1131.4950
 30
0.0000
  0
VERTEX
  8
0
 10
1582.7822
 20
1131.3064
 30
0.0000
  0
VERTEX
  8
0
 10
1583.5913
 20
1131.2157
 30
0.0000
  0
VERTEX
  8
0
 10
1584.4105
 20
1131.2258
 30
0.0000
  0
VERTEX
  8
0
 10
1585.2147
 20
1131.3364
 30
0.0000
  0
VERTEX
  8
0
 10
1585.9795
 20
1131.5440
 30
0.0000
  0
VERTEX
  8
0
 10
1586.6818
 20
1131.8424
 30
0.0000
  0
VERTEX
  8
0
 10
1587.2426
 20
1132.1810
 30
0.0000
  0
SEQEND
  0
POLYLINE
  6
continous
  8
BYBLOCK
 70
0
 66
1
  0
VERTEX
  8
0
 10
1580.5958
 20
1136.8810
 30
0.0000
  0
VERTEX
  8
0
 10
1580.0692
 20
1136.4373
 30
0.0000
  0
VERTEX
  8
0
 10
1579.6949
 20
1135.9879
 30
0.0000
  0
VERTEX
  8
0
 10
1579.4246
 20
1135.5027
 30
0.0000
  0
VERTEX
  8
0
 10
1579.2649
 20
1134.9936
 30
0.0000
  0
VERTEX
  8
0
 10
1579.2192
 20
1134.5310
 30
0.0000
  0
SEQEND
  0
POLYLINE
  6
continous
  8
BYBLOCK
 70
0
 66
1
  0
VERTEX
  8
0
 10
1588.6192
 20
1134.5310
 30
0.0000
  0
VERTEX
  8
0
 10
1588.5613
 20
1135.0509
 30
0.0000
  0
VERTEX
  8
0
 10
1588.3892
 20
1135.5580
 30
0.0000
  0
VERTEX
  8
0
 10
1588.1069
 20
1136.0398
 30
0.0000
  0
VERTEX
  8
0
 10
1587.7216
 20
1136.4845
 30
0.0000
  0
VERTEX
  8
0
 10
1587.1841
 20
1136.9217
 30
0.0000
  0
VERTEX
  8
0
 10
1586.5474
 20
1137.2863
 30
0.0000
  0
VERTEX
  8
0
 10
1585.8309
 20
1137.5671
 30
0.0000
  0
VERTEX
  8
0
 10
1585.0562
 20
1137.7557
 30
0.0000
  0
VERTEX
  8
0
 10
1584.2470
 20
1137.8464
 30
0.0000
  0
VERTEX
  8
0
 10
1583.4279
 20
1137.8362
 30
0.0000
  0
VERTEX
  8
0
 10
1582.6237
 20
1137.7257
 30
0.0000
  0
VERTEX
  8
0
 10
1581.8588
 20
1137.5181
 30
0.0000
  0
VERTEX
  8
0
 10
1581.1566
 20
1137.2197
 30
0.0000
  0
VERTEX
  8
0
 10
1580.5958
 20
1136.8810
 30
0.0000
  0
SEQEND
  0
POLYLINE
  6
continous
  8
BYBLOCK
 70
0
 66
1
  0
VERTEX
  8
0
 10
1587.2426
 20
1132.1810
 30
0.0000
  0
VERTEX
  8
0
 10
1587.7692
 20
1132.6248
 30
0.0000
  0
VERTEX
  8
0
 10
1588.1435
 20
1133.0742
 30
0.0000
  0
VERTEX
  8
0
 10
1588.4138
 20
1133.5594
 30
0.0000
  0
VERTEX
  8
0
 10
1588.5734
 20
1134.0685
 30
0.0000
  0
VERTEX
  8
0
 10
1588.6192
 20
1134.5310
 30
0.0000
  0
SEQEND
  0
POLYLINE
  6
continous
  8
BYBLOCK
 70
0
 66
1
  0
VERTEX
  8
0
 10
1536.7928
 20
1104.5310
 30
0.0000
  0
VERTEX
  8
0
 10
1536.8506
 20
1104.0111
 30
0.0000
  0
VERTEX
  8
0
 10
1537.0228
 20
1103.5041
 30
0.0000
  0
VERTEX
  8
0
 10
1537.3051
 20
1103.0223
 30
0.0000
  0
VERTEX
  8
0
 10
1537.6904
 20
1102.5776
 30
0.0000
  0
VERTEX
  8
0
 10
1538.2279
 20
1102.1404
 30
0.0000
  0
VERTEX
  8
0
 10
1538.8646
 20
1101.7758
 30
0.0000
  0
VERTEX
  8
0
 10
1539.5811
 20
1101.4950
 30
0.0000
  0
VERTEX
  8
0
 10
1540.3558
 20
1101.3064
 30
0.0000
  0
VERTEX
  8
0
 10
1541.1649
 20
1101.2157
 30
0.0000
  0
VERTEX
  8
0
 10
1541.9841
 20
1101.2258
 30
0.0000
  0
VERTEX
  8
0
 10
1542.7883
 20
1101.3364
 30
0.0000
  0
VERTEX
  8
0
 10
1543.5531
 20
1101.5440
 30
0.0000
  0
VERTEX
  8
0
 10
1544.2554
 20
1101.8424
 30
0.0000
  0
VERTEX
  8
0
 10
1544.8162
 20
1102.1810
 30
0.0000
  0
SEQEND
  0
POLYLINE
  6
continous
  8
BYBLOCK
 70
0
 66
1
  0
VERTEX
  8
0
 10
1538.1694
 20
1106.8810
 30
0.0000
  0
VERTEX
  8
0
 10
1537.6428
 20
1106.4373
 30
0.0000
  0
VERTEX
  8
0
 10
1537.2685
 20
1105.9879
 30
0.0000
  0
VERTEX
  8
0
 10
1536.9982
 20
1105.5027
 30
0.0000
  0
VERTEX
  8
0
 10
1536.8385
 20
1104.9936
 30
0.0000
  0
VERTEX
  8
0
 10
1536.7928
 20
1104.5310
 30
0.0000
  0
SEQEND
  0
POLYLINE
  6
continous
  8
BYBLOCK
 70
0
 66
1
  0
VERTEX
  8
0
 10
1546.1928
 20
1104.5310
 30
0.0000
  0
VERTEX
  8
0
 10
1546.1349
 20
1105.0509
 30
0.0000
  0
VERTEX
  8
0
 10
1545.9627
 20
1105.5580
 30
0.0000
  0
VERTEX
  8
0
 10
1545.6805
 20
1106.0398
 30
0.0000
  0
VERTEX
  8
0
 10
1545.2952
 20
1106.4845
 30
0.0000
  0
VERTEX
  8
0
 10
1544.7577
 20
1106.9217
 30
0.0000
  0
VERTEX
  8
0
 10
1544.1210
 20
1107.2863
 30
0.0000
  0
VERTEX
  8
0
 10
1543.4044
 20
1107.5671
 30
0.0000
  0
VERTEX
  8
0
 10
1542.6298
 20
1107.7557
 30
0.0000
  0
VERTEX
  8
0
 10
1541.8206
 20
1107.8464
 30
0.0000
  0
VERTEX
  8
0
 10
1541.0015
 20
1107.8362
 30
0.0000
  0
VERTEX
  8
0
 10
1540.1973
 20
1107.7257
 30
0.0000
  0
VERTEX
  8
0
 10
1539.4324
 20
1107.5181
 30
0.0000
  0
VERTEX
  8
0
 10
1538.7302
 20
1107.2197
 30
0.0000
  0
VERTEX
  8
0
 10
1538.1694
 20
1106.8810
 30
0.0000
  0
SEQEND
  0
POLYLINE
  6
continous
  8
BYBLOCK
 70
0
 66
1
  0
VERTEX
  8
0
 10
1544.8162
 20
1102.1810
 30
0.0000
  0
VERTEX
  8
0
 10
1545.3428
 20
1102.6248
 30
0.0000
  0
VERTEX
  8
0
 10
1545.7171
 20
1103.0742
 30
0.0000
  0
VERTEX
  8
0
 10
1545.9874
 20
1103.5594
 30
0.0000
  0
VERTEX
  8
0
 10
1546.1470
 20
1104.0685
 30
0.0000
  0
VERTEX
  8
0
 10
1546.1928
 20
1104.5310
 30
0.0000
  0
SEQEND
  0
POLYLINE
  6
continous
  8
BYBLOCK
 70
0
 66
1
  0
VERTEX
  8
0
 10
1494.3664
 20
1074.5310
 30
0.0000
  0
VERTEX
  8
0
 10
1494.4242
 20
1074.0111
 30
0.0000
  0
VERTEX
  8
0
 10
1494.5964
 20
1073.5041
 30
0.0000
  0
VERTEX
  8
0
 10
1494.8786
 20
1073.0223
 30
0.0000
  0
VERTEX
  8
0
 10
1495.2640
 20
1072.5776
 30
0.0000
  0
VERTEX
  8
0
 10
1495.8015
 20
1072.1404
 30
0.0000
  0
VERTEX
  8
0
 10
1496.4382
 20
1071.7758
 30
0.0000
  0
VERTEX
  8
0
 10
1497.1547
 20
1071.4950
 30
0.0000
  0
VERTEX
  8
0
 10
1497.9293
 20
1071.3064
 30
0.0000
  0
VERTEX
  8
0
 10
1498.7385
 20
1071.2157
 30
0.0000
  0
VERTEX
  8
0
 10
1499.5577
 20
1071.2258
 30
0.0000
  0
VERTEX
  8
0
 10
1500.3619
 20
1071.3364
 30
0.0000
  0
VERTEX
  8
0
 10
1501.1267
 20
1071.5440
 30
0.0000
  0
VERTEX
  8
0
 10
1501.8290
 20
1071.8424
 30
0.0000
  0
VERTEX
  8
0
 10
1502.3898
 20
1072.1810
 30
0.0000
  0
SEQEND
  0
POLYLINE
  6
continous
  8
BYBLOCK
 70
0
 66
1
  0
VERTEX
  8
0
 10
1495.7430
 20
1076.8810
 30
0.0000
  0
VERTEX
  8
0
 10
1495.2164
 20
1076.4373
 30
0.0000
  0
VERTEX
  8
0
 10
1494.8420
 20
1075.9879
 30
0.0000
  0
VERTEX
  8
0
 10
1494.5717
 20
1075.5027
 30
0.0000
  0
VERTEX
  8
0
 10
1494.4121
 20
1074.9936
 30
0.0000
  0
VERTEX
  8
0
 10
1494.3664
 20
1074.5310
 30
0.0000
  0
SEQEND
  0
POLYLINE
  6
continous
  8
BYBLOCK
 70
0
 66
1
  0
VERTEX
  8
0
 10
1503.7664
 20
1074.5310
 30
0.0000
  0
VERTEX
  8
0
 10
1503.7085
 20
1075.0509
 30
0.0000
  0
VERTEX
  8
0
 10
1503.5363
 20
1075.5580
 30
0.0000
  0
VERTEX
  8
0
 10
1503.2541
 20
1076.0398
 30
0.0000
  0
VERTEX
  8
0
 10
1502.8688
 20
1076.4845
 30
0.0000
  0
VERTEX
  8
0
 10
1502.3313
 20
1076.9217
 30
0.0000
  0
VERTEX
  8
0
 10
1501.6946
 20
1077.2863
 30
0.0000
  0
VERTEX
  8
0
 10
1500.9780
 20
1077.5671
 30
0.0000
  0
VERTEX
  8
0
 10
1500.2034
 20
1077.7557
 30
0.0000
  0
VERTEX
  8
0
 10
1499.3942
 20
1077.8464
 30
0.0000
  0
VERTEX
  8
0
 10
1498.5751
 20
1077.8362
 30
0.0000
  0
VERTEX
  8
0
 10
1497.7709
 20
1077.7257
 30
0.0000
  0
VERTEX
  8
0
 10
1497.0060
 20
1077.5181
 30
0.0000
  0
VERTEX
  8
0
 10
1496.3038
 20
1077.2197
 30
0.0000
  0
VERTEX
  8
0
 10
1495.7430
 20
1076.8810
 30
0.0000
  0
SEQEND
  0
POLYLINE
  6
continous
  8
BYBLOCK
 70
0
 66
1
  0
VERTEX
  8
0
 10
1502.3898
 20
1072.1810
 30
0.0000
  0
VERTEX
  8
0
 10
1502.9164
 20
1072.6248
 30
0.0000
  0
VERTEX
  8
0
 10
1503.2907
 20
1073.0742
 30
0.0000
  0
VERTEX
  8
0
 10
1503.5610
 20
1073.5594
 30
0.0000
  0
VERTEX
  8
0
 10
1503.7206
 20
1074.0685
 30
0.0000
  0
VERTEX
  8
0
 10
1503.7664
 20
1074.5310
 30
0.0000
  0
SEQEND
  0
POLYLINE
  6
continous
  8
BYBLOCK
 70
0
 66
1
  0
VERTEX
  8
0
 10
1451.9400
 20
1044.5310
 30
0.0000
  0
VERTEX
  8
0
 10
1451.9978
 20
1044.0111
 30
0.0000
  0
VERTEX
  8
0
 10
1452.1700
 20
1043.5041
 30
0.0000
  0
VERTEX
  8
0
 10
1452.4522
 20
1043.0223
 30
0.0000
  0
VERTEX
  8
0
 10
1452.8376
 20
1042.5776
 30
0.0000
  0
VERTEX
  8
0
 10
1453.3751
 20
1042.1404
 30
0.0000
  0
VERTEX
  8
0
 10
1454.0118
 20
1041.7758
 30
0.0000
  0
VERTEX
  8
0
 10
1454.7283
 20
1041.4950
 30
0.0000
  0
VERTEX
  8
0
 10
1455.5029
 20
1041.3064
 30
0.0000
  0
VERTEX
  8
0
 10
1456.3121
 20
1041.2157
 30
0.0000
  0
VERTEX
  8
0
 10
1457.1313
 20
1041.2258
 30
0.0000
  0
VERTEX
  8
0
 10
1457.9355
 20
1041.3364
 30
0.0000
  0
VERTEX
  8
0
 10
1458.7003
 20
1041.5440
 30
0.0000
  0
VERTEX
  8
0
 10
1459.4026
 20
1041.8424
 30
0.0000
  0
VERTEX
  8
0
 10
1459.9634
 20
1042.1810
 30
0.0000
  0
SEQEND
  0
POLYLINE
  6
continous
  8
BYBLOCK
 70
0
 66
1
  0
VERTEX
  8
0
 10
1453.3166
 20
1046.8810
 30
0.0000
  0
VERTEX
  8
0
 10
1452.7900
 20
1046.4373
 30
0.0000
  0
VERTEX
  8
0
 10
1452.4156
 20
1045.9879
 30
0.0000
  0
VERTEX
  8
0
 10
1452.1453
 20
1045.5027
 30
0.0000
  0
VERTEX
  8
0
 10
1451.9857
 20
1044.9936
 30
0.0000
  0
VERTEX
  8
0
 10
1451.9400
 20
1044.5310
 30
0.0000
  0
SEQEND
  0
POLYLINE
  6
continous
  8
BYBLOCK
 70
0
 66
1
  0
VERTEX
  8
0
 10
1461.3400
 20
1044.5310
 30
0.0000
  0
VERTEX
  8
0
 10
1461.2821
 20
1045.0509
 30
0.0000
  0
VERTEX
  8
0
 10
1461.1099
 20
1045.5580
 30
0.0000
  0
VERTEX
  8
0
 10
1460.8277
 20
1046.0398
 30
0.0000
  0
VERTEX
  8
0
 10
1460.4423
 20
1046.4845
 30
0.0000
  0
VERTEX
  8
0
 10
1459.9049
 20
1046.9217
 30
0.0000
  0
VERTEX
  8
0
 10
1459.2682
 20
1047.2863
 30
0.0000
  0
VERTEX
  8
0
 10
1458.5516
 20
1047.5671
 30
0.0000
  0
VERTEX
  8
0
 10
1457.7770
 20
1047.7557
 30
0.0000
  0
VERTEX
  8
0
 10
1456.9678
 20
1047.8464
 30
0.0000
  0
VERTEX
  8
0
 10
1456.1487
 20
1047.8362
 30
0.0000
  0
VERTEX
  8
0
 10
1455.3445
 20
1047.7257
 30
0.0000
  0
VERTEX
  8
0
 10
1454.5796
 20
1047.5181
 30
0.0000
  0
VERTEX
  8
0
 10
1453.8774
 20
1047.2197
 30
0.0000
  0
VERTEX
  8
0
 10
1453.3166
 20
1046.8810
 30
0.0000
  0
SEQEND
  0
POLYLINE
  6
continous
  8
BYBLOCK
 70
0
 66
1
  0
VERTEX
  8
0
 10
1459.9634
 20
1042.1810
 30
0.0000
  0
VERTEX
  8
0
 10
1460.4900
 20
1042.6248
 30
0.0000
  0
VERTEX
  8
0
 10
1460.8643
 20
1043.0742
 30
0.0000
  0
VERTEX
  8
0
 10
1461.1346
 20
1043.5594
 30
0.0000
  0
VERTEX
  8
0
 10
1461.2942
 20
1044.0685
 30
0.0000
  0
VERTEX
  8
0
 10
1461.3400
 20
1044.5310
 30
0.0000
  0
SEQEND
  0
POLYLINE
  6
continous
  8
BYBLOCK
 70
0
 66
1
  0
VERTEX
  8
0
 10
1409.5136
 20
1014.5310
 30
0.0000
  0
VERTEX
  8
0
 10
1409.5714
 20
1014.0111
 30
0.0000
  0
VERTEX
  8
0
 10
1409.7436
 20
1013.5041
 30
0.0000
  0
VERTEX
  8
0
 10
1410.0258
 20
1013.0223
 30
0.0000
  0
VERTEX
  8
0
 10
1410.4112
 20
1012.5776
 30
0.0000
  0
VERTEX
  8
0
 10
1410.9487
 20
1012.1404
 30
0.0000
  0
VERTEX
  8
0
 10
1411.5854
 20
1011.7758
 30
0.0000
  0
VERTEX
  8
0
 10
1412.3019
 20
1011.4950
 30
0.0000
  0
VERTEX
  8
0
 10
1413.0765
 20
1011.3064
 30
0.0000
  0
VERTEX
  8
0
 10
1413.8857
 20
1011.2157
 30
0.0000
  0
VERTEX
  8
0
 10
1414.7048
 20
1011.2258
 30
0.0000
  0
VERTEX
  8
0
 10
1415.5091
 20
1011.3364
 30
0.0000
  0
VERTEX
  8
0
 10
1416.2739
 20
1011.5440
 30
0.0000
  0
VERTEX
  8
0
 10
1416.9762
 20
1011.8424
 30
0.0000
  0
VERTEX
  8
0
 10
1417.5370
 20
1012.1810
 30
0.0000
  0
SEQEND
  0
POLYLINE
  6
continous
  8
BYBLOCK
 70
0
 66
1
  0
VERTEX
  8
0
 10
1410.8902
 20
1016.8810
 30
0.0000
  0
VERTEX
  8
0
 10
1410.3635
 20
1016.4373
 30
0.0000
  0
VERTEX
  8
0
 10
1409.9892
 20
1015.9879
 30
0.0000
  0
VERTEX
  8
0
 10
1409.7189
 20
1015.5027
 30
0.0000
  0
VERTEX
  8
0
 10
1409.5593
 20
1014.9936
 30
0.0000
  0
VERTEX
  8
0
 10
1409.5136
 20
1014.5310
 30
0.0000
  0
SEQEND
  0
POLYLINE
  6
continous
  8
BYBLOCK
 70
0
 66
1
  0
VERTEX
  8
0
 10
1418.9136
 20
1014.5310
 30
0.0000
  0
VERTEX
  8
0
 10
1418.8557
 20
1015.0509
 30
0.0000
  0
VERTEX
  8
0
 10
1418.6835
 20
1015.5580
 30
0.0000
  0
VERTEX
  8
0
 10
1418.4013
 20
1016.0398
 30
0.0000
  0
VERTEX
  8
0
 10
1418.0159
 20
1016.4845
 30
0.0000
  0
VERTEX
  8
0
 10
1417.4785
 20
1016.9217
 30
0.0000
  0
VERTEX
  8
0
 10
1416.8418
 20
1017.2863
 30
0.0000
  0
VERTEX
  8
0
 10
1416.1252
 20
1017.5671
 30
0.0000
  0
VERTEX
  8
0
 10
1415.3506
 20
1017.7557
 30
0.0000
  0
VERTEX
  8
0
 10
1414.5414
 20
1017.8464
 30
0.0000
  0
VERTEX
  8
0
 10
1413.7223
 20
1017.8362
 30
0.0000
  0
VERTEX
  8
0
 10
1412.9181
 20
1017.7257
 30
0.0000
  0
VERTEX
  8
0
 10
1412.1532
 20
1017.5181
 30
0.0000
  0
VERTEX
  8
0
 10
1411.4510
 20
1017.2197
 30
0.0000
  0
VERTEX
  8
0
 10
1410.8902
 20
1016.8810
 30
0.0000
  0
SEQEND
  0
POLYLINE
  6
continous
  8
BYBLOCK
 70
0
 66
1
  0
VERTEX
  8
0
 10
1417.5370
 20
1012.1810
 30
0.0000
  0
VERTEX
  8
0
 10
1418.0636
 20
1012.6248
 30
0.0000
  0
VERTEX
  8
0
 10
1418.4379
 20
1013.0742
 30
0.0000
  0
VERTEX
  8
0
 10
1418.7082
 20
1013.5594
 30
0.0000
  0
VERTEX
  8
0
 10
1418.8678
 20
1014.0685
 30
0.0000
  0
VERTEX
  8
0
 10
1418.9136
 20
1014.5310
 30
0.0000
  0
SEQEND
  0
POLYLINE
  6
continous
  8
BYBLOCK
 70
0
 66
1
  0
VERTEX
  8
0
 10
1367.0872
 20
984.5310
 30
0.0000
  0
VERTEX
  8
0
 10
1367.1450
 20
984.0111
 30
0.0000
  0
VERTEX
  8
0
 10
1367.3172
 20
983.5041
 30
0.0000
  0
VERTEX
  8
0
 10
1367.5994
 20
983.0223
 30
0.0000
  0
VERTEX
  8
0
 10
1367.9848
 20
982.5776
 30
0.0000
  0
VERTEX
  8
0
 10
1368.5223
 20
982.1404
 30
0.0000
  0
VERTEX
  8
0
 10
1369.1589
 20
981.7758
 30
0.0000
  0
VERTEX
  8
0
 10
1369.8755
 20
981.4950
 30
0.0000
  0
VERTEX
  8
0
 10
1370.6501
 20
981.3064
 30
0.0000
  0
VERTEX
  8
0
 10
1371.4593
 20
981.2157
 30
0.0000
  0
VERTEX
  8
0
 10
1372.2784
 20
981.2258
 30
0.0000
  0
VERTEX
  8
0
 10
1373.0827
 20
981.3364
 30
0.0000
  0
VERTEX
  8
0
 10
1373.8475
 20
981.5440
 30
0.0000
  0
VERTEX
  8
0
 10
1374.5497
 20
981.8424
 30
0.0000
  0
VERTEX
  8
0
 10
1375.1106
 20
982.1810
 30
0.0000
  0
SEQEND
  0
POLYLINE
  6
continous
  8
BYBLOCK
 70
0
 66
1
  0
VERTEX
  8
0
 10
1368.4638
 20
986.8810
 30
0.0000
  0
VERTEX
  8
0
 10
1367.9371
 20
986.4373
 30
0.0000
  0
VERTEX
  8
0
 10
1367.5628
 20
985.9879
 30
0.0000
  0
VERTEX
  8
0
 10
1367.2925
 20
985.5027
 30
0.0000
  0
VERTEX
  8
0
 10
1367.1329
 20
984.9936
 30
0.0000
  0
VERTEX
  8
0
 10
1367.0872
 20
984.5310
 30
0.0000
  0
SEQEND
  0
POLYLINE
  6
continous
  8
BYBLOCK
 70
0
 66
1
  0
VERTEX
  8
0
 10
1376.4872
 20
984.5310
 30
0.0000
  0
VERTEX
  8
0
 10
1376.4293
 20
985.0509
 30
0.0000
  0
VERTEX
  8
0
 10
1376.2571
 20
985.5580
 30
0.0000
  0
VERTEX
  8
0
 10
1375.9749
 20
986.0398
 30
0.0000
  0
VERTEX
  8
0
 10
1375.5895
 20
986.4845
 30
0.0000
  0
VERTEX
  8
0
 10
1375.0520
 20
986.9217
 30
0.0000
  0
VERTEX
  8
0
 10
1374.4154
 20
987.2863
 30
0.0000
  0
VERTEX
  8
0
 10
1373.6988
 20
987.5671
 30
0.0000
  0
VERTEX
  8
0
 10
1372.9242
 20
987.7557
 30
0.0000
  0
VERTEX
  8
0
 10
1372.1150
 20
987.8464
 30
0.0000
  0
VERTEX
  8
0
 10
1371.2959
 20
987.8362
 30
0.0000
  0
VERTEX
  8
0
 10
1370.4917
 20
987.7257
 30
0.0000
  0
VERTEX
  8
0
 10
1369.7268
 20
987.5181
 30
0.0000
  0
VERTEX
  8
0
 10
1369.0246
 20
987.2197
 30
0.0000
  0
VERTEX
  8
0
 10
1368.4638
 20
986.8810
 30
0.0000
  0
SEQEND
  0
POLYLINE
  6
continous
  8
BYBLOCK
 70
0
 66
1
  0
VERTEX
  8
0
 10
1375.1106
 20
982.1810
 30
0.0000
  0
VERTEX
  8
0
 10
1375.6372
 20
982.6248
 30
0.0000
  0
VERTEX
  8
0
 10
1376.0115
 20
983.0742
 30
0.0000
  0
VERTEX
  8
0
 10
1376.2818
 20
983.5594
 30
0.0000
  0
VERTEX
  8
0
 10
1376.4414
 20
984.0685
 30
0.0000
  0
VERTEX
  8
0
 10
1376.4872
 20
984.5310
 30
0.0000
  0
SEQEND
  0
POLYLINE
  6
continous
  8
BYBLOCK
 70
0
 66
1
  0
VERTEX
  8
0
 10
1324.6607
 20
954.5310
 30
0.0000
  0
VERTEX
  8
0
 10
1324.7186
 20
954.0111
 30
0.0000
  0
VERTEX
  8
0
 10
1324.8908
 20
953.5041
 30
0.0000
  0
VERTEX
  8
0
 10
1325.1730
 20
953.0223
 30
0.0000
  0
VERTEX
  8
0
 10
1325.5584
 20
952.5776
 30
0.0000
  0
VERTEX
  8
0
 10
1326.0959
 20
952.1404
 30
0.0000
  0
VERTEX
  8
0
 10
1326.7325
 20
951.7758
 30
0.0000
  0
VERTEX
  8
0
 10
1327.4491
 20
951.4950
 30
0.0000
  0
VERTEX
  8
0
 10
1328.2237
 20
951.3064
 30
0.0000
  0
VERTEX
  8
0
 10
1329.0329
 20
951.2157
 30
0.0000
  0
VERTEX
  8
0
 10
1329.8520
 20
951.2258
 30
0.0000
  0
VERTEX
  8
0
 10
1330.6562
 20
951.3364
 30
0.0000
  0
VERTEX
  8
0
 10
1331.4211
 20
951.5440
 30
0.0000
  0
VERTEX
  8
0
 10
1332.1233
 20
951.8424
 30
0.0000
  0
VERTEX
  8
0
 10
1332.6842
 20
952.1810
 30
0.0000
  0
SEQEND
  0
POLYLINE
  6
continous
  8
BYBLOCK
 70
0
 66
1
  0
VERTEX
  8
0
 10
1326.0373
 20
956.8810
 30
0.0000
  0
VERTEX
  8
0
 10
1325.5107
 20
956.4373
 30
0.0000
  0
VERTEX
  8
0
 10
1325.1364
 20
955.9879
 30
0.0000
  0
VERTEX
  8
0
 10
1324.8661
 20
955.5027
 30
0.0000
  0
VERTEX
  8
0
 10
1324.7065
 20
954.9936
 30
0.0000
  0
VERTEX
  8
0
 10
1324.6607
 20
954.5310
 30
0.0000
  0
SEQEND
  0
POLYLINE
  6
continous
  8
BYBLOCK
 70
0
 66
1
  0
VERTEX
  8
0
 10
1334.0607
 20
954.5310
 30
0.0000
  0
VERTEX
  8
0
 10
1334.0029
 20
955.0509
 30
0.0000
  0
VERTEX
  8
0
 10
1333.8307
 20
955.5580
 30
0.0000
  0
VERTEX
  8
0
 10
1333.5485
 20
956.0398
 30
0.0000
  0
VERTEX
  8
0
 10
1333.1631
 20
956.4845
 30
0.0000
  0
VERTEX
  8
0
 10
1332.6256
 20
956.9217
 30
0.0000
  0
VERTEX
  8
0
 10
1331.9890
 20
957.2863
 30
0.0000
  0
VERTEX
  8
0
 10
1331.2724
 20
957.5671
 30
0.0000
  0
VERTEX
  8
0
 10
1330.4978
 20
957.7557
 30
0.0000
  0
VERTEX
  8
0
 10
1329.6886
 20
957.8464
 30
0.0000
  0
VERTEX
  8
0
 10
1328.8695
 20
957.8362
 30
0.0000
  0
VERTEX
  8
0
 10
1328.0653
 20
957.7257
 30
0.0000
  0
VERTEX
  8
0
 10
1327.3004
 20
957.5181
 30
0.0000
  0
VERTEX
  8
0
 10
1326.5982
 20
957.2197
 30
0.0000
  0
VERTEX
  8
0
 10
1326.0373
 20
956.8810
 30
0.0000
  0
SEQEND
  0
POLYLINE
  6
continous
  8
BYBLOCK
 70
0
 66
1
  0
VERTEX
  8
0
 10
1332.6842
 20
952.1810
 30
0.0000
  0
VERTEX
  8
0
 10
1333.2108
 20
952.6248
 30
0.0000
  0
VERTEX
  8
0
 10
1333.5851
 20
953.0742
 30
0.0000
  0
VERTEX
  8
0
 10
1333.8554
 20
953.5594
 30
0.0000
  0
VERTEX
  8
0
 10
1334.0150
 20
954.0685
 30
0.0000
  0
VERTEX
  8
0
 10
1334.0607
 20
954.5310
 30
0.0000
  0
SEQEND
  0
POLYLINE
  6
continous
  8
BYBLOCK
 70
0
 66
1
  0
VERTEX
  8
0
 10
1282.2343
 20
924.5310
 30
0.0000
  0
VERTEX
  8
0
 10
1282.2922
 20
924.0111
 30
0.0000
  0
VERTEX
  8
0
 10
1282.4644
 20
923.5041
 30
0.0000
  0
VERTEX
  8
0
 10
1282.7466
 20
923.0223
 30
0.0000
  0
VERTEX
  8
0
 10
1283.1320
 20
922.5776
 30
0.0000
  0
VERTEX
  8
0
 10
1283.6694
 20
922.1404
 30
0.0000
  0
VERTEX
  8
0
 10
1284.3061
 20
921.7758
 30
0.0000
  0
VERTEX
  8
0
 10
1285.0227
 20
921.4950
 30
0.0000
  0
VERTEX
  8
0
 10
1285.7973
 20
921.3064
 30
0.0000
  0
VERTEX
  8
0
 10
1286.6065
 20
921.2157
 30
0.0000
  0
VERTEX
  8
0
 10
1287.4256
 20
921.2258
 30
0.0000
  0
VERTEX
  8
0
 10
1288.2298
 20
921.3364
 30
0.0000
  0
VERTEX
  8
0
 10
1288.9947
 20
921.5440
 30
0.0000
  0
VERTEX
  8
0
 10
1289.6969
 20
921.8424
 30
0.0000
  0
VERTEX
  8
0
 10
1290.2577
 20
922.1810
 30
0.0000
  0
SEQEND
  0
POLYLINE
  6
continous
  8
BYBLOCK
 70
0
 66
1
  0
VERTEX
  8
0
 10
1283.6109
 20
926.8810
 30
0.0000
  0
VERTEX
  8
0
 10
1283.0843
 20
926.4373
 30
0.0000
  0
VERTEX
  8
0
 10
1282.7100
 20
925.9879
 30
0.0000
  0
VERTEX
  8
0
 10
1282.4397
 20
925.5027
 30
0.0000
  0
VERTEX
  8
0
 10
1282.2801
 20
924.9936
 30
0.0000
  0
VERTEX
  8
0
 10
1282.2343
 20
924.5310
 30
0.0000
  0
SEQEND
  0
POLYLINE
  6
continous
  8
BYBLOCK
 70
0
 66
1
  0
VERTEX
  8
0
 10
1291.6343
 20
924.5310
 30
0.0000
  0
VERTEX
  8
0
 10
1291.5765
 20
925.0509
 30
0.0000
  0
VERTEX
  8
0
 10
1291.4043
 20
925.5580
 30
0.0000
  0
VERTEX
  8
0
 10
1291.1221
 20
926.0398
 30
0.0000
  0
VERTEX
  8
0
 10
1290.7367
 20
926.4845
 30
0.0000
  0
VERTEX
  8
0
 10
1290.1992
 20
926.9217
 30
0.0000
  0
VERTEX
  8
0
 10
1289.5625
 20
927.2863
 30
0.0000
  0
VERTEX
  8
0
 10
1288.8460
 20
927.5671
 30
0.0000
  0
VERTEX
  8
0
 10
1288.0714
 20
927.7557
 30
0.0000
  0
VERTEX
  8
0
 10
1287.2622
 20
927.8464
 30
0.0000
  0
VERTEX
  8
0
 10
1286.4431
 20
927.8362
 30
0.0000
  0
VERTEX
  8
0
 10
1285.6388
 20
927.7257
 30
0.0000
  0
VERTEX
  8
0
 10
1284.8740
 20
927.5181
 30
0.0000
  0
VERTEX
  8
0
 10
1284.1718
 20
927.2197
 30
0.0000
  0
VERTEX
  8
0
 10
1283.6109
 20
926.8810
 30
0.0000
  0
SEQEND
  0
POLYLINE
  6
continous
  8
BYBLOCK
 70
0
 66
1
  0
VERTEX
  8
0
 10
1290.2577
 20
922.1810
 30
0.0000
  0
VERTEX
  8
0
 10
1290.7844
 20
922.6248
 30
0.0000
  0
VERTEX
  8
0
 10
1291.1587
 20
923.0742
 30
0.0000
  0
VERTEX
  8
0
 10
1291.4290
 20
923.5594
 30
0.0000
  0
VERTEX
  8
0
 10
1291.5886
 20
924.0685
 30
0.0000
  0
VERTEX
  8
0
 10
1291.6343
 20
924.5310
 30
0.0000
  0
SEQEND
  0
POLYLINE
  6
continous
  8
BYBLOCK
 70
0
 66
1
  0
VERTEX
  8
0
 10
1239.8079
 20
894.5310
 30
0.0000
  0
VERTEX
  8
0
 10
1239.8658
 20
894.0111
 30
0.0000
  0
VERTEX
  8
0
 10
1240.0380
 20
893.5041
 30
0.0000
  0
VERTEX
  8
0
 10
1240.3202
 20
893.0223
 30
0.0000
  0
VERTEX
  8
0
 10
1240.7056
 20
892.5776
 30
0.0000
  0
VERTEX
  8
0
 10
1241.2430
 20
892.1404
 30
0.0000
  0
VERTEX
  8
0
 10
1241.8797
 20
891.7758
 30
0.0000
  0
VERTEX
  8
0
 10
1242.5963
 20
891.4950
 30
0.0000
  0
VERTEX
  8
0
 10
1243.3709
 20
891.3064
 30
0.0000
  0
VERTEX
  8
0
 10
1244.1801
 20
891.2157
 30
0.0000
  0
VERTEX
  8
0
 10
1244.9992
 20
891.2258
 30
0.0000
  0
VERTEX
  8
0
 10
1245.8034
 20
891.3364
 30
0.0000
  0
VERTEX
  8
0
 10
1246.5683
 20
891.5440
 30
0.0000
  0
VERTEX
  8
0
 10
1247.2705
 20
891.8424
 30
0.0000
  0
VERTEX
  8
0
 10
1247.8313
 20
892.1810
 30
0.0000
  0
SEQEND
  0
POLYLINE
  6
continous
  8
BYBLOCK
 70
0
 66
1
  0
VERTEX
  8
0
 10
1241.1845
 20
896.8810
 30
0.0000
  0
VERTEX
  8
0
 10
1240.6579
 20
896.4373
 30
0.0000
  0
VERTEX
  8
0
 10
1240.2836
 20
895.9879
 30
0.0000
  0
VERTEX
  8
0
 10
1240.0133
 20
895.5027
 30
0.0000
  0
VERTEX
  8
0
 10
1239.8537
 20
894.9936
 30
0.0000
  0
VERTEX
  8
0
 10
1239.8079
 20
894.5310
 30
0.0000
  0
SEQEND
  0
POLYLINE
  6
continous
  8
BYBLOCK
 70
0
 66
1
  0
VERTEX
  8
0
 10
1249.2079
 20
894.5310
 30
0.0000
  0
VERTEX
  8
0
 10
1249.1501
 20
895.0509
 30
0.0000
  0
VERTEX
  8
0
 10
1248.9779
 20
895.5580
 30
0.0000
  0
VERTEX
  8
0
 10
1248.6957
 20
896.0398
 30
0.0000
  0
VERTEX
  8
0
 10
1248.3103
 20
896.4845
 30
0.0000
  0
VERTEX
  8
0
 10
1247.7728
 20
896.9217
 30
0.0000
  0
VERTEX
  8
0
 10
1247.1361
 20
897.2863
 30
0.0000
  0
VERTEX
  8
0
 10
1246.4196
 20
897.5671
 30
0.0000
  0
VERTEX
  8
0
 10
1245.6450
 20
897.7557
 30
0.0000
  0
VERTEX
  8
0
 10
1244.8358
 20
897.8464
 30
0.0000
  0
VERTEX
  8
0
 10
1244.0167
 20
897.8362
 30
0.0000
  0
VERTEX
  8
0
 10
1243.2124
 20
897.7257
 30
0.0000
  0
VERTEX
  8
0
 10
1242.4476
 20
897.5181
 30
0.0000
  0
VERTEX
  8
0
 10
1241.7453
 20
897.2197
 30
0.0000
  0
VERTEX
  8
0
 10
1241.1845
 20
896.8810
 30
0.0000
  0
SEQEND
  0
POLYLINE
  6
continous
  8
BYBLOCK
 70
0
 66
1
  0
VERTEX
  8
0
 10
1247.8313
 20
892.1810
 30
0.0000
  0
VERTEX
  8
0
 10
1248.3579
 20
892.6248
 30
0.0000
  0
VERTEX
  8
0
 10
1248.7323
 20
893.0742
 30
0.0000
  0
VERTEX
  8
0
 10
1249.0026
 20
893.5594
 30
0.0000
  0
VERTEX
  8
0
 10
1249.1622
 20
894.0685
 30
0.0000
  0
VERTEX
  8
0
 10
1249.2079
 20
894.5310
 30
0.0000
  0
SEQEND
  0
POLYLINE
  6
continous
  8
BYBLOCK
 70
0
 66
1
  0
VERTEX
  8
0
 10
1197.3815
 20
864.5310
 30
0.0000
  0
VERTEX
  8
0
 10
1197.4394
 20
864.0111
 30
0.0000
  0
VERTEX
  8
0
 10
1197.6116
 20
863.5041
 30
0.0000
  0
VERTEX
  8
0
 10
1197.8938
 20
863.0223
 30
0.0000
  0
VERTEX
  8
0
 10
1198.2791
 20
862.5776
 30
0.0000
  0
VERTEX
  8
0
 10
1198.8166
 20
862.1404
 30
0.0000
  0
VERTEX
  8
0
 10
1199.4533
 20
861.7758
 30
0.0000
  0
VERTEX
  8
0
 10
1200.1699
 20
861.4950
 30
0.0000
  0
VERTEX
  8
0
 10
1200.9445
 20
861.3064
 30
0.0000
  0
VERTEX
  8
0
 10
1201.7537
 20
861.2157
 30
0.0000
  0
VERTEX
  8
0
 10
1202.5728
 20
861.2258
 30
0.0000
  0
VERTEX
  8
0
 10
1203.3770
 20
861.3364
 30
0.0000
  0
VERTEX
  8
0
 10
1204.1419
 20
861.5440
 30
0.0000
  0
VERTEX
  8
0
 10
1204.8441
 20
861.8424
 30
0.0000
  0
VERTEX
  8
0
 10
1205.4049
 20
862.1810
 30
0.0000
  0
SEQEND
  0
POLYLINE
  6
continous
  8
BYBLOCK
 70
0
 66
1
  0
VERTEX
  8
0
 10
1198.7581
 20
866.8810
 30
0.0000
  0
VERTEX
  8
0
 10
1198.2315
 20
866.4373
 30
0.0000
  0
VERTEX
  8
0
 10
1197.8572
 20
865.9879
 30
0.0000
  0
VERTEX
  8
0
 10
1197.5869
 20
865.5027
 30
0.0000
  0
VERTEX
  8
0
 10
1197.4273
 20
864.9936
 30
0.0000
  0
VERTEX
  8
0
 10
1197.3815
 20
864.5310
 30
0.0000
  0
SEQEND
  0
POLYLINE
  6
continous
  8
BYBLOCK
 70
0
 66
1
  0
VERTEX
  8
0
 10
1206.7815
 20
864.5310
 30
0.0000
  0
VERTEX
  8
0
 10
1206.7237
 20
865.0509
 30
0.0000
  0
VERTEX
  8
0
 10
1206.5515
 20
865.5580
 30
0.0000
  0
VERTEX
  8
0
 10
1206.2693
 20
866.0398
 30
0.0000
  0
VERTEX
  8
0
 10
1205.8839
 20
866.4845
 30
0.0000
  0
VERTEX
  8
0
 10
1205.3464
 20
866.9217
 30
0.0000
  0
VERTEX
  8
0
 10
1204.7097
 20
867.2863
 30
0.0000
  0
VERTEX
  8
0
 10
1203.9932
 20
867.5671
 30
0.0000
  0
VERTEX
  8
0
 10
1203.2186
 20
867.7557
 30
0.0000
  0
VERTEX
  8
0
 10
1202.4094
 20
867.8464
 30
0.0000
  0
VERTEX
  8
0
 10
1201.5902
 20
867.8362
 30
0.0000
  0
VERTEX
  8
0
 10
1200.7860
 20
867.7257
 30
0.0000
  0
VERTEX
  8
0
 10
1200.0212
 20
867.5181
 30
0.0000
  0
VERTEX
  8
0
 10
1199.3189
 20
867.2197
 30
0.0000
  0
VERTEX
  8
0
 10
1198.7581
 20
866.8810
 30
0.0000
  0
SEQEND
  0
POLYLINE
  6
continous
  8
BYBLOCK
 70
0
 66
1
  0
VERTEX
  8
0
 10
1205.4049
 20
862.1810
 30
0.0000
  0
VERTEX
  8
0
 10
1205.9315
 20
862.6248
 30
0.0000
  0
VERTEX
  8
0
 10
1206.3059
 20
863.0742
 30
0.0000
  0
VERTEX
  8
0
 10
1206.5762
 20
863.5594
 30
0.0000
  0
VERTEX
  8
0
 10
1206.7358
 20
864.0685
 30
0.0000
  0
VERTEX
  8
0
 10
1206.7815
 20
864.5310
 30
0.0000
  0
SEQEND
  0
POLYLINE
  6
continous
  8
BYBLOCK
 70
0
 66
1
  0
VERTEX
  8
0
 10
1154.9551
 20
834.5310
 30
0.0000
  0
VERTEX
  8
0
 10
1155.0130
 20
834.0111
 30
0.0000
  0
VERTEX
  8
0
 10
1155.1852
 20
833.5041
 30
0.0000
  0
VERTEX
  8
0
 10
1155.4674
 20
833.0223
 30
0.0000
  0
VERTEX
  8
0
 10
1155.8527
 20
832.5776
 30
0.0000
  0
VERTEX
  8
0
 10
1156.3902
 20
832.1404
 30
0.0000
  0
VERTEX
  8
0
 10
1157.0269
 20
831.7758
 30
0.0000
  0
VERTEX
  8
0
 10
1157.7435
 20
831.4950
 30
0.0000
  0
VERTEX
  8
0
 10
1158.5181
 20
831.3064
 30
0.0000
  0
VERTEX
  8
0
 10
1159.3273
 20
831.2157
 30
0.0000
  0
VERTEX
  8
0
 10
1160.1464
 20
831.2258
 30
0.0000
  0
VERTEX
  8
0
 10
1160.9506
 20
831.3364
 30
0.0000
  0
VERTEX
  8
0
 10
1161.7155
 20
831.5440
 30
0.0000
  0
VERTEX
  8
0
 10
1162.4177
 20
831.8424
 30
0.0000
  0
VERTEX
  8
0
 10
1162.9785
 20
832.1810
 30
0.0000
  0
SEQEND
  0
POLYLINE
  6
continous
  8
BYBLOCK
 70
0
 66
1
  0
VERTEX
  8
0
 10
1156.3317
 20
836.8810
 30
0.0000
  0
VERTEX
  8
0
 10
1155.8051
 20
836.4373
 30
0.0000
  0
VERTEX
  8
0
 10
1155.4308
 20
835.9879
 30
0.0000
  0
VERTEX
  8
0
 10
1155.1605
 20
835.5027
 30
0.0000
  0
VERTEX
  8
0
 10
1155.0009
 20
834.9936
 30
0.0000
  0
VERTEX
  8
0
 10
1154.9551
 20
834.5310
 30
0.0000
  0
SEQEND
  0
POLYLINE
  6
continous
  8
BYBLOCK
 70
0
 66
1
  0
VERTEX
  8
0
 10
1164.3551
 20
834.5310
 30
0.0000
  0
VERTEX
  8
0
 10
1164.2973
 20
835.0509
 30
0.0000
  0
VERTEX
  8
0
 10
1164.1251
 20
835.5580
 30
0.0000
  0
VERTEX
  8
0
 10
1163.8429
 20
836.0398
 30
0.0000
  0
VERTEX
  8
0
 10
1163.4575
 20
836.4845
 30
0.0000
  0
VERTEX
  8
0
 10
1162.9200
 20
836.9217
 30
0.0000
  0
VERTEX
  8
0
 10
1162.2833
 20
837.2863
 30
0.0000
  0
VERTEX
  8
0
 10
1161.5668
 20
837.5671
 30
0.0000
  0
VERTEX
  8
0
 10
1160.7922
 20
837.7557
 30
0.0000
  0
VERTEX
  8
0
 10
1159.9830
 20
837.8464
 30
0.0000
  0
VERTEX
  8
0
 10
1159.1638
 20
837.8362
 30
0.0000
  0
VERTEX
  8
0
 10
1158.3596
 20
837.7257
 30
0.0000
  0
VERTEX
  8
0
 10
1157.5948
 20
837.5181
 30
0.0000
  0
VERTEX
  8
0
 10
1156.8925
 20
837.2197
 30
0.0000
  0
VERTEX
  8
0
 10
1156.3317
 20
836.8810
 30
0.0000
  0
SEQEND
  0
POLYLINE
  6
continous
  8
BYBLOCK
 70
0
 66
1
  0
VERTEX
  8
0
 10
1162.9785
 20
832.1810
 30
0.0000
  0
VERTEX
  8
0
 10
1163.5051
 20
832.6248
 30
0.0000
  0
VERTEX
  8
0
 10
1163.8795
 20
833.0742
 30
0.0000
  0
VERTEX
  8
0
 10
1164.1498
 20
833.5594
 30
0.0000
  0
VERTEX
  8
0
 10
1164.3094
 20
834.0685
 30
0.0000
  0
VERTEX
  8
0
 10
1164.3551
 20
834.5310
 30
0.0000
  0
SEQEND
  0
POLYLINE
  6
continous
  8
BYBLOCK
 70
0
 66
1
  0
VERTEX
  8
0
 10
1112.5287
 20
804.5310
 30
0.0000
  0
VERTEX
  8
0
 10
1112.5866
 20
804.0111
 30
0.0000
  0
VERTEX
  8
0
 10
1112.7587
 20
803.5041
 30
0.0000
  0
VERTEX
  8
0
 10
1113.0410
 20
803.0223
 30
0.0000
  0
VERTEX
  8
0
 10
1113.4263
 20
802.5776
 30
0.0000
  0
VERTEX
  8
0
 10
1113.9638
 20
802.1404
 30
0.0000
  0
VERTEX
  8
0
 10
1114.6005
 20
801.7758
 30
0.0000
  0
VERTEX
  8
0
 10
1115.3171
 20
801.4950
 30
0.0000
  0
VERTEX
  8
0
 10
1116.0917
 20
801.3064
 30
0.0000
  0
VERTEX
  8
0
 10
1116.9009
 20
801.2157
 30
0.0000
  0
VERTEX
  8
0
 10
1117.7200
 20
801.2258
 30
0.0000
  0
VERTEX
  8
0
 10
1118.5242
 20
801.3364
 30
0.0000
  0
VERTEX
  8
0
 10
1119.2891
 20
801.5440
 30
0.0000
  0
VERTEX
  8
0
 10
1119.9913
 20
801.8424
 30
0.0000
  0
VERTEX
  8
0
 10
1120.5521
 20
802.1810
 30
0.0000
  0
SEQEND
  0
POLYLINE
  6
continous
  8
BYBLOCK
 70
0
 66
1
  0
VERTEX
  8
0
 10
1113.9053
 20
806.8810
 30
0.0000
  0
VERTEX
  8
0
 10
1113.3787
 20
806.4373
 30
0.0000
  0
VERTEX
  8
0
 10
1113.0044
 20
805.9879
 30
0.0000
  0
VERTEX
  8
0
 10
1112.7341
 20
805.5027
 30
0.0000
  0
VERTEX
  8
0
 10
1112.5745
 20
804.9936
 30
0.0000
  0
VERTEX
  8
0
 10
1112.5287
 20
804.5310
 30
0.0000
  0
SEQEND
  0
POLYLINE
  6
continous
  8
BYBLOCK
 70
0
 66
1
  0
VERTEX
  8
0
 10
1121.9287
 20
804.5310
 30
0.0000
  0
VERTEX
  8
0
 10
1121.8708
 20
805.0509
 30
0.0000
  0
VERTEX
  8
0
 10
1121.6987
 20
805.5580
 30
0.0000
  0
VERTEX
  8
0
 10
1121.4164
 20
806.0398
 30
0.0000
  0
VERTEX
  8
0
 10
1121.0311
 20
806.4845
 30
0.0000
  0
VERTEX
  8
0
 10
1120.4936
 20
806.9217
 30
0.0000
  0
VERTEX
  8
0
 10
1119.8569
 20
807.2863
 30
0.0000
  0
VERTEX
  8
0
 10
1119.1404
 20
807.5671
 30
0.0000
  0
VERTEX
  8
0
 10
1118.3657
 20
807.7557
 30
0.0000
  0
VERTEX
  8
0
 10
1117.5566
 20
807.8464
 30
0.0000
  0
VERTEX
  8
0
 10
1116.7374
 20
807.8362
 30
0.0000
  0
VERTEX
  8
0
 10
1115.9332
 20
807.7257
 30
0.0000
  0
VERTEX
  8
0
 10
1115.1684
 20
807.5181
 30
0.0000
  0
VERTEX
  8
0
 10
1114.4661
 20
807.2197
 30
0.0000
  0
VERTEX
  8
0
 10
1113.9053
 20
806.8810
 30
0.0000
  0
SEQEND
  0
POLYLINE
  6
continous
  8
BYBLOCK
 70
0
 66
1
  0
VERTEX
  8
0
 10
1120.5521
 20
802.1810
 30
0.0000
  0
VERTEX
  8
0
 10
1121.0787
 20
802.6248
 30
0.0000
  0
VERTEX
  8
0
 10
1121.4530
 20
803.0742
 30
0.0000
  0
VERTEX
  8
0
 10
1121.7233
 20
803.5594
 30
0.0000
  0
VERTEX
  8
0
 10
1121.8830
 20
804.0685
 30
0.0000
  0
VERTEX
  8
0
 10
1121.9287
 20
804.5310
 30
0.0000
  0
SEQEND
  0
POLYLINE
  6
continous
  8
BYBLOCK
 70
0
 66
1
  0
VERTEX
  8
0
 10
1070.1023
 20
774.5310
 30
0.0000
  0
VERTEX
  8
0
 10
1070.1602
 20
774.0111
 30
0.0000
  0
VERTEX
  8
0
 10
1070.3323
 20
773.5041
 30
0.0000
  0
VERTEX
  8
0
 10
1070.6146
 20
773.0223
 30
0.0000
  0
VERTEX
  8
0
 10
1070.9999
 20
772.5776
 30
0.0000
  0
VERTEX
  8
0
 10
1071.5374
 20
772.1404
 30
0.0000
  0
VERTEX
  8
0
 10
1072.1741
 20
771.7758
 30
0.0000
  0
VERTEX
  8
0
 10
1072.8906
 20
771.4950
 30
0.0000
  0
VERTEX
  8
0
 10
1073.6653
 20
771.3064
 30
0.0000
  0
VERTEX
  8
0
 10
1074.4745
 20
771.2157
 30
0.0000
  0
VERTEX
  8
0
 10
1075.2936
 20
771.2258
 30
0.0000
  0
VERTEX
  8
0
 10
1076.0978
 20
771.3364
 30
0.0000
  0
VERTEX
  8
0
 10
1076.8627
 20
771.5440
 30
0.0000
  0
VERTEX
  8
0
 10
1077.5649
 20
771.8424
 30
0.0000
  0
VERTEX
  8
0
 10
1078.1257
 20
772.1810
 30
0.0000
  0
SEQEND
  0
POLYLINE
  6
continous
  8
BYBLOCK
 70
0
 66
1
  0
VERTEX
  8
0
 10
1071.4789
 20
776.8810
 30
0.0000
  0
VERTEX
  8
0
 10
1070.9523
 20
776.4373
 30
0.0000
  0
VERTEX
  8
0
 10
1070.5780
 20
775.9879
 30
0.0000
  0
VERTEX
  8
0
 10
1070.3077
 20
775.5027
 30
0.0000
  0
VERTEX
  8
0
 10
1070.1480
 20
774.9936
 30
0.0000
  0
VERTEX
  8
0
 10
1070.1023
 20
774.5310
 30
0.0000
  0
SEQEND
  0
POLYLINE
  6
continous
  8
BYBLOCK
 70
0
 66
1
  0
VERTEX
  8
0
 10
1079.5023
 20
774.5310
 30
0.0000
  0
VERTEX
  8
0
 10
1079.4444
 20
775.0509
 30
0.0000
  0
VERTEX
  8
0
 10
1079.2723
 20
775.5580
 30
0.0000
  0
VERTEX
  8
0
 10
1078.9900
 20
776.0398
 30
0.0000
  0
VERTEX
  8
0
 10
1078.6047
 20
776.4845
 30
0.0000
  0
VERTEX
  8
0
 10
1078.0672
 20
776.9217
 30
0.0000
  0
VERTEX
  8
0
 10
1077.4305
 20
777.2863
 30
0.0000
  0
VERTEX
  8
0
 10
1076.7140
 20
777.5671
 30
0.0000
  0
VERTEX
  8
0
 10
1075.9393
 20
777.7557
 30
0.0000
  0
VERTEX
  8
0
 10
1075.1302
 20
777.8464
 30
0.0000
  0
VERTEX
  8
0
 10
1074.3110
 20
777.8362
 30
0.0000
  0
VERTEX
  8
0
 10
1073.5068
 20
777.7257
 30
0.0000
  0
VERTEX
  8
0
 10
1072.7420
 20
777.5181
 30
0.0000
  0
VERTEX
  8
0
 10
1072.0397
 20
777.2197
 30
0.0000
  0
VERTEX
  8
0
 10
1071.4789
 20
776.8810
 30
0.0000
  0
SEQEND
  0
POLYLINE
  6
continous
  8
BYBLOCK
 70
0
 66
1
  0
VERTEX
  8
0
 10
1078.1257
 20
772.1810
 30
0.0000
  0
VERTEX
  8
0
 10
1078.6523
 20
772.6248
 30
0.0000
  0
VERTEX
  8
0
 10
1079.0266
 20
773.0742
 30
0.0000
  0
VERTEX
  8
0
 10
1079.2969
 20
773.5594
 30
0.0000
  0
VERTEX
  8
0
 10
1079.4566
 20
774.0685
 30
0.0000
  0
VERTEX
  8
0
 10
1079.5023
 20
774.5310
 30
0.0000
  0
SEQEND
  0
POLYLINE
  6
continous
  8
BYBLOCK
 70
0
 66
1
  0
VERTEX
  8
0
 10
1027.6759
 20
744.5310
 30
0.0000
  0
VERTEX
  8
0
 10
1027.7338
 20
744.0111
 30
0.0000
  0
VERTEX
  8
0
 10
1027.9059
 20
743.5041
 30
0.0000
  0
VERTEX
  8
0
 10
1028.1882
 20
743.0223
 30
0.0000
  0
VERTEX
  8
0
 10
1028.5735
 20
742.5776
 30
0.0000
  0
VERTEX
  8
0
 10
1029.1110
 20
742.1404
 30
0.0000
  0
VERTEX
  8
0
 10
1029.7477
 20
741.7758
 30
0.0000
  0
VERTEX
  8
0
 10
1030.4642
 20
741.4950
 30
0.0000
  0
VERTEX
  8
0
 10
1031.2389
 20
741.3064
 30
0.0000
  0
VERTEX
  8
0
 10
1032.0480
 20
741.2157
 30
0.0000
  0
VERTEX
  8
0
 10
1032.8672
 20
741.2258
 30
0.0000
  0
VERTEX
  8
0
 10
1033.6714
 20
741.3364
 30
0.0000
  0
VERTEX
  8
0
 10
1034.4362
 20
741.5440
 30
0.0000
  0
VERTEX
  8
0
 10
1035.1385
 20
741.8424
 30
0.0000
  0
VERTEX
  8
0
 10
1035.6993
 20
742.1810
 30
0.0000
  0
SEQEND
  0
POLYLINE
  6
continous
  8
BYBLOCK
 70
0
 66
1
  0
VERTEX
  8
0
 10
1029.0525
 20
746.8810
 30
0.0000
  0
VERTEX
  8
0
 10
1028.5259
 20
746.4373
 30
0.0000
  0
VERTEX
  8
0
 10
1028.1516
 20
745.9879
 30
0.0000
  0
VERTEX
  8
0
 10
1027.8813
 20
745.5027
 30
0.0000
  0
VERTEX
  8
0
 10
1027.7216
 20
744.9936
 30
0.0000
  0
VERTEX
  8
0
 10
1027.6759
 20
744.5310
 30
0.0000
  0
SEQEND
  0
POLYLINE
  6
continous
  8
BYBLOCK
 70
0
 66
1
  0
VERTEX
  8
0
 10
1037.0759
 20
744.5310
 30
0.0000
  0
VERTEX
  8
0
 10
1037.0180
 20
745.0509
 30
0.0000
  0
VERTEX
  8
0
 10
1036.8459
 20
745.5580
 30
0.0000
  0
VERTEX
  8
0
 10
1036.5636
 20
746.0398
 30
0.0000
  0
VERTEX
  8
0
 10
1036.1783
 20
746.4845
 30
0.0000
  0
VERTEX
  8
0
 10
1035.6408
 20
746.9217
 30
0.0000
  0
VERTEX
  8
0
 10
1035.0041
 20
747.2863
 30
0.0000
  0
VERTEX
  8
0
 10
1034.2876
 20
747.5671
 30
0.0000
  0
VERTEX
  8
0
 10
1033.5129
 20
747.7557
 30
0.0000
  0
VERTEX
  8
0
 10
1032.7038
 20
747.8464
 30
0.0000
  0
VERTEX
  8
0
 10
1031.8846
 20
747.8362
 30
0.0000
  0
VERTEX
  8
0
 10
1031.0804
 20
747.7257
 30
0.0000
  0
VERTEX
  8
0
 10
1030.3156
 20
747.5181
 30
0.0000
  0
VERTEX
  8
0
 10
1029.6133
 20
747.2197
 30
0.0000
  0
VERTEX
  8
0
 10
1029.0525
 20
746.8810
 30
0.0000
  0
SEQEND
  0
POLYLINE
  6
continous
  8
BYBLOCK
 70
0
 66
1
  0
VERTEX
  8
0
 10
1035.6993
 20
742.1810
 30
0.0000
  0
VERTEX
  8
0
 10
1036.2259
 20
742.6248
 30
0.0000
  0
VERTEX
  8
0
 10
1036.6002
 20
743.0742
 30
0.0000
  0
VERTEX
  8
0
 10
1036.8705
 20
743.5594
 30
0.0000
  0
VERTEX
  8
0
 10
1037.0302
 20
744.0685
 30
0.0000
  0
VERTEX
  8
0
 10
1037.0759
 20
744.5310
 30
0.0000
  0
SEQEND
  0
POLYLINE
  6
continous
  8
BYBLOCK
 70
0
 66
1
  0
VERTEX
  8
0
 10
985.2495
 20
714.5310
 30
0.0000
  0
VERTEX
  8
0
 10
985.3074
 20
714.0111
 30
0.0000
  0
VERTEX
  8
0
 10
985.4795
 20
713.5041
 30
0.0000
  0
VERTEX
  8
0
 10
985.7618
 20
713.0223
 30
0.0000
  0
VERTEX
  8
0
 10
986.1471
 20
712.5776
 30
0.0000
  0
VERTEX
  8
0
 10
986.6846
 20
712.1404
 30
0.0000
  0
VERTEX
  8
0
 10
987.3213
 20
711.7758
 30
0.0000
  0
VERTEX
  8
0
 10
988.0378
 20
711.4950
 30
0.0000
  0
VERTEX
  8
0
 10
988.8125
 20
711.3064
 30
0.0000
  0
VERTEX
  8
0
 10
989.6216
 20
711.2157
 30
0.0000
  0
VERTEX
  8
0
 10
990.4408
 20
711.2258
 30
0.0000
  0
VERTEX
  8
0
 10
991.2450
 20
711.3364
 30
0.0000
  0
VERTEX
  8
0
 10
992.0098
 20
711.5440
 30
0.0000
  0
VERTEX
  8
0
 10
992.7121
 20
711.8424
 30
0.0000
  0
VERTEX
  8
0
 10
993.2729
 20
712.1810
 30
0.0000
  0
SEQEND
  0
POLYLINE
  6
continous
  8
BYBLOCK
 70
0
 66
1
  0
VERTEX
  8
0
 10
986.6261
 20
716.8810
 30
0.0000
  0
VERTEX
  8
0
 10
986.0995
 20
716.4373
 30
0.0000
  0
VERTEX
  8
0
 10
985.7252
 20
715.9879
 30
0.0000
  0
VERTEX
  8
0
 10
985.4549
 20
715.5027
 30
0.0000
  0
VERTEX
  8
0
 10
985.2952
 20
714.9936
 30
0.0000
  0
VERTEX
  8
0
 10
985.2495
 20
714.5310
 30
0.0000
  0
SEQEND
  0
POLYLINE
  6
continous
  8
BYBLOCK
 70
0
 66
1
  0
VERTEX
  8
0
 10
994.6495
 20
714.5310
 30
0.0000
  0
VERTEX
  8
0
 10
994.5916
 20
715.0509
 30
0.0000
  0
VERTEX
  8
0
 10
994.4195
 20
715.5580
 30
0.0000
  0
VERTEX
  8
0
 10
994.1372
 20
716.0398
 30
0.0000
  0
VERTEX
  8
0
 10
993.7519
 20
716.4845
 30
0.0000
  0
VERTEX
  8
0
 10
993.2144
 20
716.9217
 30
0.0000
  0
VERTEX
  8
0
 10
992.5777
 20
717.2863
 30
0.0000
  0
VERTEX
  8
0
 10
991.8612
 20
717.5671
 30
0.0000
  0
VERTEX
  8
0
 10
991.0865
 20
717.7557
 30
0.0000
  0
VERTEX
  8
0
 10
990.2773
 20
717.8464
 30
0.0000
  0
VERTEX
  8
0
 10
989.4582
 20
717.8362
 30
0.0000
  0
VERTEX
  8
0
 10
988.6540
 20
717.7257
 30
0.0000
  0
VERTEX
  8
0
 10
987.8891
 20
717.5181
 30
0.0000
  0
VERTEX
  8
0
 10
987.1869
 20
717.2197
 30
0.0000
  0
VERTEX
  8
0
 10
986.6261
 20
716.8810
 30
0.0000
  0
SEQEND
  0
POLYLINE
  6
continous
  8
BYBLOCK
 70
0
 66
1
  0
VERTEX
  8
0
 10
993.2729
 20
712.1810
 30
0.0000
  0
VERTEX
  8
0
 10
993.7995
 20
712.6248
 30
0.0000
  0
VERTEX
  8
0
 10
994.1738
 20
713.0742
 30
0.0000
  0
VERTEX
  8
0
 10
994.4441
 20
713.5594
 30
0.0000
  0
VERTEX
  8
0
 10
994.6038
 20
714.0685
 30
0.0000
  0
VERTEX
  8
0
 10
994.6495
 20
714.5310
 30
0.0000
  0
SEQEND
  0
POLYLINE
  6
continous
  8
BYBLOCK
 70
0
 66
1
  0
VERTEX
  8
0
 10
942.8231
 20
684.5310
 30
0.0000
  0
VERTEX
  8
0
 10
942.8810
 20
684.0111
 30
0.0000
  0
VERTEX
  8
0
 10
943.0531
 20
683.5041
 30
0.0000
  0
VERTEX
  8
0
 10
943.3354
 20
683.0223
 30
0.0000
  0
VERTEX
  8
0
 10
943.7207
 20
682.5776
 30
0.0000
  0
VERTEX
  8
0
 10
944.2582
 20
682.1404
 30
0.0000
  0
VERTEX
  8
0
 10
944.8949
 20
681.7758
 30
0.0000
  0
VERTEX
  8
0
 10
945.6114
 20
681.4950
 30
0.0000
  0
VERTEX
  8
0
 10
946.3861
 20
681.3064
 30
0.0000
  0
VERTEX
  8
0
 10
947.1952
 20
681.2157
 30
0.0000
  0
VERTEX
  8
0
 10
948.0144
 20
681.2258
 30
0.0000
  0
VERTEX
  8
0
 10
948.8186
 20
681.3364
 30
0.0000
  0
VERTEX
  8
0
 10
949.5834
 20
681.5440
 30
0.0000
  0
VERTEX
  8
0
 10
950.2857
 20
681.8424
 30
0.0000
  0
VERTEX
  8
0
 10
950.8465
 20
682.1810
 30
0.0000
  0
SEQEND
  0
POLYLINE
  6
continous
  8
BYBLOCK
 70
0
 66
1
  0
VERTEX
  8
0
 10
944.1997
 20
686.8810
 30
0.0000
  0
VERTEX
  8
0
 10
943.6731
 20
686.4373
 30
0.0000
  0
VERTEX
  8
0
 10
943.2988
 20
685.9879
 30
0.0000
  0
VERTEX
  8
0
 10
943.0285
 20
685.5027
 30
0.0000
  0
VERTEX
  8
0
 10
942.8688
 20
684.9936
 30
0.0000
  0
VERTEX
  8
0
 10
942.8231
 20
684.5310
 30
0.0000
  0
SEQEND
  0
POLYLINE
  6
continous
  8
BYBLOCK
 70
0
 66
1
  0
VERTEX
  8
0
 10
952.2231
 20
684.5310
 30
0.0000
  0
VERTEX
  8
0
 10
952.1652
 20
685.0509
 30
0.0000
  0
VERTEX
  8
0
 10
951.9931
 20
685.5580
 30
0.0000
  0
VERTEX
  8
0
 10
951.7108
 20
686.0398
 30
0.0000
  0
VERTEX
  8
0
 10
951.3255
 20
686.4845
 30
0.0000
  0
VERTEX
  8
0
 10
950.7880
 20
686.9217
 30
0.0000
  0
VERTEX
  8
0
 10
950.1513
 20
687.2863
 30
0.0000
  0
VERTEX
  8
0
 10
949.4347
 20
687.5671
 30
0.0000
  0
VERTEX
  8
0
 10
948.6601
 20
687.7557
 30
0.0000
  0
VERTEX
  8
0
 10
947.8509
 20
687.8464
 30
0.0000
  0
VERTEX
  8
0
 10
947.0318
 20
687.8362
 30
0.0000
  0
VERTEX
  8
0
 10
946.2276
 20
687.7257
 30
0.0000
  0
VERTEX
  8
0
 10
945.4627
 20
687.5181
 30
0.0000
  0
VERTEX
  8
0
 10
944.7605
 20
687.2197
 30
0.0000
  0
VERTEX
  8
0
 10
944.1997
 20
686.8810
 30
0.0000
  0
SEQEND
  0
POLYLINE
  6
continous
  8
BYBLOCK
 70
0
 66
1
  0
VERTEX
  8
0
 10
950.8465
 20
682.1810
 30
0.0000
  0
VERTEX
  8
0
 10
951.3731
 20
682.6248
 30
0.0000
  0
VERTEX
  8
0
 10
951.7474
 20
683.0742
 30
0.0000
  0
VERTEX
  8
0
 10
952.0177
 20
683.5594
 30
0.0000
  0
VERTEX
  8
0
 10
952.1773
 20
684.0685
 30
0.0000
  0
VERTEX
  8
0
 10
952.2231
 20
684.5310
 30
0.0000
  0
SEQEND
  0
POLYLINE
  6
continous
  8
BYBLOCK
 70
0
 66
1
  0
VERTEX
  8
0
 10
900.3967
 20
654.5310
 30
0.0000
  0
VERTEX
  8
0
 10
900.4545
 20
654.0111
 30
0.0000
  0
VERTEX
  8
0
 10
900.6267
 20
653.5041
 30
0.0000
  0
VERTEX
  8
0
 10
900.9089
 20
653.0223
 30
0.0000
  0
VERTEX
  8
0
 10
901.2943
 20
652.5776
 30
0.0000
  0
VERTEX
  8
0
 10
901.8318
 20
652.1404
 30
0.0000
  0
VERTEX
  8
0
 10
902.4685
 20
651.7758
 30
0.0000
  0
VERTEX
  8
0
 10
903.1850
 20
651.4950
 30
0.0000
  0
VERTEX
  8
0
 10
903.9596
 20
651.3064
 30
0.0000
  0
VERTEX
  8
0
 10
904.7688
 20
651.2157
 30
0.0000
  0
VERTEX
  8
0
 10
905.5880
 20
651.2258
 30
0.0000
  0
VERTEX
  8
0
 10
906.3922
 20
651.3364
 30
0.0000
  0
VERTEX
  8
0
 10
907.1570
 20
651.5440
 30
0.0000
  0
VERTEX
  8
0
 10
907.8593
 20
651.8424
 30
0.0000
  0
VERTEX
  8
0
 10
908.4201
 20
652.1810
 30
0.0000
  0
SEQEND
  0
POLYLINE
  6
continous
  8
BYBLOCK
 70
0
 66
1
  0
VERTEX
  8
0
 10
901.7733
 20
656.8810
 30
0.0000
  0
VERTEX
  8
0
 10
901.2467
 20
656.4373
 30
0.0000
  0
VERTEX
  8
0
 10
900.8723
 20
655.9879
 30
0.0000
  0
VERTEX
  8
0
 10
900.6020
 20
655.5027
 30
0.0000
  0
VERTEX
  8
0
 10
900.4424
 20
654.9936
 30
0.0000
  0
VERTEX
  8
0
 10
900.3967
 20
654.5310
 30
0.0000
  0
SEQEND
  0
POLYLINE
  6
continous
  8
BYBLOCK
 70
0
 66
1
  0
VERTEX
  8
0
 10
909.7967
 20
654.5310
 30
0.0000
  0
VERTEX
  8
0
 10
909.7388
 20
655.0509
 30
0.0000
  0
VERTEX
  8
0
 10
909.5666
 20
655.5580
 30
0.0000
  0
VERTEX
  8
0
 10
909.2844
 20
656.0398
 30
0.0000
  0
VERTEX
  8
0
 10
908.8991
 20
656.4845
 30
0.0000
  0
VERTEX
  8
0
 10
908.3616
 20
656.9217
 30
0.0000
  0
VERTEX
  8
0
 10
907.7249
 20
657.2863
 30
0.0000
  0
VERTEX
  8
0
 10
907.0083
 20
657.5671
 30
0.0000
  0
VERTEX
  8
0
 10
906.2337
 20
657.7557
 30
0.0000
  0
VERTEX
  8
0
 10
905.4245
 20
657.8464
 30
0.0000
  0
VERTEX
  8
0
 10
904.6054
 20
657.8362
 30
0.0000
  0
VERTEX
  8
0
 10
903.8012
 20
657.7257
 30
0.0000
  0
VERTEX
  8
0
 10
903.0363
 20
657.5181
 30
0.0000
  0
VERTEX
  8
0
 10
902.3341
 20
657.2197
 30
0.0000
  0
VERTEX
  8
0
 10
901.7733
 20
656.8810
 30
0.0000
  0
SEQEND
  0
POLYLINE
  6
continous
  8
BYBLOCK
 70
0
 66
1
  0
VERTEX
  8
0
 10
908.4201
 20
652.1810
 30
0.0000
  0
VERTEX
  8
0
 10
908.9467
 20
652.6248
 30
0.0000
  0
VERTEX
  8
0
 10
909.3210
 20
653.0742
 30
0.0000
  0
VERTEX
  8
0
 10
909.5913
 20
653.5594
 30
0.0000
  0
VERTEX
  8
0
 10
909.7509
 20
654.0685
 30
0.0000
  0
VERTEX
  8
0
 10
909.7967
 20
654.5310
 30
0.0000
  0
SEQEND
  0
POLYLINE
  6
continous
  8
BYBLOCK
 70
0
 66
1
  0
VERTEX
  8
0
 10
857.9703
 20
624.5310
 30
0.0000
  0
VERTEX
  8
0
 10
858.0281
 20
624.0111
 30
0.0000
  0
VERTEX
  8
0
 10
858.2003
 20
623.5041
 30
0.0000
  0
VERTEX
  8
0
 10
858.4825
 20
623.0223
 30
0.0000
  0
VERTEX
  8
0
 10
858.8679
 20
622.5776
 30
0.0000
  0
VERTEX
  8
0
 10
859.4054
 20
622.1404
 30
0.0000
  0
VERTEX
  8
0
 10
860.0421
 20
621.7758
 30
0.0000
  0
VERTEX
  8
0
 10
860.7586
 20
621.4950
 30
0.0000
  0
VERTEX
  8
0
 10
861.5332
 20
621.3064
 30
0.0000
  0
VERTEX
  8
0
 10
862.3424
 20
621.2157
 30
0.0000
  0
VERTEX
  8
0
 10
863.1616
 20
621.2258
 30
0.0000
  0
VERTEX
  8
0
 10
863.9658
 20
621.3364
 30
0.0000
  0
VERTEX
  8
0
 10
864.7306
 20
621.5440
 30
0.0000
  0
VERTEX
  8
0
 10
865.4329
 20
621.8424
 30
0.0000
  0
VERTEX
  8
0
 10
865.9937
 20
622.1810
 30
0.0000
  0
SEQEND
  0
POLYLINE
  6
continous
  8
BYBLOCK
 70
0
 66
1
  0
VERTEX
  8
0
 10
859.3469
 20
626.8810
 30
0.0000
  0
VERTEX
  8
0
 10
858.8203
 20
626.4373
 30
0.0000
  0
VERTEX
  8
0
 10
858.4459
 20
625.9879
 30
0.0000
  0
VERTEX
  8
0
 10
858.1756
 20
625.5027
 30
0.0000
  0
VERTEX
  8
0
 10
858.0160
 20
624.9936
 30
0.0000
  0
VERTEX
  8
0
 10
857.9703
 20
624.5310
 30
0.0000
  0
SEQEND
  0
POLYLINE
  6
continous
  8
BYBLOCK
 70
0
 66
1
  0
VERTEX
  8
0
 10
867.3703
 20
624.5310
 30
0.0000
  0
VERTEX
  8
0
 10
867.3124
 20
625.0509
 30
0.0000
  0
VERTEX
  8
0
 10
867.1402
 20
625.5580
 30
0.0000
  0
VERTEX
  8
0
 10
866.8580
 20
626.0398
 30
0.0000
  0
VERTEX
  8
0
 10
866.4727
 20
626.4845
 30
0.0000
  0
VERTEX
  8
0
 10
865.9352
 20
626.9217
 30
0.0000
  0
VERTEX
  8
0
 10
865.2985
 20
627.2863
 30
0.0000
  0
VERTEX
  8
0
 10
864.5819
 20
627.5671
 30
0.0000
  0
VERTEX
  8
0
 10
863.8073
 20
627.7557
 30
0.0000
  0
VERTEX
  8
0
 10
862.9981
 20
627.8464
 30
0.0000
  0
VERTEX
  8
0
 10
862.1790
 20
627.8362
 30
0.0000
  0
VERTEX
  8
0
 10
861.3748
 20
627.7257
 30
0.0000
  0
VERTEX
  8
0
 10
860.6099
 20
627.5181
 30
0.0000
  0
VERTEX
  8
0
 10
859.9077
 20
627.2197
 30
0.0000
  0
VERTEX
  8
0
 10
859.3469
 20
626.8810
 30
0.0000
  0
SEQEND
  0
POLYLINE
  6
continous
  8
BYBLOCK
 70
0
 66
1
  0
VERTEX
  8
0
 10
865.9937
 20
622.1810
 30
0.0000
  0
VERTEX
  8
0
 10
866.5203
 20
622.6248
 30
0.0000
  0
VERTEX
  8
0
 10
866.8946
 20
623.0742
 30
0.0000
  0
VERTEX
  8
0
 10
867.1649
 20
623.5594
 30
0.0000
  0
VERTEX
  8
0
 10
867.3245
 20
624.0685
 30
0.0000
  0
VERTEX
  8
0
 10
867.3703
 20
624.5310
 30
0.0000
  0
SEQEND
  0
POLYLINE
  6
continous
  8
BYBLOCK
 70
0
 66
1
  0
VERTEX
  8
0
 10
815.5439
 20
594.5310
 30
0.0000
  0
VERTEX
  8
0
 10
815.6017
 20
594.0111
 30
0.0000
  0
VERTEX
  8
0
 10
815.7739
 20
593.5041
 30
0.0000
  0
VERTEX
  8
0
 10
816.0561
 20
593.0223
 30
0.0000
  0
VERTEX
  8
0
 10
816.4415
 20
592.5776
 30
0.0000
  0
VERTEX
  8
0
 10
816.9790
 20
592.1404
 30
0.0000
  0
VERTEX
  8
0
 10
817.6157
 20
591.7758
 30
0.0000
  0
VERTEX
  8
0
 10
818.3322
 20
591.4950
 30
0.0000
  0
VERTEX
  8
0
 10
819.1068
 20
591.3064
 30
0.0000
  0
VERTEX
  8
0
 10
819.9160
 20
591.2157
 30
0.0000
  0
VERTEX
  8
0
 10
820.7351
 20
591.2258
 30
0.0000
  0
VERTEX
  8
0
 10
821.5394
 20
591.3364
 30
0.0000
  0
VERTEX
  8
0
 10
822.3042
 20
591.5440
 30
0.0000
  0
VERTEX
  8
0
 10
823.0065
 20
591.8424
 30
0.0000
  0
VERTEX
  8
0
 10
823.5673
 20
592.1810
 30
0.0000
  0
SEQEND
  0
POLYLINE
  6
continous
  8
BYBLOCK
 70
0
 66
1
  0
VERTEX
  8
0
 10
816.9205
 20
596.8810
 30
0.0000
  0
VERTEX
  8
0
 10
816.3939
 20
596.4373
 30
0.0000
  0
VERTEX
  8
0
 10
816.0195
 20
595.9879
 30
0.0000
  0
VERTEX
  8
0
 10
815.7492
 20
595.5027
 30
0.0000
  0
VERTEX
  8
0
 10
815.5896
 20
594.9936
 30
0.0000
  0
VERTEX
  8
0
 10
815.5439
 20
594.5310
 30
0.0000
  0
SEQEND
  0
POLYLINE
  6
continous
  8
BYBLOCK
 70
0
 66
1
  0
VERTEX
  8
0
 10
824.9439
 20
594.5310
 30
0.0000
  0
VERTEX
  8
0
 10
824.8860
 20
595.0509
 30
0.0000
  0
VERTEX
  8
0
 10
824.7138
 20
595.5580
 30
0.0000
  0
VERTEX
  8
0
 10
824.4316
 20
596.0398
 30
0.0000
  0
VERTEX
  8
0
 10
824.0462
 20
596.4845
 30
0.0000
  0
VERTEX
  8
0
 10
823.5088
 20
596.9217
 30
0.0000
  0
VERTEX
  8
0
 10
822.8721
 20
597.2863
 30
0.0000
  0
VERTEX
  8
0
 10
822.1555
 20
597.5671
 30
0.0000
  0
VERTEX
  8
0
 10
821.3809
 20
597.7557
 30
0.0000
  0
VERTEX
  8
0
 10
820.5717
 20
597.8464
 30
0.0000
  0
VERTEX
  8
0
 10
819.7526
 20
597.8362
 30
0.0000
  0
VERTEX
  8
0
 10
818.9484
 20
597.7257
 30
0.0000
  0
VERTEX
  8
0
 10
818.1835
 20
597.5181
 30
0.0000
  0
VERTEX
  8
0
 10
817.4813
 20
597.2197
 30
0.0000
  0
VERTEX
  8
0
 10
816.9205
 20
596.8810
 30
0.0000
  0
SEQEND
  0
POLYLINE
  6
continous
  8
BYBLOCK
 70
0
 66
1
  0
VERTEX
  8
0
 10
823.5673
 20
592.1810
 30
0.0000
  0
VERTEX
  8
0
 10
824.0939
 20
592.6248
 30
0.0000
  0
VERTEX
  8
0
 10
824.4682
 20
593.0742
 30
0.0000
  0
VERTEX
  8
0
 10
824.7385
 20
593.5594
 30
0.0000
  0
VERTEX
  8
0
 10
824.8981
 20
594.0685
 30
0.0000
  0
VERTEX
  8
0
 10
824.9439
 20
594.5310
 30
0.0000
  0
SEQEND
  0
POLYLINE
  6
continous
  8
BYBLOCK
 70
0
 66
1
  0
VERTEX
  8
0
 10
773.1175
 20
564.5310
 30
0.0000
  0
VERTEX
  8
0
 10
773.1753
 20
564.0111
 30
0.0000
  0
VERTEX
  8
0
 10
773.3475
 20
563.5041
 30
0.0000
  0
VERTEX
  8
0
 10
773.6297
 20
563.0223
 30
0.0000
  0
VERTEX
  8
0
 10
774.0151
 20
562.5776
 30
0.0000
  0
VERTEX
  8
0
 10
774.5526
 20
562.1404
 30
0.0000
  0
VERTEX
  8
0
 10
775.1893
 20
561.7758
 30
0.0000
  0
VERTEX
  8
0
 10
775.9058
 20
561.4950
 30
0.0000
  0
VERTEX
  8
0
 10
776.6804
 20
561.3064
 30
0.0000
  0
VERTEX
  8
0
 10
777.4896
 20
561.2157
 30
0.0000
  0
VERTEX
  8
0
 10
778.3087
 20
561.2258
 30
0.0000
  0
VERTEX
  8
0
 10
779.1130
 20
561.3364
 30
0.0000
  0
VERTEX
  8
0
 10
779.8778
 20
561.5440
 30
0.0000
  0
VERTEX
  8
0
 10
780.5800
 20
561.8424
 30
0.0000
  0
VERTEX
  8
0
 10
781.1409
 20
562.1810
 30
0.0000
  0
SEQEND
  0
POLYLINE
  6
continous
  8
BYBLOCK
 70
0
 66
1
  0
VERTEX
  8
0
 10
774.4941
 20
566.8810
 30
0.0000
  0
VERTEX
  8
0
 10
773.9674
 20
566.4373
 30
0.0000
  0
VERTEX
  8
0
 10
773.5931
 20
565.9879
 30
0.0000
  0
VERTEX
  8
0
 10
773.3228
 20
565.5027
 30
0.0000
  0
VERTEX
  8
0
 10
773.1632
 20
564.9936
 30
0.0000
  0
VERTEX
  8
0
 10
773.1175
 20
564.5310
 30
0.0000
  0
SEQEND
  0
POLYLINE
  6
continous
  8
BYBLOCK
 70
0
 66
1
  0
VERTEX
  8
0
 10
782.5175
 20
564.5310
 30
0.0000
  0
VERTEX
  8
0
 10
782.4596
 20
565.0509
 30
0.0000
  0
VERTEX
  8
0
 10
782.2874
 20
565.5580
 30
0.0000
  0
VERTEX
  8
0
 10
782.0052
 20
566.0398
 30
0.0000
  0
VERTEX
  8
0
 10
781.6198
 20
566.4845
 30
0.0000
  0
VERTEX
  8
0
 10
781.0824
 20
566.9217
 30
0.0000
  0
VERTEX
  8
0
 10
780.4457
 20
567.2863
 30
0.0000
  0
VERTEX
  8
0
 10
779.7291
 20
567.5671
 30
0.0000
  0
VERTEX
  8
0
 10
778.9545
 20
567.7557
 30
0.0000
  0
VERTEX
  8
0
 10
778.1453
 20
567.8464
 30
0.0000
  0
VERTEX
  8
0
 10
777.3262
 20
567.8362
 30
0.0000
  0
VERTEX
  8
0
 10
776.5220
 20
567.7257
 30
0.0000
  0
VERTEX
  8
0
 10
775.7571
 20
567.5181
 30
0.0000
  0
VERTEX
  8
0
 10
775.0549
 20
567.2197
 30
0.0000
  0
VERTEX
  8
0
 10
774.4941
 20
566.8810
 30
0.0000
  0
SEQEND
  0
POLYLINE
  6
continous
  8
BYBLOCK
 70
0
 66
1
  0
VERTEX
  8
0
 10
781.1409
 20
562.1810
 30
0.0000
  0
VERTEX
  8
0
 10
781.6675
 20
562.6248
 30
0.0000
  0
VERTEX
  8
0
 10
782.0418
 20
563.0742
 30
0.0000
  0
VERTEX
  8
0
 10
782.3121
 20
563.5594
 30
0.0000
  0
VERTEX
  8
0
 10
782.4717
 20
564.0685
 30
0.0000
  0
VERTEX
  8
0
 10
782.5175
 20
564.5310
 30
0.0000
  0
SEQEND
  0
POLYLINE
  6
continous
  8
BYBLOCK
 70
0
 66
1
  0
VERTEX
  8
0
 10
730.6911
 20
534.5310
 30
0.0000
  0
VERTEX
  8
0
 10
730.7489
 20
534.0111
 30
0.0000
  0
VERTEX
  8
0
 10
730.9211
 20
533.5041
 30
0.0000
  0
VERTEX
  8
0
 10
731.2033
 20
533.0223
 30
0.0000
  0
VERTEX
  8
0
 10
731.5887
 20
532.5776
 30
0.0000
  0
VERTEX
  8
0
 10
732.1262
 20
532.1404
 30
0.0000
  0
VERTEX
  8
0
 10
732.7628
 20
531.7758
 30
0.0000
  0
VERTEX
  8
0
 10
733.4794
 20
531.4950
 30
0.0000
  0
VERTEX
  8
0
 10
734.2540
 20
531.3064
 30
0.0000
  0
VERTEX
  8
0
 10
735.0632
 20
531.2157
 30
0.0000
  0
VERTEX
  8
0
 10
735.8823
 20
531.2258
 30
0.0000
  0
VERTEX
  8
0
 10
736.6865
 20
531.3364
 30
0.0000
  0
VERTEX
  8
0
 10
737.4514
 20
531.5440
 30
0.0000
  0
VERTEX
  8
0
 10
738.1536
 20
531.8424
 30
0.0000
  0
VERTEX
  8
0
 10
738.7145
 20
532.1810
 30
0.0000
  0
SEQEND
  0
POLYLINE
  6
continous
  8
BYBLOCK
 70
0
 66
1
  0
VERTEX
  8
0
 10
732.0677
 20
536.8810
 30
0.0000
  0
VERTEX
  8
0
 10
731.5410
 20
536.4373
 30
0.0000
  0
VERTEX
  8
0
 10
731.1667
 20
535.9879
 30
0.0000
  0
VERTEX
  8
0
 10
730.8964
 20
535.5027
 30
0.0000
  0
VERTEX
  8
0
 10
730.7368
 20
534.9936
 30
0.0000
  0
VERTEX
  8
0
 10
730.6911
 20
534.5310
 30
0.0000
  0
SEQEND
  0
POLYLINE
  6
continous
  8
BYBLOCK
 70
0
 66
1
  0
VERTEX
  8
0
 10
740.0911
 20
534.5310
 30
0.0000
  0
VERTEX
  8
0
 10
740.0332
 20
535.0509
 30
0.0000
  0
VERTEX
  8
0
 10
739.8610
 20
535.5580
 30
0.0000
  0
VERTEX
  8
0
 10
739.5788
 20
536.0398
 30
0.0000
  0
VERTEX
  8
0
 10
739.1934
 20
536.4845
 30
0.0000
  0
VERTEX
  8
0
 10
738.6559
 20
536.9217
 30
0.0000
  0
VERTEX
  8
0
 10
738.0193
 20
537.2863
 30
0.0000
  0
VERTEX
  8
0
 10
737.3027
 20
537.5671
 30
0.0000
  0
VERTEX
  8
0
 10
736.5281
 20
537.7557
 30
0.0000
  0
VERTEX
  8
0
 10
735.7189
 20
537.8464
 30
0.0000
  0
VERTEX
  8
0
 10
734.8998
 20
537.8362
 30
0.0000
  0
VERTEX
  8
0
 10
734.0956
 20
537.7257
 30
0.0000
  0
VERTEX
  8
0
 10
733.3307
 20
537.5181
 30
0.0000
  0
VERTEX
  8
0
 10
732.6285
 20
537.2197
 30
0.0000
  0
VERTEX
  8
0
 10
732.0677
 20
536.8810
 30
0.0000
  0
SEQEND
  0
POLYLINE
  6
continous
  8
BYBLOCK
 70
0
 66
1
  0
VERTEX
  8
0
 10
738.7145
 20
532.1810
 30
0.0000
  0
VERTEX
  8
0
 10
739.2411
 20
532.6248
 30
0.0000
  0
VERTEX
  8
0
 10
739.6154
 20
533.0742
 30
0.0000
  0
VERTEX
  8
0
 10
739.8857
 20
533.5594
 30
0.0000
  0
VERTEX
  8
0
 10
740.0453
 20
534.0685
 30
0.0000
  0
VERTEX
  8
0
 10
740.0911
 20
534.5310
 30
0.0000
  0
SEQEND
  0
POLYLINE
  6
continous
  8
BYBLOCK
 70
0
 66
1
  0
VERTEX
  8
0
 10
688.2646
 20
504.5310
 30
0.0000
  0
VERTEX
  8
0
 10
688.3225
 20
504.0111
 30
0.0000
  0
VERTEX
  8
0
 10
688.4947
 20
503.5041
 30
0.0000
  0
VERTEX
  8
0
 10
688.7769
 20
503.0223
 30
0.0000
  0
VERTEX
  8
0
 10
689.1623
 20
502.5776
 30
0.0000
  0
VERTEX
  8
0
 10
689.6998
 20
502.1404
 30
0.0000
  0
VERTEX
  8
0
 10
690.3364
 20
501.7758
 30
0.0000
  0
VERTEX
  8
0
 10
691.0530
 20
501.4950
 30
0.0000
  0
VERTEX
  8
0
 10
691.8276
 20
501.3064
 30
0.0000
  0
VERTEX
  8
0
 10
692.6368
 20
501.2157
 30
0.0000
  0
VERTEX
  8
0
 10
693.4559
 20
501.2258
 30
0.0000
  0
VERTEX
  8
0
 10
694.2601
 20
501.3364
 30
0.0000
  0
VERTEX
  8
0
 10
695.0250
 20
501.5440
 30
0.0000
  0
VERTEX
  8
0
 10
695.7272
 20
501.8424
 30
0.0000
  0
VERTEX
  8
0
 10
696.2880
 20
502.1810
 30
0.0000
  0
SEQEND
  0
POLYLINE
  6
continous
  8
BYBLOCK
 70
0
 66
1
  0
VERTEX
  8
0
 10
689.6412
 20
506.8810
 30
0.0000
  0
VERTEX
  8
0
 10
689.1146
 20
506.4373
 30
0.0000
  0
VERTEX
  8
0
 10
688.7403
 20
505.9879
 30
0.0000
  0
VERTEX
  8
0
 10
688.4700
 20
505.5027
 30
0.0000
  0
VERTEX
  8
0
 10
688.3104
 20
504.9936
 30
0.0000
  0
VERTEX
  8
0
 10
688.2646
 20
504.5310
 30
0.0000
  0
SEQEND
  0
POLYLINE
  6
continous
  8
BYBLOCK
 70
0
 66
1
  0
VERTEX
  8
0
 10
697.6646
 20
504.5310
 30
0.0000
  0
VERTEX
  8
0
 10
697.6068
 20
505.0509
 30
0.0000
  0
VERTEX
  8
0
 10
697.4346
 20
505.5580
 30
0.0000
  0
VERTEX
  8
0
 10
697.1524
 20
506.0398
 30
0.0000
  0
VERTEX
  8
0
 10
696.7670
 20
506.4845
 30
0.0000
  0
VERTEX
  8
0
 10
696.2295
 20
506.9217
 30
0.0000
  0
VERTEX
  8
0
 10
695.5929
 20
507.2863
 30
0.0000
  0
VERTEX
  8
0
 10
694.8763
 20
507.5671
 30
0.0000
  0
VERTEX
  8
0
 10
694.1017
 20
507.7557
 30
0.0000
  0
VERTEX
  8
0
 10
693.2925
 20
507.8464
 30
0.0000
  0
VERTEX
  8
0
 10
692.4734
 20
507.8362
 30
0.0000
  0
VERTEX
  8
0
 10
691.6691
 20
507.7257
 30
0.0000
  0
VERTEX
  8
0
 10
690.9043
 20
507.5181
 30
0.0000
  0
VERTEX
  8
0
 10
690.2021
 20
507.2197
 30
0.0000
  0
VERTEX
  8
0
 10
689.6412
 20
506.8810
 30
0.0000
  0
SEQEND
  0
POLYLINE
  6
continous
  8
BYBLOCK
 70
0
 66
1
  0
VERTEX
  8
0
 10
696.2880
 20
502.1810
 30
0.0000
  0
VERTEX
  8
0
 10
696.8147
 20
502.6248
 30
0.0000
  0
VERTEX
  8
0
 10
697.1890
 20
503.0742
 30
0.0000
  0
VERTEX
  8
0
 10
697.4593
 20
503.5594
 30
0.0000
  0
VERTEX
  8
0
 10
697.6189
 20
504.0685
 30
0.0000
  0
VERTEX
  8
0
 10
697.6646
 20
504.5310
 30
0.0000
  0
SEQEND
  0
POLYLINE
  6
continous
  8
BYBLOCK
 70
0
 66
1
  0
VERTEX
  8
0
 10
645.8382
 20
474.5310
 30
0.0000
  0
VERTEX
  8
0
 10
645.8961
 20
474.0111
 30
0.0000
  0
VERTEX
  8
0
 10
646.0683
 20
473.5041
 30
0.0000
  0
VERTEX
  8
0
 10
646.3505
 20
473.0223
 30
0.0000
  0
VERTEX
  8
0
 10
646.7359
 20
472.5776
 30
0.0000
  0
VERTEX
  8
0
 10
647.2733
 20
472.1404
 30
0.0000
  0
VERTEX
  8
0
 10
647.9100
 20
471.7758
 30
0.0000
  0
VERTEX
  8
0
 10
648.6266
 20
471.4950
 30
0.0000
  0
VERTEX
  8
0
 10
649.4012
 20
471.3064
 30
0.0000
  0
VERTEX
  8
0
 10
650.2104
 20
471.2157
 30
0.0000
  0
VERTEX
  8
0
 10
651.0295
 20
471.2258
 30
0.0000
  0
VERTEX
  8
0
 10
651.8337
 20
471.3364
 30
0.0000
  0
VERTEX
  8
0
 10
652.5986
 20
471.5440
 30
0.0000
  0
VERTEX
  8
0
 10
653.3008
 20
471.8424
 30
0.0000
  0
VERTEX
  8
0
 10
653.8616
 20
472.1810
 30
0.0000
  0
SEQEND
  0
POLYLINE
  6
continous
  8
BYBLOCK
 70
0
 66
1
  0
VERTEX
  8
0
 10
647.2148
 20
476.8810
 30
0.0000
  0
VERTEX
  8
0
 10
646.6882
 20
476.4373
 30
0.0000
  0
VERTEX
  8
0
 10
646.3139
 20
475.9879
 30
0.0000
  0
VERTEX
  8
0
 10
646.0436
 20
475.5027
 30
0.0000
  0
VERTEX
  8
0
 10
645.8840
 20
474.9936
 30
0.0000
  0
VERTEX
  8
0
 10
645.8382
 20
474.5310
 30
0.0000
  0
SEQEND
  0
POLYLINE
  6
continous
  8
BYBLOCK
 70
0
 66
1
  0
VERTEX
  8
0
 10
655.2382
 20
474.5310
 30
0.0000
  0
VERTEX
  8
0
 10
655.1804
 20
475.0509
 30
0.0000
  0
VERTEX
  8
0
 10
655.0082
 20
475.5580
 30
0.0000
  0
VERTEX
  8
0
 10
654.7260
 20
476.0398
 30
0.0000
  0
VERTEX
  8
0
 10
654.3406
 20
476.4845
 30
0.0000
  0
VERTEX
  8
0
 10
653.8031
 20
476.9217
 30
0.0000
  0
VERTEX
  8
0
 10
653.1664
 20
477.2863
 30
0.0000
  0
VERTEX
  8
0
 10
652.4499
 20
477.5671
 30
0.0000
  0
VERTEX
  8
0
 10
651.6753
 20
477.7557
 30
0.0000
  0
VERTEX
  8
0
 10
650.8661
 20
477.8464
 30
0.0000
  0
VERTEX
  8
0
 10
650.0470
 20
477.8362
 30
0.0000
  0
VERTEX
  8
0
 10
649.2427
 20
477.7257
 30
0.0000
  0
VERTEX
  8
0
 10
648.4779
 20
477.5181
 30
0.0000
  0
VERTEX
  8
0
 10
647.7756
 20
477.2197
 30
0.0000
  0
VERTEX
  8
0
 10
647.2148
 20
476.8810
 30
0.0000
  0
SEQEND
  0
POLYLINE
  6
continous
  8
BYBLOCK
 70
0
 66
1
  0
VERTEX
  8
0
 10
653.8616
 20
472.1810
 30
0.0000
  0
VERTEX
  8
0
 10
654.3883
 20
472.6248
 30
0.0000
  0
VERTEX
  8
0
 10
654.7626
 20
473.0742
 30
0.0000
  0
VERTEX
  8
0
 10
655.0329
 20
473.5594
 30
0.0000
  0
VERTEX
  8
0
 10
655.1925
 20
474.0685
 30
0.0000
  0
VERTEX
  8
0
 10
655.2382
 20
474.5310
 30
0.0000
  0
SEQEND
  0
POLYLINE
  6
continous
  8
BYBLOCK
 70
0
 66
1
  0
VERTEX
  8
0
 10
603.4118
 20
444.5310
 30
0.0000
  0
VERTEX
  8
0
 10
603.4697
 20
444.0111
 30
0.0000
  0
VERTEX
  8
0
 10
603.6419
 20
443.5041
 30
0.0000
  0
VERTEX
  8
0
 10
603.9241
 20
443.0223
 30
0.0000
  0
VERTEX
  8
0
 10
604.3095
 20
442.5776
 30
0.0000
  0
VERTEX
  8
0
 10
604.8469
 20
442.1404
 30
0.0000
  0
VERTEX
  8
0
 10
605.4836
 20
441.7758
 30
0.0000
  0
VERTEX
  8
0
 10
606.2002
 20
441.4950
 30
0.0000
  0
VERTEX
  8
0
 10
606.9748
 20
441.3064
 30
0.0000
  0
VERTEX
  8
0
 10
607.7840
 20
441.2157
 30
0.0000
  0
VERTEX
  8
0
 10
608.6031
 20
441.2258
 30
0.0000
  0
VERTEX
  8
0
 10
609.4073
 20
441.3364
 30
0.0000
  0
VERTEX
  8
0
 10
610.1722
 20
441.5440
 30
0.0000
  0
VERTEX
  8
0
 10
610.8744
 20
441.8424
 30
0.0000
  0
VERTEX
  8
0
 10
611.4352
 20
442.1810
 30
0.0000
  0
SEQEND
  0
POLYLINE
  6
continous
  8
BYBLOCK
 70
0
 66
1
  0
VERTEX
  8
0
 10
604.7884
 20
446.8810
 30
0.0000
  0
VERTEX
  8
0
 10
604.2618
 20
446.4373
 30
0.0000
  0
VERTEX
  8
0
 10
603.8875
 20
445.9879
 30
0.0000
  0
VERTEX
  8
0
 10
603.6172
 20
445.5027
 30
0.0000
  0
VERTEX
  8
0
 10
603.4576
 20
444.9936
 30
0.0000
  0
VERTEX
  8
0
 10
603.4118
 20
444.5310
 30
0.0000
  0
SEQEND
  0
POLYLINE
  6
continous
  8
BYBLOCK
 70
0
 66
1
  0
VERTEX
  8
0
 10
612.8118
 20
444.5310
 30
0.0000
  0
VERTEX
  8
0
 10
612.7540
 20
445.0509
 30
0.0000
  0
VERTEX
  8
0
 10
612.5818
 20
445.5580
 30
0.0000
  0
VERTEX
  8
0
 10
612.2996
 20
446.0398
 30
0.0000
  0
VERTEX
  8
0
 10
611.9142
 20
446.4845
 30
0.0000
  0
VERTEX
  8
0
 10
611.3767
 20
446.9217
 30
0.0000
  0
VERTEX
  8
0
 10
610.7400
 20
447.2863
 30
0.0000
  0
VERTEX
  8
0
 10
610.0235
 20
447.5671
 30
0.0000
  0
VERTEX
  8
0
 10
609.2489
 20
447.7557
 30
0.0000
  0
VERTEX
  8
0
 10
608.4397
 20
447.8464
 30
0.0000
  0
VERTEX
  8
0
 10
607.6205
 20
447.8362
 30
0.0000
  0
VERTEX
  8
0
 10
606.8163
 20
447.7257
 30
0.0000
  0
VERTEX
  8
0
 10
606.0515
 20
447.5181
 30
0.0000
  0
VERTEX
  8
0
 10
605.3492
 20
447.2197
 30
0.0000
  0
VERTEX
  8
0
 10
604.7884
 20
446.8810
 30
0.0000
  0
SEQEND
  0
POLYLINE
  6
continous
  8
BYBLOCK
 70
0
 66
1
  0
VERTEX
  8
0
 10
611.4352
 20
442.1810
 30
0.0000
  0
VERTEX
  8
0
 10
611.9618
 20
442.6248
 30
0.0000
  0
VERTEX
  8
0
 10
612.3362
 20
443.0742
 30
0.0000
  0
VERTEX
  8
0
 10
612.6065
 20
443.5594
 30
0.0000
  0
VERTEX
  8
0
 10
612.7661
 20
444.0685
 30
0.0000
  0
VERTEX
  8
0
 10
612.8118
 20
444.5310
 30
0.0000
  0
SEQEND
  0
POLYLINE
  6
continous
  8
BYBLOCK
 70
0
 66
1
  0
VERTEX
  8
0
 10
560.9854
 20
414.5310
 30
0.0000
  0
VERTEX
  8
0
 10
561.0433
 20
414.0111
 30
0.0000
  0
VERTEX
  8
0
 10
561.2155
 20
413.5041
 30
0.0000
  0
VERTEX
  8
0
 10
561.4977
 20
413.0223
 30
0.0000
  0
VERTEX
  8
0
 10
561.8830
 20
412.5776
 30
0.0000
  0
VERTEX
  8
0
 10
562.4205
 20
412.1404
 30
0.0000
  0
VERTEX
  8
0
 10
563.0572
 20
411.7758
 30
0.0000
  0
VERTEX
  8
0
 10
563.7738
 20
411.4950
 30
0.0000
  0
VERTEX
  8
0
 10
564.5484
 20
411.3064
 30
0.0000
  0
VERTEX
  8
0
 10
565.3576
 20
411.2157
 30
0.0000
  0
VERTEX
  8
0
 10
566.1767
 20
411.2258
 30
0.0000
  0
VERTEX
  8
0
 10
566.9809
 20
411.3364
 30
0.0000
  0
VERTEX
  8
0
 10
567.7458
 20
411.5440
 30
0.0000
  0
VERTEX
  8
0
 10
568.4480
 20
411.8424
 30
0.0000
  0
VERTEX
  8
0
 10
569.0088
 20
412.1810
 30
0.0000
  0
SEQEND
  0
POLYLINE
  6
continous
  8
BYBLOCK
 70
0
 66
1
  0
VERTEX
  8
0
 10
562.3620
 20
416.8810
 30
0.0000
  0
VERTEX
  8
0
 10
561.8354
 20
416.4373
 30
0.0000
  0
VERTEX
  8
0
 10
561.4611
 20
415.9879
 30
0.0000
  0
VERTEX
  8
0
 10
561.1908
 20
415.5027
 30
0.0000
  0
VERTEX
  8
0
 10
561.0312
 20
414.9936
 30
0.0000
  0
VERTEX
  8
0
 10
560.9854
 20
414.5310
 30
0.0000
  0
SEQEND
  0
POLYLINE
  6
continous
  8
BYBLOCK
 70
0
 66
1
  0
VERTEX
  8
0
 10
570.3854
 20
414.5310
 30
0.0000
  0
VERTEX
  8
0
 10
570.3276
 20
415.0509
 30
0.0000
  0
VERTEX
  8
0
 10
570.1554
 20
415.5580
 30
0.0000
  0
VERTEX
  8
0
 10
569.8732
 20
416.0398
 30
0.0000
  0
VERTEX
  8
0
 10
569.4878
 20
416.4845
 30
0.0000
  0
VERTEX
  8
0
 10
568.9503
 20
416.9217
 30
0.0000
  0
VERTEX
  8
0
 10
568.3136
 20
417.2863
 30
0.0000
  0
VERTEX
  8
0
 10
567.5971
 20
417.5671
 30
0.0000
  0
VERTEX
  8
0
 10
566.8225
 20
417.7557
 30
0.0000
  0
VERTEX
  8
0
 10
566.0133
 20
417.8464
 30
0.0000
  0
VERTEX
  8
0
 10
565.1941
 20
417.8362
 30
0.0000
  0
VERTEX
  8
0
 10
564.3899
 20
417.7257
 30
0.0000
  0
VERTEX
  8
0
 10
563.6251
 20
417.5181
 30
0.0000
  0
VERTEX
  8
0
 10
562.9228
 20
417.2197
 30
0.0000
  0
VERTEX
  8
0
 10
562.3620
 20
416.8810
 30
0.0000
  0
SEQEND
  0
POLYLINE
  6
continous
  8
BYBLOCK
 70
0
 66
1
  0
VERTEX
  8
0
 10
569.0088
 20
412.1810
 30
0.0000
  0
VERTEX
  8
0
 10
569.5354
 20
412.6248
 30
0.0000
  0
VERTEX
  8
0
 10
569.9098
 20
413.0742
 30
0.0000
  0
VERTEX
  8
0
 10
570.1801
 20
413.5594
 30
0.0000
  0
VERTEX
  8
0
 10
570.3397
 20
414.0685
 30
0.0000
  0
VERTEX
  8
0
 10
570.3854
 20
414.5310
 30
0.0000
  0
SEQEND
  0
POLYLINE
  6
continous
  8
BYBLOCK
 70
0
 66
1
  0
VERTEX
  8
0
 10
518.5590
 20
384.5310
 30
0.0000
  0
VERTEX
  8
0
 10
518.6169
 20
384.0111
 30
0.0000
  0
VERTEX
  8
0
 10
518.7891
 20
383.5041
 30
0.0000
  0
VERTEX
  8
0
 10
519.0713
 20
383.0223
 30
0.0000
  0
VERTEX
  8
0
 10
519.4566
 20
382.5776
 30
0.0000
  0
VERTEX
  8
0
 10
519.9941
 20
382.1404
 30
0.0000
  0
VERTEX
  8
0
 10
520.6308
 20
381.7758
 30
0.0000
  0
VERTEX
  8
0
 10
521.3474
 20
381.4950
 30
0.0000
  0
VERTEX
  8
0
 10
522.1220
 20
381.3064
 30
0.0000
  0
VERTEX
  8
0
 10
522.9312
 20
381.2157
 30
0.0000
  0
VERTEX
  8
0
 10
523.7503
 20
381.2258
 30
0.0000
  0
VERTEX
  8
0
 10
524.5545
 20
381.3364
 30
0.0000
  0
VERTEX
  8
0
 10
525.3194
 20
381.5440
 30
0.0000
  0
VERTEX
  8
0
 10
526.0216
 20
381.8424
 30
0.0000
  0
VERTEX
  8
0
 10
526.5824
 20
382.1810
 30
0.0000
  0
SEQEND
  0
POLYLINE
  6
continous
  8
BYBLOCK
 70
0
 66
1
  0
VERTEX
  8
0
 10
519.9356
 20
386.8810
 30
0.0000
  0
VERTEX
  8
0
 10
519.4090
 20
386.4373
 30
0.0000
  0
VERTEX
  8
0
 10
519.0347
 20
385.9879
 30
0.0000
  0
VERTEX
  8
0
 10
518.7644
 20
385.5027
 30
0.0000
  0
VERTEX
  8
0
 10
518.6048
 20
384.9936
 30
0.0000
  0
VERTEX
  8
0
 10
518.5590
 20
384.5310
 30
0.0000
  0
SEQEND
  0
POLYLINE
  6
continous
  8
BYBLOCK
 70
0
 66
1
  0
VERTEX
  8
0
 10
527.9590
 20
384.5310
 30
0.0000
  0
VERTEX
  8
0
 10
527.9012
 20
385.0509
 30
0.0000
  0
VERTEX
  8
0
 10
527.7290
 20
385.5580
 30
0.0000
  0
VERTEX
  8
0
 10
527.4467
 20
386.0398
 30
0.0000
  0
VERTEX
  8
0
 10
527.0614
 20
386.4845
 30
0.0000
  0
VERTEX
  8
0
 10
526.5239
 20
386.9217
 30
0.0000
  0
VERTEX
  8
0
 10
525.8872
 20
387.2863
 30
0.0000
  0
VERTEX
  8
0
 10
525.1707
 20
387.5671
 30
0.0000
  0
VERTEX
  8
0
 10
524.3961
 20
387.7557
 30
0.0000
  0
VERTEX
  8
0
 10
523.5869
 20
387.8464
 30
0.0000
  0
VERTEX
  8
0
 10
522.7677
 20
387.8362
 30
0.0000
  0
VERTEX
  8
0
 10
521.9635
 20
387.7257
 30
0.0000
  0
VERTEX
  8
0
 10
521.1987
 20
387.5181
 30
0.0000
  0
VERTEX
  8
0
 10
520.4964
 20
387.2197
 30
0.0000
  0
VERTEX
  8
0
 10
519.9356
 20
386.8810
 30
0.0000
  0
SEQEND
  0
POLYLINE
  6
continous
  8
BYBLOCK
 70
0
 66
1
  0
VERTEX
  8
0
 10
526.5824
 20
382.1810
 30
0.0000
  0
VERTEX
  8
0
 10
527.1090
 20
382.6248
 30
0.0000
  0
VERTEX
  8
0
 10
527.4834
 20
383.0742
 30
0.0000
  0
VERTEX
  8
0
 10
527.7537
 20
383.5594
 30
0.0000
  0
VERTEX
  8
0
 10
527.9133
 20
384.0685
 30
0.0000
  0
VERTEX
  8
0
 10
527.9590
 20
384.5310
 30
0.0000
  0
SEQEND
  0
POLYLINE
  6
continous
  8
BYBLOCK
 70
0
 66
1
  0
VERTEX
  8
0
 10
476.1326
 20
354.5310
 30
0.0000
  0
VERTEX
  8
0
 10
476.1905
 20
354.0111
 30
0.0000
  0
VERTEX
  8
0
 10
476.3626
 20
353.5041
 30
0.0000
  0
VERTEX
  8
0
 10
476.6449
 20
353.0223
 30
0.0000
  0
VERTEX
  8
0
 10
477.0302
 20
352.5776
 30
0.0000
  0
VERTEX
  8
0
 10
477.5677
 20
352.1404
 30
0.0000
  0
VERTEX
  8
0
 10
478.2044
 20
351.7758
 30
0.0000
  0
VERTEX
  8
0
 10
478.9209
 20
351.4950
 30
0.0000
  0
VERTEX
  8
0
 10
479.6956
 20
351.3064
 30
0.0000
  0
VERTEX
  8
0
 10
480.5048
 20
351.2157
 30
0.0000
  0
VERTEX
  8
0
 10
481.3239
 20
351.2258
 30
0.0000
  0
VERTEX
  8
0
 10
482.1281
 20
351.3364
 30
0.0000
  0
VERTEX
  8
0
 10
482.8930
 20
351.5440
 30
0.0000
  0
VERTEX
  8
0
 10
483.5952
 20
351.8424
 30
0.0000
  0
VERTEX
  8
0
 10
484.1560
 20
352.1810
 30
0.0000
  0
SEQEND
  0
POLYLINE
  6
continous
  8
BYBLOCK
 70
0
 66
1
  0
VERTEX
  8
0
 10
477.5092
 20
356.8810
 30
0.0000
  0
VERTEX
  8
0
 10
476.9826
 20
356.4373
 30
0.0000
  0
VERTEX
  8
0
 10
476.6083
 20
355.9879
 30
0.0000
  0
VERTEX
  8
0
 10
476.3380
 20
355.5027
 30
0.0000
  0
VERTEX
  8
0
 10
476.1784
 20
354.9936
 30
0.0000
  0
VERTEX
  8
0
 10
476.1326
 20
354.5310
 30
0.0000
  0
SEQEND
  0
POLYLINE
  6
continous
  8
BYBLOCK
 70
0
 66
1
  0
VERTEX
  8
0
 10
485.5326
 20
354.5310
 30
0.0000
  0
VERTEX
  8
0
 10
485.4747
 20
355.0509
 30
0.0000
  0
VERTEX
  8
0
 10
485.3026
 20
355.5580
 30
0.0000
  0
VERTEX
  8
0
 10
485.0203
 20
356.0398
 30
0.0000
  0
VERTEX
  8
0
 10
484.6350
 20
356.4845
 30
0.0000
  0
VERTEX
  8
0
 10
484.0975
 20
356.9217
 30
0.0000
  0
VERTEX
  8
0
 10
483.4608
 20
357.2863
 30
0.0000
  0
VERTEX
  8
0
 10
482.7443
 20
357.5671
 30
0.0000
  0
VERTEX
  8
0
 10
481.9696
 20
357.7557
 30
0.0000
  0
VERTEX
  8
0
 10
481.1605
 20
357.8464
 30
0.0000
  0
VERTEX
  8
0
 10
480.3413
 20
357.8362
 30
0.0000
  0
VERTEX
  8
0
 10
479.5371
 20
357.7257
 30
0.0000
  0
VERTEX
  8
0
 10
478.7723
 20
357.5181
 30
0.0000
  0
VERTEX
  8
0
 10
478.0700
 20
357.2197
 30
0.0000
  0
VERTEX
  8
0
 10
477.5092
 20
356.8810
 30
0.0000
  0
SEQEND
  0
POLYLINE
  6
continous
  8
BYBLOCK
 70
0
 66
1
  0
VERTEX
  8
0
 10
484.1560
 20
352.1810
 30
0.0000
  0
VERTEX
  8
0
 10
484.6826
 20
352.6248
 30
0.0000
  0
VERTEX
  8
0
 10
485.0569
 20
353.0742
 30
0.0000
  0
VERTEX
  8
0
 10
485.3272
 20
353.5594
 30
0.0000
  0
VERTEX
  8
0
 10
485.4869
 20
354.0685
 30
0.0000
  0
VERTEX
  8
0
 10
485.5326
 20
354.5310
 30
0.0000
  0
SEQEND
  0
POLYLINE
  6
continous
  8
BYBLOCK
 70
0
 66
1
  0
VERTEX
  8
0
 10
433.7062
 20
324.5310
 30
0.0000
  0
VERTEX
  8
0
 10
433.7641
 20
324.0111
 30
0.0000
  0
VERTEX
  8
0
 10
433.9362
 20
323.5041
 30
0.0000
  0
VERTEX
  8
0
 10
434.2185
 20
323.0223
 30
0.0000
  0
VERTEX
  8
0
 10
434.6038
 20
322.5776
 30
0.0000
  0
VERTEX
  8
0
 10
435.1413
 20
322.1404
 30
0.0000
  0
VERTEX
  8
0
 10
435.7780
 20
321.7758
 30
0.0000
  0
VERTEX
  8
0
 10
436.4945
 20
321.4950
 30
0.0000
  0
VERTEX
  8
0
 10
437.2692
 20
321.3064
 30
0.0000
  0
VERTEX
  8
0
 10
438.0783
 20
321.2157
 30
0.0000
  0
VERTEX
  8
0
 10
438.8975
 20
321.2258
 30
0.0000
  0
VERTEX
  8
0
 10
439.7017
 20
321.3364
 30
0.0000
  0
VERTEX
  8
0
 10
440.4665
 20
321.5440
 30
0.0000
  0
VERTEX
  8
0
 10
441.1688
 20
321.8424
 30
0.0000
  0
VERTEX
  8
0
 10
441.7296
 20
322.1810
 30
0.0000
  0
SEQEND
  0
POLYLINE
  6
continous
  8
BYBLOCK
 70
0
 66
1
  0
VERTEX
  8
0
 10
435.0828
 20
326.8810
 30
0.0000
  0
VERTEX
  8
0
 10
434.5562
 20
326.4373
 30
0.0000
  0
VERTEX
  8
0
 10
434.1819
 20
325.9879
 30
0.0000
  0
VERTEX
  8
0
 10
433.9116
 20
325.5027
 30
0.0000
  0
VERTEX
  8
0
 10
433.7519
 20
324.9936
 30
0.0000
  0
VERTEX
  8
0
 10
433.7062
 20
324.5310
 30
0.0000
  0
SEQEND
  0
POLYLINE
  6
continous
  8
BYBLOCK
 70
0
 66
1
  0
VERTEX
  8
0
 10
443.1062
 20
324.5310
 30
0.0000
  0
VERTEX
  8
0
 10
443.0483
 20
325.0509
 30
0.0000
  0
VERTEX
  8
0
 10
442.8762
 20
325.5580
 30
0.0000
  0
VERTEX
  8
0
 10
442.5939
 20
326.0398
 30
0.0000
  0
VERTEX
  8
0
 10
442.2086
 20
326.4845
 30
0.0000
  0
VERTEX
  8
0
 10
441.6711
 20
326.9217
 30
0.0000
  0
VERTEX
  8
0
 10
441.0344
 20
327.2863
 30
0.0000
  0
VERTEX
  8
0
 10
440.3179
 20
327.5671
 30
0.0000
  0
VERTEX
  8
0
 10
439.5432
 20
327.7557
 30
0.0000
  0
VERTEX
  8
0
 10
438.7341
 20
327.8464
 30
0.0000
  0
VERTEX
  8
0
 10
437.9149
 20
327.8362
 30
0.0000
  0
VERTEX
  8
0
 10
437.1107
 20
327.7257
 30
0.0000
  0
VERTEX
  8
0
 10
436.3459
 20
327.5181
 30
0.0000
  0
VERTEX
  8
0
 10
435.6436
 20
327.2197
 30
0.0000
  0
VERTEX
  8
0
 10
435.0828
 20
326.8810
 30
0.0000
  0
SEQEND
  0
POLYLINE
  6
continous
  8
BYBLOCK
 70
0
 66
1
  0
VERTEX
  8
0
 10
441.7296
 20
322.1810
 30
0.0000
  0
VERTEX
  8
0
 10
442.2562
 20
322.6248
 30
0.0000
  0
VERTEX
  8
0
 10
442.6305
 20
323.0742
 30
0.0000
  0
VERTEX
  8
0
 10
442.9008
 20
323.5594
 30
0.0000
  0
VERTEX
  8
0
 10
443.0605
 20
324.0685
 30
0.0000
  0
VERTEX
  8
0
 10
443.1062
 20
324.5310
 30
0.0000
  0
SEQEND
  0
POLYLINE
  6
continous
  8
BYBLOCK
 70
0
 66
1
  0
VERTEX
  8
0
 10
391.2798
 20
294.5310
 30
0.0000
  0
VERTEX
  8
0
 10
391.3377
 20
294.0111
 30
0.0000
  0
VERTEX
  8
0
 10
391.5098
 20
293.5041
 30
0.0000
  0
VERTEX
  8
0
 10
391.7921
 20
293.0223
 30
0.0000
  0
VERTEX
  8
0
 10
392.1774
 20
292.5776
 30
0.0000
  0
VERTEX
  8
0
 10
392.7149
 20
292.1404
 30
0.0000
  0
VERTEX
  8
0
 10
393.3516
 20
291.7758
 30
0.0000
  0
VERTEX
  8
0
 10
394.0681
 20
291.4950
 30
0.0000
  0
VERTEX
  8
0
 10
394.8428
 20
291.3064
 30
0.0000
  0
VERTEX
  8
0
 10
395.6519
 20
291.2157
 30
0.0000
  0
VERTEX
  8
0
 10
396.4711
 20
291.2258
 30
0.0000
  0
VERTEX
  8
0
 10
397.2753
 20
291.3364
 30
0.0000
  0
VERTEX
  8
0
 10
398.0401
 20
291.5440
 30
0.0000
  0
VERTEX
  8
0
 10
398.7424
 20
291.8424
 30
0.0000
  0
VERTEX
  8
0
 10
399.3032
 20
292.1810
 30
0.0000
  0
SEQEND
  0
POLYLINE
  6
continous
  8
BYBLOCK
 70
0
 66
1
  0
VERTEX
  8
0
 10
392.6564
 20
296.8810
 30
0.0000
  0
VERTEX
  8
0
 10
392.1298
 20
296.4373
 30
0.0000
  0
VERTEX
  8
0
 10
391.7555
 20
295.9879
 30
0.0000
  0
VERTEX
  8
0
 10
391.4852
 20
295.5027
 30
0.0000
  0
VERTEX
  8
0
 10
391.3255
 20
294.9936
 30
0.0000
  0
VERTEX
  8
0
 10
391.2798
 20
294.5310
 30
0.0000
  0
SEQEND
  0
POLYLINE
  6
continous
  8
BYBLOCK
 70
0
 66
1
  0
VERTEX
  8
0
 10
400.6798
 20
294.5310
 30
0.0000
  0
VERTEX
  8
0
 10
400.6219
 20
295.0509
 30
0.0000
  0
VERTEX
  8
0
 10
400.4498
 20
295.5580
 30
0.0000
  0
VERTEX
  8
0
 10
400.1675
 20
296.0398
 30
0.0000
  0
VERTEX
  8
0
 10
399.7822
 20
296.4845
 30
0.0000
  0
VERTEX
  8
0
 10
399.2447
 20
296.9217
 30
0.0000
  0
VERTEX
  8
0
 10
398.6080
 20
297.2863
 30
0.0000
  0
VERTEX
  8
0
 10
397.8915
 20
297.5671
 30
0.0000
  0
VERTEX
  8
0
 10
397.1168
 20
297.7557
 30
0.0000
  0
VERTEX
  8
0
 10
396.3077
 20
297.8464
 30
0.0000
  0
VERTEX
  8
0
 10
395.4885
 20
297.8362
 30
0.0000
  0
VERTEX
  8
0
 10
394.6843
 20
297.7257
 30
0.0000
  0
VERTEX
  8
0
 10
393.9195
 20
297.5181
 30
0.0000
  0
VERTEX
  8
0
 10
393.2172
 20
297.2197
 30
0.0000
  0
VERTEX
  8
0
 10
392.6564
 20
296.8810
 30
0.0000
  0
SEQEND
  0
POLYLINE
  6
continous
  8
BYBLOCK
 70
0
 66
1
  0
VERTEX
  8
0
 10
399.3032
 20
292.1810
 30
0.0000
  0
VERTEX
  8
0
 10
399.8298
 20
292.6248
 30
0.0000
  0
VERTEX
  8
0
 10
400.2041
 20
293.0742
 30
0.0000
  0
VERTEX
  8
0
 10
400.4744
 20
293.5594
 30
0.0000
  0
VERTEX
  8
0
 10
400.6341
 20
294.0685
 30
0.0000
  0
VERTEX
  8
0
 10
400.6798
 20
294.5310
 30
0.0000
  0
SEQEND
  0
POLYLINE
  6
continous
  8
BYBLOCK
 70
0
 66
1
  0
VERTEX
  8
0
 10
348.8534
 20
264.5310
 30
0.0000
  0
VERTEX
  8
0
 10
348.9113
 20
264.0111
 30
0.0000
  0
VERTEX
  8
0
 10
349.0834
 20
263.5041
 30
0.0000
  0
VERTEX
  8
0
 10
349.3657
 20
263.0223
 30
0.0000
  0
VERTEX
  8
0
 10
349.7510
 20
262.5776
 30
0.0000
  0
VERTEX
  8
0
 10
350.2885
 20
262.1404
 30
0.0000
  0
VERTEX
  8
0
 10
350.9252
 20
261.7758
 30
0.0000
  0
VERTEX
  8
0
 10
351.6417
 20
261.4950
 30
0.0000
  0
VERTEX
  8
0
 10
352.4164
 20
261.3064
 30
0.0000
  0
VERTEX
  8
0
 10
353.2255
 20
261.2157
 30
0.0000
  0
VERTEX
  8
0
 10
354.0447
 20
261.2258
 30
0.0000
  0
VERTEX
  8
0
 10
354.8489
 20
261.3364
 30
0.0000
  0
VERTEX
  8
0
 10
355.6137
 20
261.5440
 30
0.0000
  0
VERTEX
  8
0
 10
356.3160
 20
261.8424
 30
0.0000
  0
VERTEX
  8
0
 10
356.8768
 20
262.1810
 30
0.0000
  0
SEQEND
  0
POLYLINE
  6
continous
  8
BYBLOCK
 70
0
 66
1
  0
VERTEX
  8
0
 10
350.2300
 20
266.8810
 30
0.0000
  0
VERTEX
  8
0
 10
349.7034
 20
266.4373
 30
0.0000
  0
VERTEX
  8
0
 10
349.3291
 20
265.9879
 30
0.0000
  0
VERTEX
  8
0
 10
349.0588
 20
265.5027
 30
0.0000
  0
VERTEX
  8
0
 10
348.8991
 20
264.9936
 30
0.0000
  0
VERTEX
  8
0
 10
348.8534
 20
264.5310
 30
0.0000
  0
SEQEND
  0
POLYLINE
  6
continous
  8
BYBLOCK
 70
0
 66
1
  0
VERTEX
  8
0
 10
358.2534
 20
264.5310
 30
0.0000
  0
VERTEX
  8
0
 10
358.1955
 20
265.0509
 30
0.0000
  0
VERTEX
  8
0
 10
358.0234
 20
265.5580
 30
0.0000
  0
VERTEX
  8
0
 10
357.7411
 20
266.0398
 30
0.0000
  0
VERTEX
  8
0
 10
357.3558
 20
266.4845
 30
0.0000
  0
VERTEX
  8
0
 10
356.8183
 20
266.9217
 30
0.0000
  0
VERTEX
  8
0
 10
356.1816
 20
267.2863
 30
0.0000
  0
VERTEX
  8
0
 10
355.4651
 20
267.5671
 30
0.0000
  0
VERTEX
  8
0
 10
354.6904
 20
267.7557
 30
0.0000
  0
VERTEX
  8
0
 10
353.8812
 20
267.8464
 30
0.0000
  0
VERTEX
  8
0
 10
353.0621
 20
267.8362
 30
0.0000
  0
VERTEX
  8
0
 10
352.2579
 20
267.7257
 30
0.0000
  0
VERTEX
  8
0
 10
351.4930
 20
267.5181
 30
0.0000
  0
VERTEX
  8
0
 10
350.7908
 20
267.2197
 30
0.0000
  0
VERTEX
  8
0
 10
350.2300
 20
266.8810
 30
0.0000
  0
SEQEND
  0
POLYLINE
  6
continous
  8
BYBLOCK
 70
0
 66
1
  0
VERTEX
  8
0
 10
356.8768
 20
262.1810
 30
0.0000
  0
VERTEX
  8
0
 10
357.4034
 20
262.6248
 30
0.0000
  0
VERTEX
  8
0
 10
357.7777
 20
263.0742
 30
0.0000
  0
VERTEX
  8
0
 10
358.0480
 20
263.5594
 30
0.0000
  0
VERTEX
  8
0
 10
358.2077
 20
264.0685
 30
0.0000
  0
VERTEX
  8
0
 10
358.2534
 20
264.5310
 30
0.0000
  0
SEQEND
  0
POLYLINE
  6
continous
  8
BYBLOCK
 70
0
 66
1
  0
VERTEX
  8
0
 10
306.4270
 20
234.5310
 30
0.0000
  0
VERTEX
  8
0
 10
306.4848
 20
234.0111
 30
0.0000
  0
VERTEX
  8
0
 10
306.6570
 20
233.5041
 30
0.0000
  0
VERTEX
  8
0
 10
306.9393
 20
233.0223
 30
0.0000
  0
VERTEX
  8
0
 10
307.3246
 20
232.5776
 30
0.0000
  0
VERTEX
  8
0
 10
307.8621
 20
232.1404
 30
0.0000
  0
VERTEX
  8
0
 10
308.4988
 20
231.7758
 30
0.0000
  0
VERTEX
  8
0
 10
309.2153
 20
231.4950
 30
0.0000
  0
VERTEX
  8
0
 10
309.9900
 20
231.3064
 30
0.0000
  0
VERTEX
  8
0
 10
310.7991
 20
231.2157
 30
0.0000
  0
VERTEX
  8
0
 10
311.6183
 20
231.2258
 30
0.0000
  0
VERTEX
  8
0
 10
312.4225
 20
231.3364
 30
0.0000
  0
VERTEX
  8
0
 10
313.1873
 20
231.5440
 30
0.0000
  0
VERTEX
  8
0
 10
313.8896
 20
231.8424
 30
0.0000
  0
VERTEX
  8
0
 10
314.4504
 20
232.1810
 30
0.0000
  0
SEQEND
  0
POLYLINE
  6
continous
  8
BYBLOCK
 70
0
 66
1
  0
VERTEX
  8
0
 10
307.8036
 20
236.8810
 30
0.0000
  0
VERTEX
  8
0
 10
307.2770
 20
236.4373
 30
0.0000
  0
VERTEX
  8
0
 10
306.9027
 20
235.9879
 30
0.0000
  0
VERTEX
  8
0
 10
306.6324
 20
235.5027
 30
0.0000
  0
VERTEX
  8
0
 10
306.4727
 20
234.9936
 30
0.0000
  0
VERTEX
  8
0
 10
306.4270
 20
234.5310
 30
0.0000
  0
SEQEND
  0
POLYLINE
  6
continous
  8
BYBLOCK
 70
0
 66
1
  0
VERTEX
  8
0
 10
315.8270
 20
234.5310
 30
0.0000
  0
VERTEX
  8
0
 10
315.7691
 20
235.0509
 30
0.0000
  0
VERTEX
  8
0
 10
315.5969
 20
235.5580
 30
0.0000
  0
VERTEX
  8
0
 10
315.3147
 20
236.0398
 30
0.0000
  0
VERTEX
  8
0
 10
314.9294
 20
236.4845
 30
0.0000
  0
VERTEX
  8
0
 10
314.3919
 20
236.9217
 30
0.0000
  0
VERTEX
  8
0
 10
313.7552
 20
237.2863
 30
0.0000
  0
VERTEX
  8
0
 10
313.0386
 20
237.5671
 30
0.0000
  0
VERTEX
  8
0
 10
312.2640
 20
237.7557
 30
0.0000
  0
VERTEX
  8
0
 10
311.4548
 20
237.8464
 30
0.0000
  0
VERTEX
  8
0
 10
310.6357
 20
237.8362
 30
0.0000
  0
VERTEX
  8
0
 10
309.8315
 20
237.7257
 30
0.0000
  0
VERTEX
  8
0
 10
309.0666
 20
237.5181
 30
0.0000
  0
VERTEX
  8
0
 10
308.3644
 20
237.2197
 30
0.0000
  0
VERTEX
  8
0
 10
307.8036
 20
236.8810
 30
0.0000
  0
SEQEND
  0
POLYLINE
  6
continous
  8
BYBLOCK
 70
0
 66
1
  0
VERTEX
  8
0
 10
314.4504
 20
232.1810
 30
0.0000
  0
VERTEX
  8
0
 10
314.9770
 20
232.6248
 30
0.0000
  0
VERTEX
  8
0
 10
315.3513
 20
233.0742
 30
0.0000
  0
VERTEX
  8
0
 10
315.6216
 20
233.5594
 30
0.0000
  0
VERTEX
  8
0
 10
315.7812
 20
234.0685
 30
0.0000
  0
VERTEX
  8
0
 10
315.8270
 20
234.5310
 30
0.0000
  0
SEQEND
  0
POLYLINE
  6
continous
  8
BYBLOCK
 70
0
 66
1
  0
VERTEX
  8
0
 10
264.0006
 20
204.5310
 30
0.0000
  0
VERTEX
  8
0
 10
264.0584
 20
204.0111
 30
0.0000
  0
VERTEX
  8
0
 10
264.2306
 20
203.5041
 30
0.0000
  0
VERTEX
  8
0
 10
264.5128
 20
203.0223
 30
0.0000
  0
VERTEX
  8
0
 10
264.8982
 20
202.5776
 30
0.0000
  0
VERTEX
  8
0
 10
265.4357
 20
202.1404
 30
0.0000
  0
VERTEX
  8
0
 10
266.0724
 20
201.7758
 30
0.0000
  0
VERTEX
  8
0
 10
266.7889
 20
201.4950
 30
0.0000
  0
VERTEX
  8
0
 10
267.5635
 20
201.3064
 30
0.0000
  0
VERTEX
  8
0
 10
268.3727
 20
201.2157
 30
0.0000
  0
VERTEX
  8
0
 10
269.1919
 20
201.2258
 30
0.0000
  0
VERTEX
  8
0
 10
269.9961
 20
201.3364
 30
0.0000
  0
VERTEX
  8
0
 10
270.7609
 20
201.5440
 30
0.0000
  0
VERTEX
  8
0
 10
271.4632
 20
201.8424
 30
0.0000
  0
VERTEX
  8
0
 10
272.0240
 20
202.1810
 30
0.0000
  0
SEQEND
  0
POLYLINE
  6
continous
  8
BYBLOCK
 70
0
 66
1
  0
VERTEX
  8
0
 10
265.3772
 20
206.8810
 30
0.0000
  0
VERTEX
  8
0
 10
264.8506
 20
206.4373
 30
0.0000
  0
VERTEX
  8
0
 10
264.4762
 20
205.9879
 30
0.0000
  0
VERTEX
  8
0
 10
264.2059
 20
205.5027
 30
0.0000
  0
VERTEX
  8
0
 10
264.0463
 20
204.9936
 30
0.0000
  0
VERTEX
  8
0
 10
264.0006
 20
204.5310
 30
0.0000
  0
SEQEND
  0
POLYLINE
  6
continous
  8
BYBLOCK
 70
0
 66
1
  0
VERTEX
  8
0
 10
273.4006
 20
204.5310
 30
0.0000
  0
VERTEX
  8
0
 10
273.3427
 20
205.0509
 30
0.0000
  0
VERTEX
  8
0
 10
273.1705
 20
205.5580
 30
0.0000
  0
VERTEX
  8
0
 10
272.8883
 20
206.0398
 30
0.0000
  0
VERTEX
  8
0
 10
272.5030
 20
206.4845
 30
0.0000
  0
VERTEX
  8
0
 10
271.9655
 20
206.9217
 30
0.0000
  0
VERTEX
  8
0
 10
271.3288
 20
207.2863
 30
0.0000
  0
VERTEX
  8
0
 10
270.6122
 20
207.5671
 30
0.0000
  0
VERTEX
  8
0
 10
269.8376
 20
207.7557
 30
0.0000
  0
VERTEX
  8
0
 10
269.0284
 20
207.8464
 30
0.0000
  0
VERTEX
  8
0
 10
268.2093
 20
207.8362
 30
0.0000
  0
VERTEX
  8
0
 10
267.4051
 20
207.7257
 30
0.0000
  0
VERTEX
  8
0
 10
266.6402
 20
207.5181
 30
0.0000
  0
VERTEX
  8
0
 10
265.9380
 20
207.2197
 30
0.0000
  0
VERTEX
  8
0
 10
265.3772
 20
206.8810
 30
0.0000
  0
SEQEND
  0
POLYLINE
  6
continous
  8
BYBLOCK
 70
0
 66
1
  0
VERTEX
  8
0
 10
272.0240
 20
202.1810
 30
0.0000
  0
VERTEX
  8
0
 10
272.5506
 20
202.6248
 30
0.0000
  0
VERTEX
  8
0
 10
272.9249
 20
203.0742
 30
0.0000
  0
VERTEX
  8
0
 10
273.1952
 20
203.5594
 30
0.0000
  0
VERTEX
  8
0
 10
273.3548
 20
204.0685
 30
0.0000
  0
VERTEX
  8
0
 10
273.4006
 20
204.5310
 30
0.0000
  0
SEQEND
  0
POLYLINE
  6
continous
  8
BYBLOCK
 70
0
 66
1
  0
VERTEX
  8
0
 10
221.5742
 20
174.5310
 30
0.0000
  0
VERTEX
  8
0
 10
221.6320
 20
174.0111
 30
0.0000
  0
VERTEX
  8
0
 10
221.8042
 20
173.5041
 30
0.0000
  0
VERTEX
  8
0
 10
222.0864
 20
173.0223
 30
0.0000
  0
VERTEX
  8
0
 10
222.4718
 20
172.5776
 30
0.0000
  0
VERTEX
  8
0
 10
223.0093
 20
172.1404
 30
0.0000
  0
VERTEX
  8
0
 10
223.6460
 20
171.7758
 30
0.0000
  0
VERTEX
  8
0
 10
224.3625
 20
171.4950
 30
0.0000
  0
VERTEX
  8
0
 10
225.1371
 20
171.3064
 30
0.0000
  0
VERTEX
  8
0
 10
225.9463
 20
171.2157
 30
0.0000
  0
VERTEX
  8
0
 10
226.7655
 20
171.2258
 30
0.0000
  0
VERTEX
  8
0
 10
227.5697
 20
171.3364
 30
0.0000
  0
VERTEX
  8
0
 10
228.3345
 20
171.5440
 30
0.0000
  0
VERTEX
  8
0
 10
229.0368
 20
171.8424
 30
0.0000
  0
VERTEX
  8
0
 10
229.5976
 20
172.1810
 30
0.0000
  0
SEQEND
  0
POLYLINE
  6
continous
  8
BYBLOCK
 70
0
 66
1
  0
VERTEX
  8
0
 10
222.9508
 20
176.8810
 30
0.0000
  0
VERTEX
  8
0
 10
222.4242
 20
176.4373
 30
0.0000
  0
VERTEX
  8
0
 10
222.0498
 20
175.9879
 30
0.0000
  0
VERTEX
  8
0
 10
221.7795
 20
175.5027
 30
0.0000
  0
VERTEX
  8
0
 10
221.6199
 20
174.9936
 30
0.0000
  0
VERTEX
  8
0
 10
221.5742
 20
174.5310
 30
0.0000
  0
SEQEND
  0
POLYLINE
  6
continous
  8
BYBLOCK
 70
0
 66
1
  0
VERTEX
  8
0
 10
230.9742
 20
174.5310
 30
0.0000
  0
VERTEX
  8
0
 10
230.9163
 20
175.0509
 30
0.0000
  0
VERTEX
  8
0
 10
230.7441
 20
175.5580
 30
0.0000
  0
VERTEX
  8
0
 10
230.4619
 20
176.0398
 30
0.0000
  0
VERTEX
  8
0
 10
230.0765
 20
176.4845
 30
0.0000
  0
VERTEX
  8
0
 10
229.5391
 20
176.9217
 30
0.0000
  0
VERTEX
  8
0
 10
228.9024
 20
177.2863
 30
0.0000
  0
VERTEX
  8
0
 10
228.1858
 20
177.5671
 30
0.0000
  0
VERTEX
  8
0
 10
227.4112
 20
177.7557
 30
0.0000
  0
VERTEX
  8
0
 10
226.6020
 20
177.8464
 30
0.0000
  0
VERTEX
  8
0
 10
225.7829
 20
177.8362
 30
0.0000
  0
VERTEX
  8
0
 10
224.9787
 20
177.7257
 30
0.0000
  0
VERTEX
  8
0
 10
224.2138
 20
177.5181
 30
0.0000
  0
VERTEX
  8
0
 10
223.5116
 20
177.2197
 30
0.0000
  0
VERTEX
  8
0
 10
222.9508
 20
176.8810
 30
0.0000
  0
SEQEND
  0
POLYLINE
  6
continous
  8
BYBLOCK
 70
0
 66
1
  0
VERTEX
  8
0
 10
229.5976
 20
172.1810
 30
0.0000
  0
VERTEX
  8
0
 10
230.1242
 20
172.6248
 30
0.0000
  0
VERTEX
  8
0
 10
230.4985
 20
173.0742
 30
0.0000
  0
VERTEX
  8
0
 10
230.7688
 20
173.5594
 30
0.0000
  0
VERTEX
  8
0
 10
230.9284
 20
174.0685
 30
0.0000
  0
VERTEX
  8
0
 10
230.9742
 20
174.5310
 30
0.0000
  0
SEQEND
  0
POLYLINE
  6
continous
  8
BYBLOCK
 70
0
 66
1
  0
VERTEX
  8
0
 10
179.1478
 20
144.5310
 30
0.0000
  0
VERTEX
  8
0
 10
179.2056
 20
144.0111
 30
0.0000
  0
VERTEX
  8
0
 10
179.3778
 20
143.5041
 30
0.0000
  0
VERTEX
  8
0
 10
179.6600
 20
143.0223
 30
0.0000
  0
VERTEX
  8
0
 10
180.0454
 20
142.5776
 30
0.0000
  0
VERTEX
  8
0
 10
180.5829
 20
142.1404
 30
0.0000
  0
VERTEX
  8
0
 10
181.2196
 20
141.7758
 30
0.0000
  0
VERTEX
  8
0
 10
181.9361
 20
141.4950
 30
0.0000
  0
VERTEX
  8
0
 10
182.7107
 20
141.3064
 30
0.0000
  0
VERTEX
  8
0
 10
183.5199
 20
141.2157
 30
0.0000
  0
VERTEX
  8
0
 10
184.3390
 20
141.2258
 30
0.0000
  0
VERTEX
  8
0
 10
185.1433
 20
141.3364
 30
0.0000
  0
VERTEX
  8
0
 10
185.9081
 20
141.5440
 30
0.0000
  0
VERTEX
  8
0
 10
186.6104
 20
141.8424
 30
0.0000
  0
VERTEX
  8
0
 10
187.1712
 20
142.1810
 30
0.0000
  0
SEQEND
  0
POLYLINE
  6
continous
  8
BYBLOCK
 70
0
 66
1
  0
VERTEX
  8
0
 10
180.5244
 20
146.8810
 30
0.0000
  0
VERTEX
  8
0
 10
179.9977
 20
146.4373
 30
0.0000
  0
VERTEX
  8
0
 10
179.6234
 20
145.9879
 30
0.0000
  0
VERTEX
  8
0
 10
179.3531
 20
145.5027
 30
0.0000
  0
VERTEX
  8
0
 10
179.1935
 20
144.9936
 30
0.0000
  0
VERTEX
  8
0
 10
179.1478
 20
144.5310
 30
0.0000
  0
SEQEND
  0
POLYLINE
  6
continous
  8
BYBLOCK
 70
0
 66
1
  0
VERTEX
  8
0
 10
188.5478
 20
144.5310
 30
0.0000
  0
VERTEX
  8
0
 10
188.4899
 20
145.0509
 30
0.0000
  0
VERTEX
  8
0
 10
188.3177
 20
145.5580
 30
0.0000
  0
VERTEX
  8
0
 10
188.0355
 20
146.0398
 30
0.0000
  0
VERTEX
  8
0
 10
187.6501
 20
146.4845
 30
0.0000
  0
VERTEX
  8
0
 10
187.1127
 20
146.9217
 30
0.0000
  0
VERTEX
  8
0
 10
186.4760
 20
147.2863
 30
0.0000
  0
VERTEX
  8
0
 10
185.7594
 20
147.5671
 30
0.0000
  0
VERTEX
  8
0
 10
184.9848
 20
147.7557
 30
0.0000
  0
VERTEX
  8
0
 10
184.1756
 20
147.8464
 30
0.0000
  0
VERTEX
  8
0
 10
183.3565
 20
147.8362
 30
0.0000
  0
VERTEX
  8
0
 10
182.5523
 20
147.7257
 30
0.0000
  0
VERTEX
  8
0
 10
181.7874
 20
147.5181
 30
0.0000
  0
VERTEX
  8
0
 10
181.0852
 20
147.2197
 30
0.0000
  0
VERTEX
  8
0
 10
180.5244
 20
146.8810
 30
0.0000
  0
SEQEND
  0
POLYLINE
  6
continous
  8
BYBLOCK
 70
0
 66
1
  0
VERTEX
  8
0
 10
187.1712
 20
142.1810
 30
0.0000
  0
VERTEX
  8
0
 10
187.6978
 20
142.6248
 30
0.0000
  0
VERTEX
  8
0
 10
188.0721
 20
143.0742
 30
0.0000
  0
VERTEX
  8
0
 10
188.3424
 20
143.5594
 30
0.0000
  0
VERTEX
  8
0
 10
188.5020
 20
144.0685
 30
0.0000
  0
VERTEX
  8
0
 10
188.5478
 20
144.5310
 30
0.0000
  0
SEQEND
  0
POLYLINE
  6
continous
  8
BYBLOCK
 70
0
 66
1
  0
VERTEX
  8
0
 10
136.7214
 20
114.5310
 30
0.0000
  0
VERTEX
  8
0
 10
136.7792
 20
114.0111
 30
0.0000
  0
VERTEX
  8
0
 10
136.9514
 20
113.5041
 30
0.0000
  0
VERTEX
  8
0
 10
137.2336
 20
113.0223
 30
0.0000
  0
VERTEX
  8
0
 10
137.6190
 20
112.5776
 30
0.0000
  0
VERTEX
  8
0
 10
138.1565
 20
112.1404
 30
0.0000
  0
VERTEX
  8
0
 10
138.7931
 20
111.7758
 30
0.0000
  0
VERTEX
  8
0
 10
139.5097
 20
111.4950
 30
0.0000
  0
VERTEX
  8
0
 10
140.2843
 20
111.3064
 30
0.0000
  0
VERTEX
  8
0
 10
141.0935
 20
111.2157
 30
0.0000
  0
VERTEX
  8
0
 10
141.9126
 20
111.2258
 30
0.0000
  0
VERTEX
  8
0
 10
142.7169
 20
111.3364
 30
0.0000
  0
VERTEX
  8
0
 10
143.4817
 20
111.5440
 30
0.0000
  0
VERTEX
  8
0
 10
144.1839
 20
111.8424
 30
0.0000
  0
VERTEX
  8
0
 10
144.7448
 20
112.1810
 30
0.0000
  0
SEQEND
  0
POLYLINE
  6
continous
  8
BYBLOCK
 70
0
 66
1
  0
VERTEX
  8
0
 10
138.0980
 20
116.8810
 30
0.0000
  0
VERTEX
  8
0
 10
137.5713
 20
116.4373
 30
0.0000
  0
VERTEX
  8
0
 10
137.1970
 20
115.9879
 30
0.0000
  0
VERTEX
  8
0
 10
136.9267
 20
115.5027
 30
0.0000
  0
VERTEX
  8
0
 10
136.7671
 20
114.9936
 30
0.0000
  0
VERTEX
  8
0
 10
136.7214
 20
114.5310
 30
0.0000
  0
SEQEND
  0
POLYLINE
  6
continous
  8
BYBLOCK
 70
0
 66
1
  0
VERTEX
  8
0
 10
146.1214
 20
114.5310
 30
0.0000
  0
VERTEX
  8
0
 10
146.0635
 20
115.0509
 30
0.0000
  0
VERTEX
  8
0
 10
145.8913
 20
115.5580
 30
0.0000
  0
VERTEX
  8
0
 10
145.6091
 20
116.0398
 30
0.0000
  0
VERTEX
  8
0
 10
145.2237
 20
116.4845
 30
0.0000
  0
VERTEX
  8
0
 10
144.6863
 20
116.9217
 30
0.0000
  0
VERTEX
  8
0
 10
144.0496
 20
117.2863
 30
0.0000
  0
VERTEX
  8
0
 10
143.3330
 20
117.5671
 30
0.0000
  0
VERTEX
  8
0
 10
142.5584
 20
117.7557
 30
0.0000
  0
VERTEX
  8
0
 10
141.7492
 20
117.8464
 30
0.0000
  0
VERTEX
  8
0
 10
140.9301
 20
117.8362
 30
0.0000
  0
VERTEX
  8
0
 10
140.1259
 20
117.7257
 30
0.0000
  0
VERTEX
  8
0
 10
139.3610
 20
117.5181
 30
0.0000
  0
VERTEX
  8
0
 10
138.6588
 20
117.2197
 30
0.0000
  0
VERTEX
  8
0
 10
138.0980
 20
116.8810
 30
0.0000
  0
SEQEND
  0
POLYLINE
  6
continous
  8
BYBLOCK
 70
0
 66
1
  0
VERTEX
  8
0
 10
144.7448
 20
112.1810
 30
0.0000
  0
VERTEX
  8
0
 10
145.2714
 20
112.6248
 30
0.0000
  0
VERTEX
  8
0
 10
145.6457
 20
113.0742
 30
0.0000
  0
VERTEX
  8
0
 10
145.9160
 20
113.5594
 30
0.0000
  0
VERTEX
  8
0
 10
146.0756
 20
114.0685
 30
0.0000
  0
VERTEX
  8
0
 10
146.1214
 20
114.5310
 30
0.0000
  0
SEQEND
  0
POLYLINE
  6
continous
  8
BYBLOCK
 70
0
 66
1
  0
VERTEX
  8
0
 10
94.2949
 20
84.5310
 30
0.0000
  0
VERTEX
  8
0
 10
94.3528
 20
84.0111
 30
0.0000
  0
VERTEX
  8
0
 10
94.5250
 20
83.5041
 30
0.0000
  0
VERTEX
  8
0
 10
94.8072
 20
83.0223
 30
0.0000
  0
VERTEX
  8
0
 10
95.1926
 20
82.5776
 30
0.0000
  0
VERTEX
  8
0
 10
95.7301
 20
82.1404
 30
0.0000
  0
VERTEX
  8
0
 10
96.3667
 20
81.7758
 30
0.0000
  0
VERTEX
  8
0
 10
97.0833
 20
81.4950
 30
0.0000
  0
VERTEX
  8
0
 10
97.8579
 20
81.3064
 30
0.0000
  0
VERTEX
  8
0
 10
98.6671
 20
81.2157
 30
0.0000
  0
VERTEX
  8
0
 10
99.4862
 20
81.2258
 30
0.0000
  0
VERTEX
  8
0
 10
100.2904
 20
81.3364
 30
0.0000
  0
VERTEX
  8
0
 10
101.0553
 20
81.5440
 30
0.0000
  0
VERTEX
  8
0
 10
101.7575
 20
81.8424
 30
0.0000
  0
VERTEX
  8
0
 10
102.3184
 20
82.1810
 30
0.0000
  0
SEQEND
  0
POLYLINE
  6
continous
  8
BYBLOCK
 70
0
 66
1
  0
VERTEX
  8
0
 10
95.6715
 20
86.8810
 30
0.0000
  0
VERTEX
  8
0
 10
95.1449
 20
86.4373
 30
0.0000
  0
VERTEX
  8
0
 10
94.7706
 20
85.9879
 30
0.0000
  0
VERTEX
  8
0
 10
94.5003
 20
85.5027
 30
0.0000
  0
VERTEX
  8
0
 10
94.3407
 20
84.9936
 30
0.0000
  0
VERTEX
  8
0
 10
94.2949
 20
84.5310
 30
0.0000
  0
SEQEND
  0
POLYLINE
  6
continous
  8
BYBLOCK
 70
0
 66
1
  0
VERTEX
  8
0
 10
103.6949
 20
84.5310
 30
0.0000
  0
VERTEX
  8
0
 10
103.6371
 20
85.0509
 30
0.0000
  0
VERTEX
  8
0
 10
103.4649
 20
85.5580
 30
0.0000
  0
VERTEX
  8
0
 10
103.1827
 20
86.0398
 30
0.0000
  0
VERTEX
  8
0
 10
102.7973
 20
86.4845
 30
0.0000
  0
VERTEX
  8
0
 10
102.2598
 20
86.9217
 30
0.0000
  0
VERTEX
  8
0
 10
101.6232
 20
87.2863
 30
0.0000
  0
VERTEX
  8
0
 10
100.9066
 20
87.5671
 30
0.0000
  0
VERTEX
  8
0
 10
100.1320
 20
87.7557
 30
0.0000
  0
VERTEX
  8
0
 10
99.3228
 20
87.8464
 30
0.0000
  0
VERTEX
  8
0
 10
98.5037
 20
87.8362
 30
0.0000
  0
VERTEX
  8
0
 10
97.6995
 20
87.7257
 30
0.0000
  0
VERTEX
  8
0
 10
96.9346
 20
87.5181
 30
0.0000
  0
VERTEX
  8
0
 10
96.2324
 20
87.2197
 30
0.0000
  0
VERTEX
  8
0
 10
95.6715
 20
86.8810
 30
0.0000
  0
SEQEND
  0
POLYLINE
  6
continous
  8
BYBLOCK
 70
0
 66
1
  0
VERTEX
  8
0
 10
102.3184
 20
82.1810
 30
0.0000
  0
VERTEX
  8
0
 10
102.8450
 20
82.6248
 30
0.0000
  0
VERTEX
  8
0
 10
103.2193
 20
83.0742
 30
0.0000
  0
VERTEX
  8
0
 10
103.4896
 20
83.5594
 30
0.0000
  0
VERTEX
  8
0
 10
103.6492
 20
84.0685
 30
0.0000
  0
VERTEX
  8
0
 10
103.6949
 20
84.5310
 30
0.0000
  0
SEQEND
  0
POLYLINE
  6
continous
  8
BYBLOCK
 70
0
 66
1
  0
VERTEX
  8
0
 10
51.8685
 20
54.5310
 30
0.0000
  0
VERTEX
  8
0
 10
51.9264
 20
54.0111
 30
0.0000
  0
VERTEX
  8
0
 10
52.0986
 20
53.5041
 30
0.0000
  0
VERTEX
  8
0
 10
52.3808
 20
53.0223
 30
0.0000
  0
VERTEX
  8
0
 10
52.7662
 20
52.5776
 30
0.0000
  0
VERTEX
  8
0
 10
53.3036
 20
52.1404
 30
0.0000
  0
VERTEX
  8
0
 10
53.9403
 20
51.7758
 30
0.0000
  0
VERTEX
  8
0
 10
54.6569
 20
51.4950
 30
0.0000
  0
VERTEX
  8
0
 10
55.4315
 20
51.3064
 30
0.0000
  0
VERTEX
  8
0
 10
56.2407
 20
51.2157
 30
0.0000
  0
VERTEX
  8
0
 10
57.0598
 20
51.2258
 30
0.0000
  0
VERTEX
  8
0
 10
57.8640
 20
51.3364
 30
0.0000
  0
VERTEX
  8
0
 10
58.6289
 20
51.5440
 30
0.0000
  0
VERTEX
  8
0
 10
59.3311
 20
51.8424
 30
0.0000
  0
VERTEX
  8
0
 10
59.8919
 20
52.1810
 30
0.0000
  0
SEQEND
  0
POLYLINE
  6
continous
  8
BYBLOCK
 70
0
 66
1
  0
VERTEX
  8
0
 10
53.2451
 20
56.8810
 30
0.0000
  0
VERTEX
  8
0
 10
52.7185
 20
56.4373
 30
0.0000
  0
VERTEX
  8
0
 10
52.3442
 20
55.9879
 30
0.0000
  0
VERTEX
  8
0
 10
52.0739
 20
55.5027
 30
0.0000
  0
VERTEX
  8
0
 10
51.9143
 20
54.9936
 30
0.0000
  0
VERTEX
  8
0
 10
51.8685
 20
54.5310
 30
0.0000
  0
SEQEND
  0
POLYLINE
  6
continous
  8
BYBLOCK
 70
0
 66
1
  0
VERTEX
  8
0
 10
61.2685
 20
54.5310
 30
0.0000
  0
VERTEX
  8
0
 10
61.2107
 20
55.0509
 30
0.0000
  0
VERTEX
  8
0
 10
61.0385
 20
55.5580
 30
0.0000
  0
VERTEX
  8
0
 10
60.7563
 20
56.0398
 30
0.0000
  0
VERTEX
  8
0
 10
60.3709
 20
56.4845
 30
0.0000
  0
VERTEX
  8
0
 10
59.8334
 20
56.9217
 30
0.0000
  0
VERTEX
  8
0
 10
59.1967
 20
57.2863
 30
0.0000
  0
VERTEX
  8
0
 10
58.4802
 20
57.5671
 30
0.0000
  0
VERTEX
  8
0
 10
57.7056
 20
57.7557
 30
0.0000
  0
VERTEX
  8
0
 10
56.8964
 20
57.8464
 30
0.0000
  0
VERTEX
  8
0
 10
56.0773
 20
57.8362
 30
0.0000
  0
VERTEX
  8
0
 10
55.2730
 20
57.7257
 30
0.0000
  0
VERTEX
  8
0
 10
54.5082
 20
57.5181
 30
0.0000
  0
VERTEX
  8
0
 10
53.8060
 20
57.2197
 30
0.0000
  0
VERTEX
  8
0
 10
53.2451
 20
56.8810
 30
0.0000
  0
SEQEND
  0
POLYLINE
  6
continous
  8
BYBLOCK
 70
0
 66
1
  0
VERTEX
  8
0
 10
59.8919
 20
52.1810
 30
0.0000
  0
VERTEX
  8
0
 10
60.4186
 20
52.6248
 30
0.0000
  0
VERTEX
  8
0
 10
60.7929
 20
53.0742
 30
0.0000
  0
VERTEX
  8
0
 10
61.0632
 20
53.5594
 30
0.0000
  0
VERTEX
  8
0
 10
61.2228
 20
54.0685
 30
0.0000
  0
VERTEX
  8
0
 10
61.2685
 20
54.5310
 30
0.0000
  0
SEQEND
  0
LINE
  6
continous
  8
BYBLOCK
 10
7.9939
 20
11.8785
 30
0.0000
 11
-3.7512
 21
20.1836
 31
0.0000
  0
LINE
  6
continous
  8
BYBLOCK
 10
7.9939
 20
11.8785
 30
0.0000
 11
2832.1783
 21
2008.8785
 31
0.0000
  0
LINE
  6
continous
  8
BYBLOCK
 10
-3.7512
 20
20.1836
 30
0.0000
 11
-4.1012
 21
20.0810
 31
0.0000
  0
LINE
  6
continous
  8
BYBLOCK
 10
-4.1012
 20
20.0810
 30
0.0000
 11
2820.0833
 21
2017.0810
 31
0.0000
  0
LINE
  6
continous
  8
BYBLOCK
 10
-3.7512
 20
20.1836
 30
0.0000
 11
2820.4333
 21
2017.1836
 31
0.0000
  0
LINE
  6
continous
  8
BYBLOCK
 10
2820.4333
 20
2017.1836
 30
0.0000
 11
2820.0833
 21
2017.0810
 31
0.0000
  0
LINE
  6
continous
  8
BYBLOCK
 10
2822.5786
 20
2018.1616
 30
0.0000
 11
2820.0833
 21
2017.0810
 31
0.0000
  0
LINE
  6
continous
  8
BYBLOCK
 10
2833.3769
 20
1994.3485
 30
0.0000
 11
2833.3769
 21
1996.1921
 31
0.0000
  0
LINE
  6
continous
  8
BYBLOCK
 10
2835.1241
 20
1996.2680
 30
0.0000
 11
2833.3769
 21
1994.3485
 31
0.0000
  0
LINE
  6
continous
  8
BYBLOCK
 10
2833.3769
 20
1996.1921
 30
0.0000
 11
2832.5283
 21
1997.2820
 31
0.0000
  0
LINE
  6
continous
  8
BYBLOCK
 10
2835.1241
 20
1997.7406
 30
0.0000
 11
2833.3769
 21
1996.1921
 31
0.0000
  0
LINE
  6
continous
  8
BYBLOCK
 10
2832.5283
 20
1997.2820
 30
0.0000
 11
2832.5283
 21
1998.7494
 31
0.0000
  0
LINE
  6
continous
  8
BYBLOCK
 10
2834.2756
 20
1998.8305
 30
0.0000
 11
2832.5283
 21
1997.2820
 31
0.0000
  0
POLYLINE
  6
continous
  8
BYBLOCK
 70
0
 66
1
  0
VERTEX
  8
0
 10
2831.2499
 20
2000.8868
 30
0.0000
  0
VERTEX
  8
0
 10
2831.3863
 20
2000.4171
 30
0.0000
  0
VERTEX
  8
0
 10
2831.6088
 20
1999.9304
 30
0.0000
  0
VERTEX
  8
0
 10
2831.9277
 20
1999.4230
 30
0.0000
  0
VERTEX
  8
0
 10
2832.3086
 20
1998.9637
 30
0.0000
  0
VERTEX
  8
0
 10
2832.5283
 20
1998.7494
 30
0.0000
  0
SEQEND
  0
POLYLINE
  6
continous
  8
BYBLOCK
 70
0
 66
1
  0
VERTEX
  8
0
 10
2834.2756
 20
2000.2307
 30
0.0000
  0
VERTEX
  8
0
 10
2832.5283
 20
1998.7494
 30
0.0000
  0
SEQEND
  0
LINE
  6
continous
  8
BYBLOCK
 10
2831.2499
 20
2000.8868
 30
0.0000
 11
2830.4777
 21
2001.8786
 31
0.0000
  0
POLYLINE
  6
continous
  8
BYBLOCK
 70
0
 66
1
  0
VERTEX
  8
0
 10
2833.0521
 20
2002.3648
 30
0.0000
  0
VERTEX
  8
0
 10
2831.2499
 20
2000.8868
 30
0.0000
  0
SEQEND
  0
LINE
  6
continous
  8
BYBLOCK
 10
2830.4777
 20
2001.8786
 30
0.0000
 11
2830.4777
 21
2005.5369
 31
0.0000
  0
LINE
  6
continous
  8
BYBLOCK
 10
2832.2250
 20
2003.4271
 30
0.0000
 11
2830.4777
 21
2001.8786
 31
0.0000
  0
LINE
  6
continous
  8
BYBLOCK
 10
2832.5283
 20
2006.9869
 30
0.0000
 11
2832.5283
 21
2008.2810
 31
0.0000
  0
POLYLINE
  6
continous
  8
BYBLOCK
 70
0
 66
1
  0
VERTEX
  8
0
 10
2834.2756
 20
2009.0345
 30
0.0000
  0
VERTEX
  8
0
 10
2832.5283
 20
2006.9869
 30
0.0000
  0
SEQEND
  0
LINE
  6
continous
  8
BYBLOCK
 10
2834.2756
 20
2009.8906
 30
0.0000
 11
2832.5283
 21
2008.2810
 31
0.0000
  0
LINE
  6
continous
  8
BYBLOCK
 10
2832.5283
 20
2008.2810
 30
0.0000
 11
2832.1783
 21
2008.8785
 31
0.0000
  0
LINE
  6
continous
  8
BYBLOCK
 10
2832.1783
 20
2008.8785
 30
0.0000
 11
2820.4333
 21
2017.1836
 31
0.0000
  0
LINE
  6
continous
  8
BYBLOCK
 10
2822.7095
 20
2018.2000
 30
0.0000
 11
2820.4333
 21
2017.1836
 31
0.0000
  0
LINE
  6
continous
  8
BYBLOCK
 10
2834.1447
 20
2010.1140
 30
0.0000
 11
2832.1783
 21
2008.8785
 31
0.0000
  0
LINE
  6
continous
  8
BYBLOCK
 10
2822.7095
 20
2018.2000
 30
0.0000
 11
2822.5786
 21
2018.1616
 31
0.0000
  0
LINE
  6
continous
  8
BYBLOCK
 10
2835.1241
 20
1996.2680
 30
0.0000
 11
2835.1241
 21
1997.7406
 31
0.0000
  0
LINE
  6
continous
  8
BYBLOCK
 10
2835.1241
 20
1997.7406
 30
0.0000
 11
2834.2756
 21
1998.8305
 31
0.0000
  0
LINE
  6
continous
  8
BYBLOCK
 10
2834.2756
 20
1998.8305
 30
0.0000
 11
2834.2756
 21
2000.2307
 31
0.0000
  0
POLYLINE
  6
continous
  8
BYBLOCK
 70
0
 66
1
  0
VERTEX
  8
0
 10
2834.2756
 20
2000.2307
 30
0.0000
  0
VERTEX
  8
0
 10
2833.8467
 20
2000.7514
 30
0.0000
  0
VERTEX
  8
0
 10
2833.4817
 20
2001.3227
 30
0.0000
  0
VERTEX
  8
0
 10
2833.2018
 20
2001.9117
 30
0.0000
  0
VERTEX
  8
0
 10
2833.0521
 20
2002.3648
 30
0.0000
  0
SEQEND
  0
LINE
  6
continous
  8
BYBLOCK
 10
2833.0521
 20
2002.3648
 30
0.0000
 11
2832.2250
 21
2003.4271
 31
0.0000
  0
LINE
  6
continous
  8
BYBLOCK
 10
2832.2250
 20
2003.4271
 30
0.0000
 11
2832.2250
 21
2006.7724
 31
0.0000
  0
LINE
  6
continous
  8
BYBLOCK
 10
2834.2756
 20
2009.0345
 30
0.0000
 11
2834.2756
 21
2009.8906
 31
0.0000
  0
LINE
  6
continous
  8
BYBLOCK
 10
2834.2756
 20
2009.8906
 30
0.0000
 11
2834.1447
 21
2010.1140
 31
0.0000
  0
LINE
  6
continous
  8
BYBLOCK
 10
2834.1447
 20
2010.1140
 30
0.0000
 11
2822.7095
 21
2018.2000
 31
0.0000
  0
POLYLINE
  6
continous
  8
BYBLOCK
 70
0
 66
1
  0
VERTEX
  8
0
 10
10.8187
 20
26.8103
 30
0.0000
  0
VERTEX
  8
0
 10
10.2987
 20
26.3731
 30
0.0000
  0
VERTEX
  8
0
 10
9.9273
 20
25.9309
 30
0.0000
  0
VERTEX
  8
0
 10
9.6569
 20
25.4535
 30
0.0000
  0
VERTEX
  8
0
 10
9.4939
 20
24.9523
 30
0.0000
  0
VERTEX
  8
0
 10
9.4424
 20
24.4965
 30
0.0000
  0
SEQEND
  0
POLYLINE
  6
continous
  8
BYBLOCK
 70
0
 66
1
  0
VERTEX
  8
0
 10
18.8419
 20
24.4946
 30
0.0000
  0
VERTEX
  8
0
 10
18.7770
 20
25.0118
 30
0.0000
  0
VERTEX
  8
0
 10
18.5989
 20
25.5155
 30
0.0000
  0
VERTEX
  8
0
 10
18.3121
 20
25.9935
 30
0.0000
  0
VERTEX
  8
0
 10
17.9235
 20
26.4341
 30
0.0000
  0
VERTEX
  8
0
 10
17.3840
 20
26.8666
 30
0.0000
  0
VERTEX
  8
0
 10
16.7468
 20
27.2267
 30
0.0000
  0
VERTEX
  8
0
 10
16.0311
 20
27.5035
 30
0.0000
  0
VERTEX
  8
0
 10
15.2586
 20
27.6886
 30
0.0000
  0
VERTEX
  8
0
 10
14.4524
 20
27.7765
 30
0.0000
  0
VERTEX
  8
0
 10
13.6369
 20
27.7645
 30
0.0000
  0
VERTEX
  8
0
 10
12.8366
 20
27.6530
 30
0.0000
  0
VERTEX
  8
0
 10
12.0757
 20
27.4453
 30
0.0000
  0
VERTEX
  8
0
 10
11.3769
 20
27.1477
 30
0.0000
  0
VERTEX
  8
0
 10
10.8187
 20
26.8103
 30
0.0000
  0
SEQEND
  0
ENDBLK
  8
0
  0
ENDSEC
  0
SECTION
  2
ENTITIES
  0
INSERT
  8
REX_6
  2
_VIEW_CUT_Jan_16_22-23-10
 10
0.0000
 20
0.0000
 30
0.0000
  0
ENDSEC
  0
EOF
