  0
SECTION
  2
HEADER
  9
$ACADVER
  1
AC1015
  9
$ACADMAINTVER
 70
     6
  9
$DWGCODEPAGE
  3
ANSI_1252
  9
$INSBASE
 10
0.0
 20
0.0
 30
0.0
  9
$EXTMIN
 10
0.0
 20
0.0
 30
0.0
  9
$EXTMAX
 10
297.0
 20
210.0
 30
0.0
  9
$LIMMIN
 10
0.0
 20
0.0
  9
$LIMMAX
 10
297.0
 20
210.0
  9
$ORTHOMODE
 70
     0
  9
$REGENMODE
 70
     1
  9
$FILLMODE
 70
     1
  9
$QTEXTMODE
 70
     0
  9
$MIRRTEXT
 70
     1
  9
$LTSCALE
 40
1.0
  9
$ATTMODE
 70
     1
  9
$TEXTSIZE
 40
3.5
  9
$TRACEWID
 40
1.0
  9
$TEXTSTYLE
  7
Standard
  9
$CLAYER
  8
0
  9
$CELTYPE
  6
ByLayer
  9
$CECOLOR
 62
   256
  9
$CELTSCALE
 40
1.0
  9
$DISPSILH
 70
     0
  9
$DIMSCALE
 40
1.0
  9
$DIMASZ
 40
6.0
  9
$DIMEXO
 40
1.0
  9
$DIMDLI
 40
3.75
  9
$DIMRND
 40
0.0
  9
$DIMDLE
 40
0.0
  9
$DIMEXE
 40
1.0
  9
$DIMTP
 40
0.0
  9
$DIMTM
 40
0.0
  9
$DIMTXT
 40
3.5
  9
$DIMCEN
 40
2.5
  9
$DIMTSZ
 40
0.0
  9
$DIMTOL
 70
     0
  9
$DIMLIM
 70
     0
  9
$DIMTIH
 70
     1
  9
$DIMTOH
 70
     1
  9
$DIMSE1
 70
     0
  9
$DIMSE2
 70
     0
  9
$DIMTAD
 70
     1
  9
$DIMZIN
 70
     0
  9
$DIMBLK
  1

  9
$DIMASO
 70
     1
  9
$DIMSHO
 70
     1
  9
$DIMPOST
  1

  9
$DIMAPOST
  1

  9
$DIMALT
 70
     0
  9
$DIMALTD
 70
     3
  9
$DIMALTF
 40
0.0393700787
  9
$DIMLFAC
 40
1.0
  9
$DIMTOFL
 70
     1
  9
$DIMTVP
 40
0.0
  9
$DIMTIX
 70
     0
  9
$DIMSOXD
 70
     0
  9
$DIMSAH
 70
     0
  9
$DIMBLK1
  1

  9
$DIMBLK2
  1

  9
$DIMSTYLE
  2
ISO-25
  9
$DIMCLRD
 70
     0
  9
$DIMCLRE
 70
     0
  9
$DIMCLRT
 70
     0
  9
$DIMTFAC
 40
1.0
  9
$DIMGAP
 40
1.524
  9
$DIMJUST
 70
     0
  9
$DIMSD1
 70
     0
  9
$DIMSD2
 70
     0
  9
$DIMTOLJ
 70
     0
  9
$DIMTZIN
 70
     0
  9
$DIMALTZ
 70
     0
  9
$DIMALTTZ
 70
     0
  9
$DIMUPT
 70
     0
  9
$DIMDEC
 70
     2
  9
$DIMTDEC
 70
     2
  9
$DIMALTU
 70
     2
  9
$DIMALTTD
 70
     3
  9
$DIMTXSTY
  7
Standard
  9
$DIMAUNIT
 70
     0
  9
$DIMADEC
 70
     0
  9
$DIMALTRND
 40
0.0
  9
$DIMAZIN
 70
     0
  9
$DIMDSEP
 70
    44
  9
$DIMATFIT
 70
     3
  9
$DIMFRAC
 70
     0
  9
$DIMLDRBLK
  1

  9
$DIMLUNIT
 70
     2
  9
$DIMLWD
 70
    -2
  9
$DIMLWE
 70
    -2
  9
$DIMTMOVE
 70
     0
  9
$LUNITS
 70
     2
  9
$LUPREC
 70
     2
  9
$SKETCHINC
 40
1.0
  9
$FILLETRAD
 40
10.0
  9
$AUNITS
 70
     0
  9
$AUPREC
 70
     0
  9
$MENU
  1
.
  9
$ELEVATION
 40
0.0
  9
$PELEVATION
 40
0.0
  9
$THICKNESS
 40
0.0
  9
$LIMCHECK
 70
     0
  9
$CHAMFERA
 40
10.0
  9
$CHAMFERB
 40
10.0
  9
$CHAMFERC
 40
20.0
  9
$CHAMFERD
 40
0.0
  9
$SKPOLY
 70
     0
  9
$TDCREATE
 40
2454871.936398831
  9
$TDUCREATE
 40
2454872.144732164
  9
$TDUPDATE
 40
2454871.936398842
  9
$TDUUPDATE
 40
2454872.144732176
  9
$TDINDWG
 40
0.0000000116
  9
$TDUSRTIMER
 40
0.0000000116
  9
$USRTIMER
 70
     1
  9
$ANGBASE
 50
0.0
  9
$ANGDIR
 70
     0
  9
$PDMODE
 70
     0
  9
$PDSIZE
 40
-1.0
  9
$PLINEWID
 40
0.0
  9
$SPLFRAME
 70
     0
  9
$SPLINETYPE
 70
     6
  9
$SPLINESEGS
 70
     8
  9
$HANDSEED
  5
20E
  9
$SURFTAB1
 70
     6
  9
$SURFTAB2
 70
     6
  9
$SURFTYPE
 70
     6
  9
$SURFU
 70
     6
  9
$SURFV
 70
     6
  9
$UCSBASE
  2

  9
$UCSNAME
  2

  9
$UCSORG
 10
0.0
 20
0.0
 30
0.0
  9
$UCSXDIR
 10
1.0
 20
0.0
 30
0.0
  9
$UCSYDIR
 10
0.0
 20
1.0
 30
0.0
  9
$UCSORTHOREF
  2

  9
$UCSORTHOVIEW
 70
     0
  9
$UCSORGTOP
 10
0.0
 20
0.0
 30
0.0
  9
$UCSORGBOTTOM
 10
0.0
 20
0.0
 30
0.0
  9
$UCSORGLEFT
 10
0.0
 20
0.0
 30
0.0
  9
$UCSORGRIGHT
 10
0.0
 20
0.0
 30
0.0
  9
$UCSORGFRONT
 10
0.0
 20
0.0
 30
0.0
  9
$UCSORGBACK
 10
0.0
 20
0.0
 30
0.0
  9
$PUCSBASE
  2

  9
$PUCSNAME
  2

  9
$PUCSORG
 10
0.0
 20
0.0
 30
0.0
  9
$PUCSXDIR
 10
1.0
 20
0.0
 30
0.0
  9
$PUCSYDIR
 10
0.0
 20
1.0
 30
0.0
  9
$PUCSORTHOREF
  2

  9
$PUCSORTHOVIEW
 70
     0
  9
$PUCSORGTOP
 10
0.0
 20
0.0
 30
0.0
  9
$PUCSORGBOTTOM
 10
0.0
 20
0.0
 30
0.0
  9
$PUCSORGLEFT
 10
0.0
 20
0.0
 30
0.0
  9
$PUCSORGRIGHT
 10
0.0
 20
0.0
 30
0.0
  9
$PUCSORGFRONT
 10
0.0
 20
0.0
 30
0.0
  9
$PUCSORGBACK
 10
0.0
 20
0.0
 30
0.0
  9
$USERI1
 70
     0
  9
$USERI2
 70
     0
  9
$USERI3
 70
     0
  9
$USERI4
 70
     0
  9
$USERI5
 70
     0
  9
$USERR1
 40
0.0
  9
$USERR2
 40
0.0
  9
$USERR3
 40
0.0
  9
$USERR4
 40
0.0
  9
$USERR5
 40
0.0
  9
$WORLDVIEW
 70
     1
  9
$SHADEDGE
 70
     3
  9
$SHADEDIF
 70
    70
  9
$TILEMODE
 70
     1
  9
$MAXACTVP
 70
    64
  9
$PINSBASE
 10
0.0
 20
0.0
 30
0.0
  9
$PLIMCHECK
 70
     0
  9
$PEXTMIN
 10
1.0000000000E+20
 20
1.0000000000E+20
 30
1.0000000000E+20
  9
$PEXTMAX
 10
-1.0000000000E+20
 20
-1.0000000000E+20
 30
-1.0000000000E+20
  9
$PLIMMIN
 10
0.0
 20
0.0
  9
$PLIMMAX
 10
420.0
 20
297.0
  9
$UNITMODE
 70
     0
  9
$VISRETAIN
 70
     1
  9
$PLINEGEN
 70
     0
  9
$PSLTSCALE
 70
     1
  9
$TREEDEPTH
 70
  3020
  9
$CMLSTYLE
  2
Standard
  9
$CMLJUST
 70
     0
  9
$CMLSCALE
 40
20.0
  9
$PROXYGRAPHICS
 70
     1
  9
$MEASUREMENT
 70
     1
  9
$CELWEIGHT
370
    -1
  9
$ENDCAPS
280
     0
  9
$JOINSTYLE
280
     0
  9
$LWDISPLAY
290
     1
  9
$INSUNITS
 70
     4
  9
$HYPERLINKBASE
  1

  9
$STYLESHEET
  1

  9
$XEDIT
290
     1
  9
$CEPSNTYPE
380
     0
  9
$PSTYLEMODE
290
     1
  9
$FINGERPRINTGUID
  2
{513CD21B-F2DF-49A1-B2DD-B9F5FE4353D8}
  9
$VERSIONGUID
  2
{FAEB1C32-E019-11D5-929B-00C0DF256EC4}
  9
$EXTNAMES
290
     1
  9
$PSVPSCALE
 40
0.0
  9
$OLESTARTUP
290
     0
  0
ENDSEC
  0
SECTION
  2
CLASSES
  0
CLASS
  1
ACDBDICTIONARYWDFLT
  2
AcDbDictionaryWithDefault
  3
ObjectDBX Classes
 90
        0
280
     0
281
     0
  0
CLASS
  1
VISUALSTYLE
  2
AcDbVisualStyle
  3
ObjectDBX Classes
 90
     4095
280
     0
281
     0
  0
CLASS
  1
DICTIONARYVAR
  2
AcDbDictionaryVar
  3
ObjectDBX Classes
 90
        0
280
     0
281
     0
  0
CLASS
  1
ACDBPLACEHOLDER
  2
AcDbPlaceHolder
  3
ObjectDBX Classes
 90
        0
280
     0
281
     0
  0
CLASS
  1
LAYOUT
  2
AcDbLayout
  3
ObjectDBX Classes
 90
        0
280
     0
281
     0
  0
ENDSEC
  0
SECTION
  2
TABLES
  0
TABLE
  2
VPORT
  5
8
330
0
100
AcDbSymbolTable
 70
     1
  0
VPORT
  5
29
330
8
100
AcDbSymbolTableRecord
100
AcDbViewportTableRecord
  2
*Active
 70
     0
 10
0.0
 20
0.0
 11
1.0
 21
1.0
 12
148.5
 22
105.0
 13
0.0
 23
0.0
 14
10.0
 24
10.0
 15
10.0
 25
10.0
 16
0.0
 26
0.0
 36
1.0
 17
0.0
 27
0.0
 37
0.0
 40
210.0
 41
1.4142857143
 42
50.0
 43
0.0
 44
0.0
 50
0.0
 51
0.0
 71
     0
 72
  2000
 73
     1
 74
     3
 75
     0
 76
     0
 77
     0
 78
     0
281
     0
 65
     1
110
0.0
120
0.0
130
0.0
111
1.0
121
0.0
131
0.0
112
0.0
122
1.0
132
0.0
 79
     0
146
0.0
  0
ENDTAB
  0
TABLE
  2
LTYPE
  5
5
330
0
100
AcDbSymbolTable
 70
     6
  0
LTYPE
  5
14
330
5
100
AcDbSymbolTableRecord
100
AcDbLinetypeTableRecord
  2
ByBlock
 70
     0
  3

 72
    65
 73
     0
 40
0.0
  0
LTYPE
  5
15
330
5
100
AcDbSymbolTableRecord
100
AcDbLinetypeTableRecord
  2
ByLayer
 70
     0
  3

 72
    65
 73
     0
 40
0.0
  0
LTYPE
  5
16
330
5
100
AcDbSymbolTableRecord
100
AcDbLinetypeTableRecord
  2
Continuous
 70
     0
  3
Solid line
 72
    65
 73
     0
 40
0.0
  0
LTYPE
  5
3B
330
5
100
AcDbSymbolTableRecord
100
AcDbLinetypeTableRecord
  2
HIDDEN
 70
     0
  3
Hidden __ __ __ __ __ __ __ __ __ __ __ __ __ __
 72
    65
 73
     2
 40
1.905
 49
1.27
 74
     0
 49
-0.635
 74
     0
  0
LTYPE
  5
3C
330
5
100
AcDbSymbolTableRecord
100
AcDbLinetypeTableRecord
  2
PHANTOM
 70
     0
  3
Phantom ______  __  __  ______  __  __  ______
 72
    65
 73
     6
 40
12.7
 49
6.35
 74
     0
 49
-1.27
 74
     0
 49
1.27
 74
     0
 49
-1.27
 74
     0
 49
1.27
 74
     0
 49
-1.27
 74
     0
  0
LTYPE
  5
3D
330
5
100
AcDbSymbolTableRecord
100
AcDbLinetypeTableRecord
  2
CENTER
 70
     0
  3
Center ____ _ ____ _ ____ _ ____ _ ____ _ ____
 72
    65
 73
     4
 40
10.16
 49
6.35
 74
     0
 49
-1.27
 74
     0
 49
1.27
 74
     0
 49
-1.27
 74
     0
  0
LTYPE
  5
3E
330
5
100
AcDbSymbolTableRecord
100
AcDbLinetypeTableRecord
  2
CENTERX2
 70
     0
  3
Center (2x) ________  __  ________  __  _____
 72
    65
 73
     4
 40
20.32
 49
12.7
 74
     0
 49
-2.54
 74
     0
 49
2.54
 74
     0
 49
-2.54
 74
     0
  0
LTYPE
  5
3F
330
5
100
AcDbSymbolTableRecord
100
AcDbLinetypeTableRecord
  2
DOT2
 70
     0
  3
Dot (.5x) ........................................
 72
    65
 73
     2
 40
0.635
 49
0.0
 74
     0
 49
-0.635
 74
     0
  0
ENDTAB
  0
TABLE
  2
LAYER
  5
2
330
0
100
AcDbSymbolTable
 70
     1
  0
LAYER
  5
10
330
2
100
AcDbSymbolTableRecord
100
AcDbLayerTableRecord
  2
0
 70
     0
 62
     7
  6
Continuous
370
    -3
390
F
  0
ENDTAB
  0
TABLE
  2
STYLE
  5
3
330
0
100
AcDbSymbolTable
 70
     1
  0
STYLE
  5
11
330
3
100
AcDbSymbolTableRecord
100
AcDbTextStyleTableRecord
  2
Standard
 70
     0
 40
0.0
 41
1.0
 50
0.0
 71
     0
 42
2.5
  3
txt
  4

  0
ENDTAB
  0
TABLE
  2
VIEW
  5
6
330
0
100
AcDbSymbolTable
 70
     0
  0
ENDTAB
  0
TABLE
  2
UCS
  5
7
330
0
100
AcDbSymbolTable
 70
     0
  0
ENDTAB
  0
TABLE
  2
APPID
  5
9
330
0
100
AcDbSymbolTable
 70
     1
  0
APPID
  5
12
330
9
100
AcDbSymbolTableRecord
100
AcDbRegAppTableRecord
  2
ACAD
 70
     0
  0
ENDTAB
  0
TABLE
  2
DIMSTYLE
  5
A
330
0
100
AcDbSymbolTable
 70
     1
100
AcDbDimStyleTable
  0
DIMSTYLE
105
27
330
A
100
AcDbSymbolTableRecord
100
AcDbDimStyleTableRecord
  2
ISO-25
 70
     0
 41
2.5
 42
0.625
 43
3.75
 44
1.25
 73
     0
 74
     0
 77
     1
 78
     8
140
2.5
141
2.5
143
0.0393700787
147
0.625
171
     3
172
     1
271
     2
272
     2
274
     3
278
    44
283
     0
284
     8
340
11
  0
ENDTAB
  0
TABLE
  2
BLOCK_RECORD
  5
1
330
0
100
AcDbSymbolTable
 70
    14
  0
BLOCK_RECORD
  5
1F
330
1
100
AcDbSymbolTableRecord
100
AcDbBlockTableRecord
  2
*Model_Space
340
22
  0
BLOCK_RECORD
  5
1B
330
1
100
AcDbSymbolTableRecord
100
AcDbBlockTableRecord
  2
*Paper_Space
340
1E
  0
BLOCK_RECORD
  5
23
330
1
100
AcDbSymbolTableRecord
100
AcDbBlockTableRecord
  2
*Paper_Space0
340
26
  0
BLOCK_RECORD
  5
73
330
1
100
AcDbSymbolTableRecord
100
AcDbBlockTableRecord
  2
SW_CENTERMARKSYMBOL_0
340
0
102
{BLKREFS
331
7E
102
}
  0
BLOCK_RECORD
  5
7F
330
1
100
AcDbSymbolTableRecord
100
AcDbBlockTableRecord
  2
SW_CENTERMARKSYMBOL_1
340
0
102
{BLKREFS
331
8A
102
}
  0
BLOCK_RECORD
  5
8B
330
1
100
AcDbSymbolTableRecord
100
AcDbBlockTableRecord
  2
SW_CENTERMARKSYMBOL_2
340
0
102
{BLKREFS
331
96
102
}
  0
BLOCK_RECORD
  5
BE
330
1
100
AcDbSymbolTableRecord
100
AcDbBlockTableRecord
  2
SW_CENTERMARKSYMBOL_3
340
0
102
{BLKREFS
331
C9
102
}
  0
BLOCK_RECORD
  5
CA
330
1
100
AcDbSymbolTableRecord
100
AcDbBlockTableRecord
  2
SW_CENTERMARKSYMBOL_4
340
0
102
{BLKREFS
331
D5
102
}
  0
BLOCK_RECORD
  5
114
330
1
100
AcDbSymbolTableRecord
100
AcDbBlockTableRecord
  2
SW_CENTERMARKSYMBOL_5
340
0
102
{BLKREFS
331
11F
102
}
  0
BLOCK_RECORD
  5
120
330
1
100
AcDbSymbolTableRecord
100
AcDbBlockTableRecord
  2
SW_CENTERMARKSYMBOL_6
340
0
102
{BLKREFS
331
12B
102
}
  0
BLOCK_RECORD
  5
12C
330
1
100
AcDbSymbolTableRecord
100
AcDbBlockTableRecord
  2
SW_CENTERMARKSYMBOL_7
340
0
102
{BLKREFS
331
137
102
}
  0
BLOCK_RECORD
  5
138
330
1
100
AcDbSymbolTableRecord
100
AcDbBlockTableRecord
  2
SW_CENTERMARKSYMBOL_8
340
0
102
{BLKREFS
331
143
102
}
  0
BLOCK_RECORD
  5
144
330
1
100
AcDbSymbolTableRecord
100
AcDbBlockTableRecord
  2
SW_CENTERMARKSYMBOL_9
340
0
102
{BLKREFS
331
14F
102
}
  0
BLOCK_RECORD
  5
150
330
1
100
AcDbSymbolTableRecord
100
AcDbBlockTableRecord
  2
SW_CENTERMARKSYMBOL_10
340
0
102
{BLKREFS
331
15B
102
}
  0
BLOCK_RECORD
  5
15C
330
1
100
AcDbSymbolTableRecord
100
AcDbBlockTableRecord
  2
SW_CENTERMARKSYMBOL_11
340
0
102
{BLKREFS
331
167
102
}
  0
BLOCK_RECORD
  5
168
330
1
100
AcDbSymbolTableRecord
100
AcDbBlockTableRecord
  2
SW_CENTERMARKSYMBOL_12
340
0
102
{BLKREFS
331
173
102
}
  0
ENDTAB
  0
ENDSEC
  0
SECTION
  2
BLOCKS
  0
BLOCK
  5
20
330
1F
100
AcDbEntity
  8
0
100
AcDbBlockBegin
  2
*Model_Space
 70
     0
 10
0.0
 20
0.0
 30
0.0
  3
*Model_Space
  1

  0
ENDBLK
  5
21
330
1F
100
AcDbEntity
  8
0
100
AcDbBlockEnd
  0
BLOCK
  5
1C
330
1B
100
AcDbEntity
 67
     1
  8
0
100
AcDbBlockBegin
  2
*Paper_Space
 70
     0
 10
0.0
 20
0.0
 30
0.0
  3
*Paper_Space
  1

  0
ENDBLK
  5
1D
330
1B
100
AcDbEntity
 67
     1
  8
0
100
AcDbBlockEnd
  0
BLOCK
  5
24
330
23
100
AcDbEntity
  8
0
100
AcDbBlockBegin
  2
*Paper_Space0
 70
     0
 10
0.0
 20
0.0
 30
0.0
  3
*Paper_Space0
  1

  0
ENDBLK
  5
25
330
23
100
AcDbEntity
  8
0
100
AcDbBlockEnd
  0
BLOCK
  5
74
330
73
100
AcDbEntity
  8
0
100
AcDbBlockBegin
  2
SW_CENTERMARKSYMBOL_0
 70
     0
 10
0.0
 20
0.0
 30
0.0
  3
SW_CENTERMARKSYMBOL_0
  1

  0
LINE
  5
76
330
73
100
AcDbEntity
  8
0
  6
Continuous
 62
     0
370
     0
100
AcDbLine
 10
0.0
 20
0.0
 30
0.0
 11
0.0
 21
2.5
 31
0.0
  0
LINE
  5
77
330
73
100
AcDbEntity
  8
0
  6
Continuous
 62
     0
370
     0
100
AcDbLine
 10
0.0
 20
0.0
 30
0.0
 11
-2.5
 21
0.0
 31
0.0
  0
LINE
  5
78
330
73
100
AcDbEntity
  8
0
  6
Continuous
 62
     0
370
     0
100
AcDbLine
 10
0.0
 20
0.0
 30
0.0
 11
0.0
 21
-2.5
 31
0.0
  0
LINE
  5
79
330
73
100
AcDbEntity
  8
0
  6
Continuous
 62
     0
370
     0
100
AcDbLine
 10
0.0
 20
0.0
 30
0.0
 11
2.5
 21
0.0
 31
0.0
  0
LINE
  5
7A
330
73
100
AcDbEntity
  8
0
  6
Continuous
 62
     0
370
     0
100
AcDbLine
 10
0.0
 20
2.5
 30
0.0
 11
0.0
 21
3.525
 31
0.0
  0
LINE
  5
7B
330
73
100
AcDbEntity
  8
0
  6
Continuous
 62
     0
370
     0
100
AcDbLine
 10
-2.5
 20
0.0
 30
0.0
 11
-3.525
 21
0.0
 31
0.0
  0
LINE
  5
7C
330
73
100
AcDbEntity
  8
0
  6
Continuous
 62
     0
370
     0
100
AcDbLine
 10
0.0
 20
-2.5
 30
0.0
 11
0.0
 21
-3.525
 31
0.0
  0
LINE
  5
7D
330
73
100
AcDbEntity
  8
0
  6
Continuous
 62
     0
370
     0
100
AcDbLine
 10
2.5
 20
0.0
 30
0.0
 11
3.525
 21
0.0
 31
0.0
  0
ENDBLK
  5
75
330
73
100
AcDbEntity
  8
0
100
AcDbBlockEnd
  0
BLOCK
  5
80
330
7F
100
AcDbEntity
  8
0
100
AcDbBlockBegin
  2
SW_CENTERMARKSYMBOL_1
 70
     0
 10
0.0
 20
0.0
 30
0.0
  3
SW_CENTERMARKSYMBOL_1
  1

  0
LINE
  5
82
330
7F
100
AcDbEntity
  8
0
  6
Continuous
 62
     0
370
     0
100
AcDbLine
 10
0.0
 20
0.0
 30
0.0
 11
0.0
 21
2.5
 31
0.0
  0
LINE
  5
83
330
7F
100
AcDbEntity
  8
0
  6
Continuous
 62
     0
370
     0
100
AcDbLine
 10
0.0
 20
0.0
 30
0.0
 11
-2.5
 21
0.0
 31
0.0
  0
LINE
  5
84
330
7F
100
AcDbEntity
  8
0
  6
Continuous
 62
     0
370
     0
100
AcDbLine
 10
0.0
 20
0.0
 30
0.0
 11
0.0
 21
-2.5
 31
0.0
  0
LINE
  5
85
330
7F
100
AcDbEntity
  8
0
  6
Continuous
 62
     0
370
     0
100
AcDbLine
 10
0.0
 20
0.0
 30
0.0
 11
2.5
 21
0.0
 31
0.0
  0
LINE
  5
86
330
7F
100
AcDbEntity
  8
0
  6
Continuous
 62
     0
370
     0
100
AcDbLine
 10
0.0
 20
2.5
 30
0.0
 11
0.0
 21
3.525
 31
0.0
  0
LINE
  5
87
330
7F
100
AcDbEntity
  8
0
  6
Continuous
 62
     0
370
     0
100
AcDbLine
 10
-2.5
 20
0.0
 30
0.0
 11
-3.525
 21
0.0
 31
0.0
  0
LINE
  5
88
330
7F
100
AcDbEntity
  8
0
  6
Continuous
 62
     0
370
     0
100
AcDbLine
 10
0.0
 20
-2.5
 30
0.0
 11
0.0
 21
-3.525
 31
0.0
  0
LINE
  5
89
330
7F
100
AcDbEntity
  8
0
  6
Continuous
 62
     0
370
     0
100
AcDbLine
 10
2.5
 20
0.0
 30
0.0
 11
3.525
 21
0.0
 31
0.0
  0
ENDBLK
  5
81
330
7F
100
AcDbEntity
  8
0
100
AcDbBlockEnd
  0
BLOCK
  5
8C
330
8B
100
AcDbEntity
  8
0
100
AcDbBlockBegin
  2
SW_CENTERMARKSYMBOL_2
 70
     0
 10
0.0
 20
0.0
 30
0.0
  3
SW_CENTERMARKSYMBOL_2
  1

  0
LINE
  5
8E
330
8B
100
AcDbEntity
  8
0
  6
Continuous
 62
     0
370
     0
100
AcDbLine
 10
0.0
 20
0.0
 30
0.0
 11
0.0
 21
2.5
 31
0.0
  0
LINE
  5
8F
330
8B
100
AcDbEntity
  8
0
  6
Continuous
 62
     0
370
     0
100
AcDbLine
 10
0.0
 20
0.0
 30
0.0
 11
-2.5
 21
0.0
 31
0.0
  0
LINE
  5
90
330
8B
100
AcDbEntity
  8
0
  6
Continuous
 62
     0
370
     0
100
AcDbLine
 10
0.0
 20
0.0
 30
0.0
 11
0.0
 21
-2.5
 31
0.0
  0
LINE
  5
91
330
8B
100
AcDbEntity
  8
0
  6
Continuous
 62
     0
370
     0
100
AcDbLine
 10
0.0
 20
0.0
 30
0.0
 11
2.5
 21
0.0
 31
0.0
  0
LINE
  5
92
330
8B
100
AcDbEntity
  8
0
  6
Continuous
 62
     0
370
     0
100
AcDbLine
 10
0.0
 20
2.5
 30
0.0
 11
0.0
 21
3.75
 31
0.0
  0
LINE
  5
93
330
8B
100
AcDbEntity
  8
0
  6
Continuous
 62
     0
370
     0
100
AcDbLine
 10
-2.5
 20
0.0
 30
0.0
 11
-3.75
 21
0.0
 31
0.0
  0
LINE
  5
94
330
8B
100
AcDbEntity
  8
0
  6
Continuous
 62
     0
370
     0
100
AcDbLine
 10
0.0
 20
-2.5
 30
0.0
 11
0.0
 21
-3.75
 31
0.0
  0
LINE
  5
95
330
8B
100
AcDbEntity
  8
0
  6
Continuous
 62
     0
370
     0
100
AcDbLine
 10
2.5
 20
0.0
 30
0.0
 11
3.75
 21
0.0
 31
0.0
  0
ENDBLK
  5
8D
330
8B
100
AcDbEntity
  8
0
100
AcDbBlockEnd
  0
BLOCK
  5
BF
330
BE
100
AcDbEntity
  8
0
100
AcDbBlockBegin
  2
SW_CENTERMARKSYMBOL_3
 70
     0
 10
0.0
 20
0.0
 30
0.0
  3
SW_CENTERMARKSYMBOL_3
  1

  0
LINE
  5
C1
330
BE
100
AcDbEntity
  8
0
  6
Continuous
 62
     0
370
     0
100
AcDbLine
 10
0.0
 20
0.0
 30
0.0
 11
0.0
 21
2.5
 31
0.0
  0
LINE
  5
C2
330
BE
100
AcDbEntity
  8
0
  6
Continuous
 62
     0
370
     0
100
AcDbLine
 10
0.0
 20
0.0
 30
0.0
 11
-2.5
 21
0.0
 31
0.0
  0
LINE
  5
C3
330
BE
100
AcDbEntity
  8
0
  6
Continuous
 62
     0
370
     0
100
AcDbLine
 10
0.0
 20
0.0
 30
0.0
 11
0.0
 21
-2.5
 31
0.0
  0
LINE
  5
C4
330
BE
100
AcDbEntity
  8
0
  6
Continuous
 62
     0
370
     0
100
AcDbLine
 10
0.0
 20
0.0
 30
0.0
 11
2.5
 21
0.0
 31
0.0
  0
LINE
  5
C5
330
BE
100
AcDbEntity
  8
0
  6
Continuous
 62
     0
370
     0
100
AcDbLine
 10
0.0
 20
2.5
 30
0.0
 11
0.0
 21
3.75
 31
0.0
  0
LINE
  5
C6
330
BE
100
AcDbEntity
  8
0
  6
Continuous
 62
     0
370
     0
100
AcDbLine
 10
-2.5
 20
0.0
 30
0.0
 11
-3.75
 21
0.0
 31
0.0
  0
LINE
  5
C7
330
BE
100
AcDbEntity
  8
0
  6
Continuous
 62
     0
370
     0
100
AcDbLine
 10
0.0
 20
-2.5
 30
0.0
 11
0.0
 21
-3.75
 31
0.0
  0
LINE
  5
C8
330
BE
100
AcDbEntity
  8
0
  6
Continuous
 62
     0
370
     0
100
AcDbLine
 10
2.5
 20
0.0
 30
0.0
 11
3.75
 21
0.0
 31
0.0
  0
ENDBLK
  5
C0
330
BE
100
AcDbEntity
  8
0
100
AcDbBlockEnd
  0
BLOCK
  5
CB
330
CA
100
AcDbEntity
  8
0
100
AcDbBlockBegin
  2
SW_CENTERMARKSYMBOL_4
 70
     0
 10
0.0
 20
0.0
 30
0.0
  3
SW_CENTERMARKSYMBOL_4
  1

  0
LINE
  5
CD
330
CA
100
AcDbEntity
  8
0
  6
Continuous
 62
     0
370
     0
100
AcDbLine
 10
0.0
 20
0.0
 30
0.0
 11
0.0
 21
2.5
 31
0.0
  0
LINE
  5
CE
330
CA
100
AcDbEntity
  8
0
  6
Continuous
 62
     0
370
     0
100
AcDbLine
 10
0.0
 20
0.0
 30
0.0
 11
-2.5
 21
0.0
 31
0.0
  0
LINE
  5
CF
330
CA
100
AcDbEntity
  8
0
  6
Continuous
 62
     0
370
     0
100
AcDbLine
 10
0.0
 20
0.0
 30
0.0
 11
0.0
 21
-2.5
 31
0.0
  0
LINE
  5
D0
330
CA
100
AcDbEntity
  8
0
  6
Continuous
 62
     0
370
     0
100
AcDbLine
 10
0.0
 20
0.0
 30
0.0
 11
2.5
 21
0.0
 31
0.0
  0
LINE
  5
D1
330
CA
100
AcDbEntity
  8
0
  6
Continuous
 62
     0
370
     0
100
AcDbLine
 10
0.0
 20
2.5
 30
0.0
 11
0.0
 21
3.75
 31
0.0
  0
LINE
  5
D2
330
CA
100
AcDbEntity
  8
0
  6
Continuous
 62
     0
370
     0
100
AcDbLine
 10
-2.5
 20
0.0
 30
0.0
 11
-3.75
 21
0.0
 31
0.0
  0
LINE
  5
D3
330
CA
100
AcDbEntity
  8
0
  6
Continuous
 62
     0
370
     0
100
AcDbLine
 10
0.0
 20
-2.5
 30
0.0
 11
0.0
 21
-3.75
 31
0.0
  0
LINE
  5
D4
330
CA
100
AcDbEntity
  8
0
  6
Continuous
 62
     0
370
     0
100
AcDbLine
 10
2.5
 20
0.0
 30
0.0
 11
3.75
 21
0.0
 31
0.0
  0
ENDBLK
  5
CC
330
CA
100
AcDbEntity
  8
0
100
AcDbBlockEnd
  0
BLOCK
  5
115
330
114
100
AcDbEntity
  8
0
100
AcDbBlockBegin
  2
SW_CENTERMARKSYMBOL_5
 70
     0
 10
0.0
 20
0.0
 30
0.0
  3
SW_CENTERMARKSYMBOL_5
  1

  0
LINE
  5
117
330
114
100
AcDbEntity
  8
0
  6
Continuous
 62
     0
370
     0
100
AcDbLine
 10
0.0
 20
0.0
 30
0.0
 11
0.0
 21
2.5
 31
0.0
  0
LINE
  5
118
330
114
100
AcDbEntity
  8
0
  6
Continuous
 62
     0
370
     0
100
AcDbLine
 10
0.0
 20
0.0
 30
0.0
 11
-2.5
 21
0.0
 31
0.0
  0
LINE
  5
119
330
114
100
AcDbEntity
  8
0
  6
Continuous
 62
     0
370
     0
100
AcDbLine
 10
0.0
 20
0.0
 30
0.0
 11
0.0
 21
-2.5
 31
0.0
  0
LINE
  5
11A
330
114
100
AcDbEntity
  8
0
  6
Continuous
 62
     0
370
     0
100
AcDbLine
 10
0.0
 20
0.0
 30
0.0
 11
2.5
 21
0.0
 31
0.0
  0
LINE
  5
11B
330
114
100
AcDbEntity
  8
0
  6
Continuous
 62
     0
370
     0
100
AcDbLine
 10
0.0
 20
2.5
 30
0.0
 11
0.0
 21
4.15
 31
0.0
  0
LINE
  5
11C
330
114
100
AcDbEntity
  8
0
  6
Continuous
 62
     0
370
     0
100
AcDbLine
 10
-2.5
 20
0.0
 30
0.0
 11
-4.15
 21
0.0
 31
0.0
  0
LINE
  5
11D
330
114
100
AcDbEntity
  8
0
  6
Continuous
 62
     0
370
     0
100
AcDbLine
 10
0.0
 20
-2.5
 30
0.0
 11
0.0
 21
-4.15
 31
0.0
  0
LINE
  5
11E
330
114
100
AcDbEntity
  8
0
  6
Continuous
 62
     0
370
     0
100
AcDbLine
 10
2.5
 20
0.0
 30
0.0
 11
4.15
 21
0.0
 31
0.0
  0
ENDBLK
  5
116
330
114
100
AcDbEntity
  8
0
100
AcDbBlockEnd
  0
BLOCK
  5
121
330
120
100
AcDbEntity
  8
0
100
AcDbBlockBegin
  2
SW_CENTERMARKSYMBOL_6
 70
     0
 10
0.0
 20
0.0
 30
0.0
  3
SW_CENTERMARKSYMBOL_6
  1

  0
LINE
  5
123
330
120
100
AcDbEntity
  8
0
  6
Continuous
 62
     0
370
     0
100
AcDbLine
 10
0.0
 20
0.0
 30
0.0
 11
0.0
 21
2.5
 31
0.0
  0
LINE
  5
124
330
120
100
AcDbEntity
  8
0
  6
Continuous
 62
     0
370
     0
100
AcDbLine
 10
0.0
 20
0.0
 30
0.0
 11
-2.5
 21
0.0
 31
0.0
  0
LINE
  5
125
330
120
100
AcDbEntity
  8
0
  6
Continuous
 62
     0
370
     0
100
AcDbLine
 10
0.0
 20
0.0
 30
0.0
 11
0.0
 21
-2.5
 31
0.0
  0
LINE
  5
126
330
120
100
AcDbEntity
  8
0
  6
Continuous
 62
     0
370
     0
100
AcDbLine
 10
0.0
 20
0.0
 30
0.0
 11
2.5
 21
0.0
 31
0.0
  0
LINE
  5
127
330
120
100
AcDbEntity
  8
0
  6
Continuous
 62
     0
370
     0
100
AcDbLine
 10
0.0
 20
2.5
 30
0.0
 11
0.0
 21
4.15
 31
0.0
  0
LINE
  5
128
330
120
100
AcDbEntity
  8
0
  6
Continuous
 62
     0
370
     0
100
AcDbLine
 10
-2.5
 20
0.0
 30
0.0
 11
-4.15
 21
0.0
 31
0.0
  0
LINE
  5
129
330
120
100
AcDbEntity
  8
0
  6
Continuous
 62
     0
370
     0
100
AcDbLine
 10
0.0
 20
-2.5
 30
0.0
 11
0.0
 21
-4.15
 31
0.0
  0
LINE
  5
12A
330
120
100
AcDbEntity
  8
0
  6
Continuous
 62
     0
370
     0
100
AcDbLine
 10
2.5
 20
0.0
 30
0.0
 11
4.15
 21
0.0
 31
0.0
  0
ENDBLK
  5
122
330
120
100
AcDbEntity
  8
0
100
AcDbBlockEnd
  0
BLOCK
  5
12D
330
12C
100
AcDbEntity
  8
0
100
AcDbBlockBegin
  2
SW_CENTERMARKSYMBOL_7
 70
     0
 10
0.0
 20
0.0
 30
0.0
  3
SW_CENTERMARKSYMBOL_7
  1

  0
LINE
  5
12F
330
12C
100
AcDbEntity
  8
0
  6
Continuous
 62
     0
370
     0
100
AcDbLine
 10
0.0
 20
0.0
 30
0.0
 11
0.0
 21
2.5
 31
0.0
  0
LINE
  5
130
330
12C
100
AcDbEntity
  8
0
  6
Continuous
 62
     0
370
     0
100
AcDbLine
 10
0.0
 20
0.0
 30
0.0
 11
-2.5
 21
0.0
 31
0.0
  0
LINE
  5
131
330
12C
100
AcDbEntity
  8
0
  6
Continuous
 62
     0
370
     0
100
AcDbLine
 10
0.0
 20
0.0
 30
0.0
 11
0.0
 21
-2.5
 31
0.0
  0
LINE
  5
132
330
12C
100
AcDbEntity
  8
0
  6
Continuous
 62
     0
370
     0
100
AcDbLine
 10
0.0
 20
0.0
 30
0.0
 11
2.5
 21
0.0
 31
0.0
  0
LINE
  5
133
330
12C
100
AcDbEntity
  8
0
  6
Continuous
 62
     0
370
     0
100
AcDbLine
 10
0.0
 20
2.5
 30
0.0
 11
0.0
 21
4.15
 31
0.0
  0
LINE
  5
134
330
12C
100
AcDbEntity
  8
0
  6
Continuous
 62
     0
370
     0
100
AcDbLine
 10
-2.5
 20
0.0
 30
0.0
 11
-4.15
 21
0.0
 31
0.0
  0
LINE
  5
135
330
12C
100
AcDbEntity
  8
0
  6
Continuous
 62
     0
370
     0
100
AcDbLine
 10
0.0
 20
-2.5
 30
0.0
 11
0.0
 21
-4.15
 31
0.0
  0
LINE
  5
136
330
12C
100
AcDbEntity
  8
0
  6
Continuous
 62
     0
370
     0
100
AcDbLine
 10
2.5
 20
0.0
 30
0.0
 11
4.15
 21
0.0
 31
0.0
  0
ENDBLK
  5
12E
330
12C
100
AcDbEntity
  8
0
100
AcDbBlockEnd
  0
BLOCK
  5
139
330
138
100
AcDbEntity
  8
0
100
AcDbBlockBegin
  2
SW_CENTERMARKSYMBOL_8
 70
     0
 10
0.0
 20
0.0
 30
0.0
  3
SW_CENTERMARKSYMBOL_8
  1

  0
LINE
  5
13B
330
138
100
AcDbEntity
  8
0
  6
Continuous
 62
     0
370
     0
100
AcDbLine
 10
0.0
 20
0.0
 30
0.0
 11
0.0
 21
2.5
 31
0.0
  0
LINE
  5
13C
330
138
100
AcDbEntity
  8
0
  6
Continuous
 62
     0
370
     0
100
AcDbLine
 10
0.0
 20
0.0
 30
0.0
 11
-2.5
 21
0.0
 31
0.0
  0
LINE
  5
13D
330
138
100
AcDbEntity
  8
0
  6
Continuous
 62
     0
370
     0
100
AcDbLine
 10
0.0
 20
0.0
 30
0.0
 11
0.0
 21
-2.5
 31
0.0
  0
LINE
  5
13E
330
138
100
AcDbEntity
  8
0
  6
Continuous
 62
     0
370
     0
100
AcDbLine
 10
0.0
 20
0.0
 30
0.0
 11
2.5
 21
0.0
 31
0.0
  0
LINE
  5
13F
330
138
100
AcDbEntity
  8
0
  6
Continuous
 62
     0
370
     0
100
AcDbLine
 10
0.0
 20
2.5
 30
0.0
 11
0.0
 21
4.15
 31
0.0
  0
LINE
  5
140
330
138
100
AcDbEntity
  8
0
  6
Continuous
 62
     0
370
     0
100
AcDbLine
 10
-2.5
 20
0.0
 30
0.0
 11
-4.15
 21
0.0
 31
0.0
  0
LINE
  5
141
330
138
100
AcDbEntity
  8
0
  6
Continuous
 62
     0
370
     0
100
AcDbLine
 10
0.0
 20
-2.5
 30
0.0
 11
0.0
 21
-4.15
 31
0.0
  0
LINE
  5
142
330
138
100
AcDbEntity
  8
0
  6
Continuous
 62
     0
370
     0
100
AcDbLine
 10
2.5
 20
0.0
 30
0.0
 11
4.15
 21
0.0
 31
0.0
  0
ENDBLK
  5
13A
330
138
100
AcDbEntity
  8
0
100
AcDbBlockEnd
  0
BLOCK
  5
145
330
144
100
AcDbEntity
  8
0
100
AcDbBlockBegin
  2
SW_CENTERMARKSYMBOL_9
 70
     0
 10
0.0
 20
0.0
 30
0.0
  3
SW_CENTERMARKSYMBOL_9
  1

  0
LINE
  5
147
330
144
100
AcDbEntity
  8
0
  6
Continuous
 62
     0
370
     0
100
AcDbLine
 10
0.0
 20
0.0
 30
0.0
 11
0.0
 21
2.5
 31
0.0
  0
LINE
  5
148
330
144
100
AcDbEntity
  8
0
  6
Continuous
 62
     0
370
     0
100
AcDbLine
 10
0.0
 20
0.0
 30
0.0
 11
-2.5
 21
0.0
 31
0.0
  0
LINE
  5
149
330
144
100
AcDbEntity
  8
0
  6
Continuous
 62
     0
370
     0
100
AcDbLine
 10
0.0
 20
0.0
 30
0.0
 11
0.0
 21
-2.5
 31
0.0
  0
LINE
  5
14A
330
144
100
AcDbEntity
  8
0
  6
Continuous
 62
     0
370
     0
100
AcDbLine
 10
0.0
 20
0.0
 30
0.0
 11
2.5
 21
0.0
 31
0.0
  0
LINE
  5
14B
330
144
100
AcDbEntity
  8
0
  6
Continuous
 62
     0
370
     0
100
AcDbLine
 10
0.0
 20
5.0
 30
0.0
 11
0.0
 21
5.5
 31
0.0
  0
LINE
  5
14C
330
144
100
AcDbEntity
  8
0
  6
Continuous
 62
     0
370
     0
100
AcDbLine
 10
-5.0
 20
0.0
 30
0.0
 11
-5.5
 21
0.0
 31
0.0
  0
LINE
  5
14D
330
144
100
AcDbEntity
  8
0
  6
Continuous
 62
     0
370
     0
100
AcDbLine
 10
0.0
 20
-5.0
 30
0.0
 11
0.0
 21
-5.5
 31
0.0
  0
LINE
  5
14E
330
144
100
AcDbEntity
  8
0
  6
Continuous
 62
     0
370
     0
100
AcDbLine
 10
5.0
 20
0.0
 30
0.0
 11
5.5
 21
0.0
 31
0.0
  0
ENDBLK
  5
146
330
144
100
AcDbEntity
  8
0
100
AcDbBlockEnd
  0
BLOCK
  5
151
330
150
100
AcDbEntity
  8
0
100
AcDbBlockBegin
  2
SW_CENTERMARKSYMBOL_10
 70
     0
 10
0.0
 20
0.0
 30
0.0
  3
SW_CENTERMARKSYMBOL_10
  1

  0
LINE
  5
153
330
150
100
AcDbEntity
  8
0
  6
Continuous
 62
     0
370
     0
100
AcDbLine
 10
0.0
 20
0.0
 30
0.0
 11
0.0
 21
2.5
 31
0.0
  0
LINE
  5
154
330
150
100
AcDbEntity
  8
0
  6
Continuous
 62
     0
370
     0
100
AcDbLine
 10
0.0
 20
0.0
 30
0.0
 11
-2.5
 21
0.0
 31
0.0
  0
LINE
  5
155
330
150
100
AcDbEntity
  8
0
  6
Continuous
 62
     0
370
     0
100
AcDbLine
 10
0.0
 20
0.0
 30
0.0
 11
0.0
 21
-2.5
 31
0.0
  0
LINE
  5
156
330
150
100
AcDbEntity
  8
0
  6
Continuous
 62
     0
370
     0
100
AcDbLine
 10
0.0
 20
0.0
 30
0.0
 11
2.5
 21
0.0
 31
0.0
  0
LINE
  5
157
330
150
100
AcDbEntity
  8
0
  6
Continuous
 62
     0
370
     0
100
AcDbLine
 10
0.0
 20
2.5
 30
0.0
 11
0.0
 21
3.0
 31
0.0
  0
LINE
  5
158
330
150
100
AcDbEntity
  8
0
  6
Continuous
 62
     0
370
     0
100
AcDbLine
 10
-2.5
 20
0.0
 30
0.0
 11
-3.0
 21
0.0
 31
0.0
  0
LINE
  5
159
330
150
100
AcDbEntity
  8
0
  6
Continuous
 62
     0
370
     0
100
AcDbLine
 10
0.0
 20
-2.5
 30
0.0
 11
0.0
 21
-3.0
 31
0.0
  0
LINE
  5
15A
330
150
100
AcDbEntity
  8
0
  6
Continuous
 62
     0
370
     0
100
AcDbLine
 10
2.5
 20
0.0
 30
0.0
 11
3.0
 21
0.0
 31
0.0
  0
ENDBLK
  5
152
330
150
100
AcDbEntity
  8
0
100
AcDbBlockEnd
  0
BLOCK
  5
15D
330
15C
100
AcDbEntity
  8
0
100
AcDbBlockBegin
  2
SW_CENTERMARKSYMBOL_11
 70
     0
 10
0.0
 20
0.0
 30
0.0
  3
SW_CENTERMARKSYMBOL_11
  1

  0
LINE
  5
15F
330
15C
100
AcDbEntity
  8
0
  6
Continuous
 62
     0
370
     0
100
AcDbLine
 10
0.0
 20
0.0
 30
0.0
 11
0.0
 21
2.5
 31
0.0
  0
LINE
  5
160
330
15C
100
AcDbEntity
  8
0
  6
Continuous
 62
     0
370
     0
100
AcDbLine
 10
0.0
 20
0.0
 30
0.0
 11
-2.5
 21
0.0
 31
0.0
  0
LINE
  5
161
330
15C
100
AcDbEntity
  8
0
  6
Continuous
 62
     0
370
     0
100
AcDbLine
 10
0.0
 20
0.0
 30
0.0
 11
0.0
 21
-2.5
 31
0.0
  0
LINE
  5
162
330
15C
100
AcDbEntity
  8
0
  6
Continuous
 62
     0
370
     0
100
AcDbLine
 10
0.0
 20
0.0
 30
0.0
 11
2.5
 21
0.0
 31
0.0
  0
LINE
  5
163
330
15C
100
AcDbEntity
  8
0
  6
Continuous
 62
     0
370
     0
100
AcDbLine
 10
0.0
 20
5.0
 30
0.0
 11
0.0
 21
5.5
 31
0.0
  0
LINE
  5
164
330
15C
100
AcDbEntity
  8
0
  6
Continuous
 62
     0
370
     0
100
AcDbLine
 10
-5.0
 20
0.0
 30
0.0
 11
-5.5
 21
0.0
 31
0.0
  0
LINE
  5
165
330
15C
100
AcDbEntity
  8
0
  6
Continuous
 62
     0
370
     0
100
AcDbLine
 10
0.0
 20
-5.0
 30
0.0
 11
0.0
 21
-5.5
 31
0.0
  0
LINE
  5
166
330
15C
100
AcDbEntity
  8
0
  6
Continuous
 62
     0
370
     0
100
AcDbLine
 10
5.0
 20
0.0
 30
0.0
 11
5.5
 21
0.0
 31
0.0
  0
ENDBLK
  5
15E
330
15C
100
AcDbEntity
  8
0
100
AcDbBlockEnd
  0
BLOCK
  5
169
330
168
100
AcDbEntity
  8
0
100
AcDbBlockBegin
  2
SW_CENTERMARKSYMBOL_12
 70
     0
 10
0.0
 20
0.0
 30
0.0
  3
SW_CENTERMARKSYMBOL_12
  1

  0
LINE
  5
16B
330
168
100
AcDbEntity
  8
0
  6
Continuous
 62
     0
370
     0
100
AcDbLine
 10
0.0
 20
0.0
 30
0.0
 11
0.0
 21
2.5
 31
0.0
  0
LINE
  5
16C
330
168
100
AcDbEntity
  8
0
  6
Continuous
 62
     0
370
     0
100
AcDbLine
 10
0.0
 20
0.0
 30
0.0
 11
-2.5
 21
0.0
 31
0.0
  0
LINE
  5
16D
330
168
100
AcDbEntity
  8
0
  6
Continuous
 62
     0
370
     0
100
AcDbLine
 10
0.0
 20
0.0
 30
0.0
 11
0.0
 21
-2.5
 31
0.0
  0
LINE
  5
16E
330
168
100
AcDbEntity
  8
0
  6
Continuous
 62
     0
370
     0
100
AcDbLine
 10
0.0
 20
0.0
 30
0.0
 11
2.5
 21
0.0
 31
0.0
  0
LINE
  5
16F
330
168
100
AcDbEntity
  8
0
  6
Continuous
 62
     0
370
     0
100
AcDbLine
 10
0.0
 20
2.5
 30
0.0
 11
0.0
 21
3.0
 31
0.0
  0
LINE
  5
170
330
168
100
AcDbEntity
  8
0
  6
Continuous
 62
     0
370
     0
100
AcDbLine
 10
-2.5
 20
0.0
 30
0.0
 11
-3.0
 21
0.0
 31
0.0
  0
LINE
  5
171
330
168
100
AcDbEntity
  8
0
  6
Continuous
 62
     0
370
     0
100
AcDbLine
 10
0.0
 20
-2.5
 30
0.0
 11
0.0
 21
-3.0
 31
0.0
  0
LINE
  5
172
330
168
100
AcDbEntity
  8
0
  6
Continuous
 62
     0
370
     0
100
AcDbLine
 10
2.5
 20
0.0
 30
0.0
 11
3.0
 21
0.0
 31
0.0
  0
ENDBLK
  5
16A
330
168
100
AcDbEntity
  8
0
100
AcDbBlockEnd
  0
ENDSEC
  0
SECTION
  2
ENTITIES
  0
CIRCLE
  5
40
330
1F
100
AcDbEntity
  8
0
  6
Continuous
 62
     7
370
     0
100
AcDbCircle
 10
116.4773773873
 20
67.45
 30
0.0
 40
1.024999999999991
  0
CIRCLE
  5
41
330
1F
100
AcDbEntity
  8
0
  6
Continuous
 62
     7
370
     0
100
AcDbCircle
 10
116.4773773873
 20
67.45
 30
0.0
 40
1.224999999999994
  0
CIRCLE
  5
42
330
1F
100
AcDbEntity
  8
0
  6
Continuous
 62
     7
370
     0
100
AcDbCircle
 10
91.9273773873
 20
67.45
 30
0.0
 40
1.024999999999991
  0
CIRCLE
  5
43
330
1F
100
AcDbEntity
  8
0
  6
Continuous
 62
     7
370
     0
100
AcDbCircle
 10
91.9273773873
 20
67.45
 30
0.0
 40
1.225000000000009
  0
LINE
  5
44
330
1F
100
AcDbEntity
  8
0
  6
Continuous
 62
     7
370
     0
100
AcDbLine
 10
98.9023773873
 20
73.55
 30
0.0
 11
89.0023773873
 21
73.55
 31
0.0
  0
LINE
  5
45
330
1F
100
AcDbEntity
  8
0
  6
Continuous
 62
     7
370
     0
100
AcDbLine
 10
99.1523773873
 20
73.8
 30
0.0
 11
98.9023773873
 21
73.55
 31
0.0
  0
LINE
  5
46
330
1F
100
AcDbEntity
  8
0
  6
Continuous
 62
     7
370
     0
100
AcDbLine
 10
111.0023774129
 20
54.3
 30
0.0
 11
111.0023774129
 21
55.7644409444
 31
0.0
  0
LINE
  5
47
330
1F
100
AcDbEntity
  8
0
  6
Continuous
 62
     7
370
     0
100
AcDbLine
 10
111.3380893623
 20
66.6499996018
 30
0.0
 11
97.0666653623
 21
66.6499996018
 31
0.0
  0
LINE
  5
48
330
1F
100
AcDbEntity
  8
0
  6
Continuous
 62
     7
370
     0
100
AcDbLine
 10
98.7579185436
 20
63.0009458009
 30
0.0
 11
99.4523775436
 21
62.5999998009
 31
0.0
  0
LINE
  5
49
330
1F
100
AcDbEntity
  8
0
  6
Continuous
 62
     7
370
     0
100
AcDbLine
 10
97.4023773623
 20
55.764441
 30
0.0
 11
97.4023773623
 21
54.3
 31
0.0
  0
CIRCLE
  5
4A
330
1F
100
AcDbEntity
  8
0
  6
Continuous
 62
     7
370
     0
100
AcDbCircle
 10
104.2023773873
 20
70.95
 30
0.0
 40
1.650000000000006
  0
LINE
  5
4B
330
1F
100
AcDbEntity
  8
0
  6
Continuous
 62
     7
370
     0
100
AcDbLine
 10
88.0023773873
 20
56.4207106781
 30
0.0
 11
90.1230880654
 21
54.3
 31
0.0
  0
LINE
  5
4C
330
1F
100
AcDbEntity
  8
0
  6
Continuous
 62
     7
370
     0
100
AcDbLine
 10
88.0023773873
 20
72.55
 30
0.0
 11
88.0023773873
 21
56.4207106781
 31
0.0
  0
ARC
  5
4D
330
1F
100
AcDbEntity
  8
0
  6
Continuous
 62
     7
370
     0
100
AcDbCircle
 10
89.0023773873
 20
72.55
 30
0.0
 40
1.0
100
AcDbArc
 50
90.0
 51
180.0
  0
LINE
  5
4E
330
1F
100
AcDbEntity
  8
0
  6
Continuous
 62
     7
370
     0
100
AcDbLine
 10
109.2523773873
 20
73.8
 30
0.0
 11
99.1523773873
 21
73.8
 31
0.0
  0
LINE
  5
4F
330
1F
100
AcDbEntity
  8
0
  6
Continuous
 62
     7
370
     0
100
AcDbLine
 10
109.5023773873
 20
73.55
 30
0.0
 11
109.2523773873
 21
73.8
 31
0.0
  0
LINE
  5
50
330
1F
100
AcDbEntity
  8
0
  6
Continuous
 62
     7
370
     0
100
AcDbLine
 10
119.4023773873
 20
73.55
 30
0.0
 11
109.5023773873
 21
73.55
 31
0.0
  0
ARC
  5
51
330
1F
100
AcDbEntity
  8
0
  6
Continuous
 62
     7
370
     0
100
AcDbCircle
 10
119.4023773873
 20
72.55
 30
0.0
 40
1.000000000000014
100
AcDbArc
 50
0.0
 51
90.0
  0
LINE
  5
52
330
1F
100
AcDbEntity
  8
0
  6
Continuous
 62
     7
370
     0
100
AcDbLine
 10
120.4023773873
 20
56.4207106781
 30
0.0
 11
120.4023773873
 21
72.55
 31
0.0
  0
LINE
  5
53
330
1F
100
AcDbEntity
  8
0
  6
Continuous
 62
     7
370
     0
100
AcDbLine
 10
118.2816667092
 20
54.3
 30
0.0
 11
120.4023773873
 21
56.4207106781
 31
0.0
  0
LINE
  5
54
330
1F
100
AcDbEntity
  8
0
  6
Continuous
 62
     7
370
     0
100
AcDbLine
 10
111.0023774129
 20
54.3
 30
0.0
 11
118.2816667092
 21
54.3
 31
0.0
  0
LINE
  5
55
330
1F
100
AcDbEntity
  8
0
  6
Continuous
 62
     7
370
     0
100
AcDbLine
 10
90.1230880654
 20
54.3
 30
0.0
 11
97.4023773623
 21
54.3
 31
0.0
  0
ARC
  5
56
330
1F
100
AcDbEntity
  8
0
  6
Continuous
 62
     7
370
     0
100
AcDbCircle
 10
97.1563773864
 20
62.6039997619
 30
0.0
 40
1.650000071527008
100
AcDbArc
 50
13.920382198
 51
81.4257541264
  0
LINE
  5
57
330
1F
100
AcDbEntity
  8
0
  6
Continuous
 62
     7
370
     0
100
AcDbLine
 10
97.4023773623
 20
64.8999996018
 30
0.0
 11
97.4023773623
 21
64.2355586018
 31
0.0
  0
LINE
  5
58
330
1F
100
AcDbEntity
  8
0
  6
Continuous
 62
     7
370
     0
100
AcDbLine
 10
97.5074283623
 20
65.0050506018
 30
0.0
 11
97.4023773623
 21
64.8999996018
 31
0.0
  0
LINE
  5
59
330
1F
100
AcDbEntity
  8
0
  6
Continuous
 62
     7
370
     0
100
AcDbLine
 10
97.0666653623
 20
66.6499996018
 30
0.0
 11
97.5074283623
 21
65.0050506018
 31
0.0
  0
LINE
  5
5A
330
1F
100
AcDbEntity
  8
0
  6
Continuous
 62
     7
370
     0
100
AcDbLine
 10
110.8973263623
 20
65.0050506018
 30
0.0
 11
111.3380893623
 21
66.6499996018
 31
0.0
  0
LINE
  5
5B
330
1F
100
AcDbEntity
  8
0
  6
Continuous
 62
     7
370
     0
100
AcDbLine
 10
111.0023773623
 20
64.8999996018
 30
0.0
 11
110.8973263623
 21
65.0050506018
 31
0.0
  0
LINE
  5
5C
330
1F
100
AcDbEntity
  8
0
  6
Continuous
 62
     7
370
     0
100
AcDbLine
 10
111.0023773623
 20
64.2355586018
 30
0.0
 11
111.0023773623
 21
64.8999996018
 31
0.0
  0
ARC
  5
5D
330
1F
100
AcDbEntity
  8
0
  6
Continuous
 62
     7
370
     0
100
AcDbCircle
 10
111.2483773449
 20
62.6039997172
 30
0.0
 40
1.650000116739581
100
AcDbArc
 50
98.5742458736
 51
166.079609
  0
LINE
  5
5E
330
1F
100
AcDbEntity
  8
0
  6
Continuous
 62
     7
370
     0
100
AcDbLine
 10
108.9523772316
 20
62.5999997453
 30
0.0
 11
109.6468362048
 21
63.0009460131
 31
0.0
  0
LINE
  5
5F
330
1F
100
AcDbEntity
  8
0
  6
Continuous
 62
     7
370
     0
100
AcDbLine
 10
108.9523772316
 20
57.3999997453
 30
0.0
 11
108.9523772316
 21
62.5999997453
 31
0.0
  0
LINE
  5
60
330
1F
100
AcDbEntity
  8
0
  6
Continuous
 62
     7
370
     0
100
AcDbLine
 10
109.6468362316
 20
56.9990537453
 30
0.0
 11
108.9523772316
 21
57.3999997453
 31
0.0
  0
ARC
  5
61
330
1F
100
AcDbEntity
  8
0
  6
Continuous
 62
     7
370
     0
100
AcDbCircle
 10
111.2483773888
 20
57.3959997843
 30
0.0
 40
1.650000071527015
100
AcDbArc
 50
193.920382198
 51
261.4257541263
  0
ARC
  5
62
330
1F
100
AcDbEntity
  8
0
  6
Continuous
 62
     7
370
     0
100
AcDbCircle
 10
97.1563773864
 20
57.3959998399
 30
0.0
 40
1.65000007152701
100
AcDbArc
 50
278.5742458737
 51
346.079617802
  0
LINE
  5
63
330
1F
100
AcDbEntity
  8
0
  6
Continuous
 62
     7
370
     0
100
AcDbLine
 10
99.4523775436
 20
57.3999998009
 30
0.0
 11
98.7579185436
 21
56.9990538009
 31
0.0
  0
LINE
  5
64
330
1F
100
AcDbEntity
  8
0
  6
Continuous
 62
     7
370
     0
100
AcDbLine
 10
99.4523775436
 20
62.5999998009
 30
0.0
 11
99.4523775436
 21
57.3999998009
 31
0.0
  0
CIRCLE
  5
65
330
1F
100
AcDbEntity
  8
0
  6
Continuous
 62
     7
370
     0
100
AcDbCircle
 10
104.2023773873
 20
70.95
 30
0.0
 40
1.25
  0
LINE
  5
66
330
1F
100
AcDbEntity
  8
0
  6
Continuous
 62
     7
370
     0
100
AcDbLine
 10
87.5023773873
 20
68.85
 30
0.0
 11
87.5023773873
 21
56.85
 31
0.0
  0
LINE
  5
67
330
1F
100
AcDbEntity
  8
0
  6
Continuous
 62
     7
370
     0
100
AcDbLine
 10
87.2023773873
 20
69.15
 30
0.0
 11
87.5023773873
 21
68.85
 31
0.0
  0
LINE
  5
68
330
1F
100
AcDbEntity
  8
0
  6
Continuous
 62
     7
370
     0
100
AcDbLine
 10
87.2023773873
 20
73.35
 30
0.0
 11
87.2023773873
 21
69.15
 31
0.0
  0
LINE
  5
69
330
1F
100
AcDbEntity
  8
0
  6
Continuous
 62
     7
370
     0
100
AcDbLine
 10
88.0023773873
 20
74.15
 30
0.0
 11
87.2023773873
 21
73.35
 31
0.0
  0
LINE
  5
6A
330
1F
100
AcDbEntity
  8
0
  6
Continuous
 62
     7
370
     0
100
AcDbLine
 10
120.4023773873
 20
74.15
 30
0.0
 11
88.0023773873
 21
74.15
 31
0.0
  0
LINE
  5
6B
330
1F
100
AcDbEntity
  8
0
  6
Continuous
 62
     7
370
     0
100
AcDbLine
 10
121.2023773873
 20
57.15
 30
0.0
 11
121.2023773873
 21
73.35
 31
0.0
  0
LINE
  5
6C
330
1F
100
AcDbEntity
  8
0
  6
Continuous
 62
     7
370
     0
100
AcDbLine
 10
118.3023773873
 20
54.25
 30
0.0
 11
121.2023773873
 21
57.15
 31
0.0
  0
LINE
  5
6D
330
1F
100
AcDbEntity
  8
0
  6
Continuous
 62
     7
370
     0
100
AcDbLine
 10
111.0023774129
 20
54.25
 30
0.0
 11
118.3023773873
 21
54.25
 31
0.0
  0
LINE
  5
6E
330
1F
100
AcDbEntity
  8
0
  6
Continuous
 62
     7
370
     0
100
AcDbLine
 10
87.5023773873
 20
56.85
 30
0.0
 11
90.1023773873
 21
54.25
 31
0.0
  0
LINE
  5
6F
330
1F
100
AcDbEntity
  8
0
  6
Continuous
 62
     7
370
     0
100
AcDbLine
 10
90.1023773873
 20
54.25
 30
0.0
 11
97.4023773623
 21
54.25
 31
0.0
  0
LINE
  5
70
330
1F
100
AcDbEntity
  8
0
  6
Continuous
 62
     7
370
     0
100
AcDbLine
 10
121.2023773873
 20
73.35
 30
0.0
 11
120.4023773873
 21
74.15
 31
0.0
  0
LINE
  5
71
330
1F
100
AcDbEntity
  8
0
  6
Continuous
 62
     7
370
     0
100
AcDbLine
 10
111.0023774129
 20
54.25
 30
0.0
 11
111.0023774129
 21
54.3
 31
0.0
  0
LINE
  5
72
330
1F
100
AcDbEntity
  8
0
  6
Continuous
 62
     7
370
     0
100
AcDbLine
 10
97.4023773623
 20
54.3
 30
0.0
 11
97.4023773623
 21
54.25
 31
0.0
  0
INSERT
  5
7E
330
1F
100
AcDbEntity
  8
0
  6
Continuous
 62
     7
370
     0
100
AcDbBlockReference
  2
SW_CENTERMARKSYMBOL_0
 10
91.9273773873
 20
67.45
 30
0.0
  0
INSERT
  5
8A
330
1F
100
AcDbEntity
  8
0
  6
Continuous
 62
     7
370
     0
100
AcDbBlockReference
  2
SW_CENTERMARKSYMBOL_1
 10
116.4773773873
 20
67.45
 30
0.0
  0
INSERT
  5
96
330
1F
100
AcDbEntity
  8
0
  6
Continuous
 62
     7
370
     0
100
AcDbBlockReference
  2
SW_CENTERMARKSYMBOL_2
 10
104.2023773873
 20
70.95
 30
0.0
  0
ARC
  5
97
330
1F
100
AcDbEntity
  8
0
  6
Continuous
 62
     7
370
     0
100
AcDbCircle
 10
116.4773773873
 20
67.45
 30
0.0
 40
1.250000000000003
100
AcDbArc
 50
255.0
 51
195.0
  0
ARC
  5
98
330
1F
100
AcDbEntity
  8
0
  6
Continuous
 62
     7
370
     0
100
AcDbCircle
 10
91.9273773873
 20
67.45
 30
0.0
 40
1.250000000000003
100
AcDbArc
 50
255.0
 51
195.0
  0
ARC
  5
99
330
1F
100
AcDbEntity
  8
0
  6
Continuous
 62
     7
370
     0
100
AcDbCircle
 10
104.2023773873
 20
70.95
 30
0.0
 40
1.500000000000007
100
AcDbArc
 50
255.0
 51
195.0
  0
LINE
  5
9A
330
1F
100
AcDbEntity
  8
0
  6
Continuous
 62
     7
370
     0
100
AcDbLine
 10
202.8023773873
 20
56.4207106781
 30
0.0
 11
193.3023773873
 21
56.4207106781
 31
0.0
  0
LINE
  5
9B
330
1F
100
AcDbEntity
  8
0
  6
Continuous
 62
     7
370
     0
100
AcDbLine
 10
202.8023773873
 20
56.4207106781
 30
0.0
 11
202.8023773873
 21
54.3
 31
0.0
  0
LINE
  5
9C
330
1F
100
AcDbEntity
  8
0
  6
Continuous
 62
     7
370
     0
100
AcDbLine
 10
202.8023773873
 20
54.3
 30
0.0
 11
193.3023773873
 21
54.3
 31
0.0
  0
LINE
  5
9D
330
1F
100
AcDbEntity
  8
0
  6
Continuous
 62
     7
370
     0
100
AcDbLine
 10
197.8992644999
 20
72.55
 30
0.0
 11
193.3023773873
 21
72.55
 31
0.0
  0
ARC
  5
9E
330
1F
100
AcDbEntity
  8
0
  6
Continuous
 62
     7
370
     0
100
AcDbCircle
 10
198.3023773873
 20
70.95
 30
0.0
 40
1.650000000000007
100
AcDbArc
 50
104.1411102339
 51
75.8588897661
  0
LINE
  5
9F
330
1F
100
AcDbEntity
  8
0
  6
Continuous
 62
     7
370
     0
100
AcDbLine
 10
202.8023773873
 20
72.55
 30
0.0
 11
198.7054902747
 21
72.55
 31
0.0
  0
LINE
  5
A0
330
1F
100
AcDbEntity
  8
0
  6
Continuous
 62
     7
370
     0
100
AcDbLine
 10
202.8023773873
 20
72.55
 30
0.0
 11
202.8023773873
 21
56.4207106781
 31
0.0
  0
LINE
  5
A1
330
1F
100
AcDbEntity
  8
0
  6
Continuous
 62
     7
370
     0
100
AcDbLine
 10
202.8023773873
 20
73.55
 30
0.0
 11
193.3023773873
 21
73.55
 31
0.0
  0
LWPOLYLINE
  5
A2
330
1F
100
AcDbEntity
  8
0
  6
Continuous
 62
     7
370
     0
100
AcDbPolyline
 90
        3
 70
   128
 43
0.0
 10
197.8992644999
 20
72.55
 10
198.3858519712
 20
72.5967904519
 10
198.7054902747
 20
72.55
  0
LINE
  5
A3
330
1F
100
AcDbEntity
  8
0
  6
Continuous
 62
     7
370
     0
100
AcDbLine
 10
202.8023773873
 20
73.55
 30
0.0
 11
202.8023773873
 21
72.55
 31
0.0
  0
CIRCLE
  5
A4
330
1F
100
AcDbEntity
  8
0
  6
Continuous
 62
     7
370
     0
100
AcDbCircle
 10
198.3023773873
 20
70.95
 30
0.0
 40
1.25
  0
LINE
  5
A5
330
1F
100
AcDbEntity
  8
0
  6
Continuous
 62
     7
370
     0
100
AcDbLine
 10
202.8023773873
 20
73.8
 30
0.0
 11
193.3023773873
 21
73.8
 31
0.0
  0
LINE
  5
A6
330
1F
100
AcDbEntity
  8
0
  6
Continuous
 62
     7
370
     0
100
AcDbLine
 10
202.8023773873
 20
73.8
 30
0.0
 11
202.8023773873
 21
73.55
 31
0.0
  0
LINE
  5
A7
330
1F
100
AcDbEntity
  8
0
  6
Continuous
 62
     7
370
     0
100
AcDbLine
 10
144.6023773873
 20
56.4207106781
 30
0.0
 11
154.1023773873
 21
56.4207106781
 31
0.0
  0
LINE
  5
A8
330
1F
100
AcDbEntity
  8
0
  6
Continuous
 62
     7
370
     0
100
AcDbLine
 10
144.6023773873
 20
56.4207106781
 30
0.0
 11
144.6023773873
 21
72.55
 31
0.0
  0
LINE
  5
A9
330
1F
100
AcDbEntity
  8
0
  6
Continuous
 62
     7
370
     0
100
AcDbLine
 10
144.6023773873
 20
72.55
 30
0.0
 11
148.6992644999
 21
72.55
 31
0.0
  0
ARC
  5
AA
330
1F
100
AcDbEntity
  8
0
  6
Continuous
 62
     7
370
     0
100
AcDbCircle
 10
149.1023773873
 20
70.95
 30
0.0
 40
1.650000000000013
100
AcDbArc
 50
104.1411102339
 51
75.8588897661
  0
LINE
  5
AB
330
1F
100
AcDbEntity
  8
0
  6
Continuous
 62
     7
370
     0
100
AcDbLine
 10
149.5054902747
 20
72.55
 30
0.0
 11
154.1023773873
 21
72.55
 31
0.0
  0
LINE
  5
AC
330
1F
100
AcDbEntity
  8
0
  6
Continuous
 62
     7
370
     0
100
AcDbLine
 10
144.6023773873
 20
54.3
 30
0.0
 11
154.1023773873
 21
54.3
 31
0.0
  0
LINE
  5
AD
330
1F
100
AcDbEntity
  8
0
  6
Continuous
 62
     7
370
     0
100
AcDbLine
 10
144.6023773873
 20
54.3
 30
0.0
 11
144.6023773873
 21
56.4207106781
 31
0.0
  0
LINE
  5
AE
330
1F
100
AcDbEntity
  8
0
  6
Continuous
 62
     7
370
     0
100
AcDbLine
 10
144.6023773873
 20
72.55
 30
0.0
 11
144.6023773873
 21
73.55
 31
0.0
  0
LINE
  5
AF
330
1F
100
AcDbEntity
  8
0
  6
Continuous
 62
     7
370
     0
100
AcDbLine
 10
144.6023773873
 20
73.55
 30
0.0
 11
154.1023773873
 21
73.55
 31
0.0
  0
LWPOLYLINE
  5
B0
330
1F
100
AcDbEntity
  8
0
  6
Continuous
 62
     7
370
     0
100
AcDbPolyline
 90
        3
 70
   128
 43
0.0
 10
148.6992644999
 20
72.55
 10
149.1858519712
 20
72.5967904519
 10
149.5054902747
 20
72.55
  0
CIRCLE
  5
B1
330
1F
100
AcDbEntity
  8
0
  6
Continuous
 62
     7
370
     0
100
AcDbCircle
 10
149.1023773873
 20
70.95
 30
0.0
 40
1.249999999999972
  0
LINE
  5
B2
330
1F
100
AcDbEntity
  8
0
  6
Continuous
 62
     7
370
     0
100
AcDbLine
 10
144.6023773873
 20
73.8
 30
0.0
 11
154.1023773873
 21
73.8
 31
0.0
  0
LINE
  5
B3
330
1F
100
AcDbEntity
  8
0
  6
Continuous
 62
     7
370
     0
100
AcDbLine
 10
144.6023773873
 20
73.55
 30
0.0
 11
144.6023773873
 21
73.8
 31
0.0
  0
LINE
  5
B4
330
1F
100
AcDbEntity
  8
0
  6
Continuous
 62
     7
370
     0
100
AcDbLine
 10
154.1023773873
 20
54.25
 30
0.0
 11
193.3023773873
 21
54.25
 31
0.0
  0
LINE
  5
B5
330
1F
100
AcDbEntity
  8
0
  6
Continuous
 62
     7
370
     0
100
AcDbLine
 10
154.1023773873
 20
54.25
 30
0.0
 11
154.1023773873
 21
57.15
 31
0.0
  0
LINE
  5
B6
330
1F
100
AcDbEntity
  8
0
  6
Continuous
 62
     7
370
     0
100
AcDbLine
 10
154.1023773873
 20
57.15
 30
0.0
 11
193.3023773873
 21
57.15
 31
0.0
  0
LINE
  5
B7
330
1F
100
AcDbEntity
  8
0
  6
Continuous
 62
     7
370
     0
100
AcDbLine
 10
193.3023773873
 20
54.25
 30
0.0
 11
193.3023773873
 21
57.15
 31
0.0
  0
LINE
  5
B8
330
1F
100
AcDbEntity
  8
0
  6
Continuous
 62
     7
370
     0
100
AcDbLine
 10
154.1023773873
 20
57.15
 30
0.0
 11
154.1023773873
 21
73.35
 31
0.0
  0
LINE
  5
B9
330
1F
100
AcDbEntity
  8
0
  6
Continuous
 62
     7
370
     0
100
AcDbLine
 10
154.1023773873
 20
73.35
 30
0.0
 11
193.3023773873
 21
73.35
 31
0.0
  0
LINE
  5
BA
330
1F
100
AcDbEntity
  8
0
  6
Continuous
 62
     7
370
     0
100
AcDbLine
 10
193.3023773873
 20
57.15
 30
0.0
 11
193.3023773873
 21
73.35
 31
0.0
  0
LINE
  5
BB
330
1F
100
AcDbEntity
  8
0
  6
Continuous
 62
     7
370
     0
100
AcDbLine
 10
154.1023773873
 20
73.35
 30
0.0
 11
154.1023773873
 21
74.15
 31
0.0
  0
LINE
  5
BC
330
1F
100
AcDbEntity
  8
0
  6
Continuous
 62
     7
370
     0
100
AcDbLine
 10
154.1023773873
 20
74.15
 30
0.0
 11
193.3023773873
 21
74.15
 31
0.0
  0
LINE
  5
BD
330
1F
100
AcDbEntity
  8
0
  6
Continuous
 62
     7
370
     0
100
AcDbLine
 10
193.3023773873
 20
73.35
 30
0.0
 11
193.3023773873
 21
74.15
 31
0.0
  0
INSERT
  5
C9
330
1F
100
AcDbEntity
  8
0
  6
Continuous
 62
     7
370
     0
100
AcDbBlockReference
  2
SW_CENTERMARKSYMBOL_3
 10
198.3023773873
 20
70.95
 30
0.0
  0
INSERT
  5
D5
330
1F
100
AcDbEntity
  8
0
  6
Continuous
 62
     7
370
     0
100
AcDbBlockReference
  2
SW_CENTERMARKSYMBOL_4
 10
149.1023773873
 20
70.95
 30
0.0
  0
ARC
  5
D6
330
1F
100
AcDbEntity
  8
0
  6
Continuous
 62
     7
370
     0
100
AcDbCircle
 10
198.3023773873
 20
70.95
 30
0.0
 40
1.500000000000007
100
AcDbArc
 50
255.0
 51
195.0
  0
ARC
  5
D7
330
1F
100
AcDbEntity
  8
0
  6
Continuous
 62
     7
370
     0
100
AcDbCircle
 10
149.1023773873
 20
70.95
 30
0.0
 40
1.500000000000007
100
AcDbArc
 50
255.0
 51
195.0
  0
LINE
  5
D8
330
1F
100
AcDbEntity
  8
0
  6
Continuous
 62
     7
370
     0
100
AcDbLine
 10
109.2523773873
 20
155.75
 30
0.0
 11
109.2523773873
 21
146.25
 31
0.0
  0
LINE
  5
D9
330
1F
100
AcDbEntity
  8
0
  6
Continuous
 62
     7
370
     0
100
AcDbLine
 10
109.2523773873
 20
155.75
 30
0.0
 11
109.5023773873
 21
155.75
 31
0.0
  0
LINE
  5
DA
330
1F
100
AcDbEntity
  8
0
  6
Continuous
 62
     7
370
     0
100
AcDbLine
 10
109.5023773873
 20
155.75
 30
0.0
 11
109.5023773873
 21
146.25
 31
0.0
  0
LINE
  5
DB
330
1F
100
AcDbEntity
  8
0
  6
Continuous
 62
     7
370
     0
100
AcDbLine
 10
99.1523773873
 20
155.75
 30
0.0
 11
99.1523773873
 21
146.25
 31
0.0
  0
CIRCLE
  5
DC
330
1F
100
AcDbEntity
  8
0
  6
Continuous
 62
     7
370
     0
100
AcDbCircle
 10
104.2023773873
 20
149.65
 30
0.0
 40
3.0
  0
LINE
  5
DD
330
1F
100
AcDbEntity
  8
0
  6
Continuous
 62
     7
370
     0
100
AcDbLine
 10
99.1523773873
 20
155.75
 30
0.0
 11
109.2523773873
 21
155.75
 31
0.0
  0
LINE
  5
DE
330
1F
100
AcDbEntity
  8
0
  6
Continuous
 62
     7
370
     0
100
AcDbLine
 10
98.9023773873
 20
155.75
 30
0.0
 11
98.9023773873
 21
146.25
 31
0.0
  0
LINE
  5
DF
330
1F
100
AcDbEntity
  8
0
  6
Continuous
 62
     7
370
     0
100
AcDbLine
 10
98.9023773873
 20
155.75
 30
0.0
 11
99.1523773873
 21
155.75
 31
0.0
  0
LINE
  5
E0
330
1F
100
AcDbEntity
  8
0
  6
Continuous
 62
     7
370
     0
100
AcDbLine
 10
119.4023773873
 20
155.75
 30
0.0
 11
119.4023773873
 21
146.25
 31
0.0
  0
LINE
  5
E1
330
1F
100
AcDbEntity
  8
0
  6
Continuous
 62
     7
370
     0
100
AcDbLine
 10
109.5023773873
 20
155.75
 30
0.0
 11
119.4023773873
 21
155.75
 31
0.0
  0
LINE
  5
E2
330
1F
100
AcDbEntity
  8
0
  6
Continuous
 62
     7
370
     0
100
AcDbLine
 10
120.4023773873
 20
155.75
 30
0.0
 11
120.4023773873
 21
151.6531128874
 31
0.0
  0
LWPOLYLINE
  5
E3
330
1F
100
AcDbEntity
  8
0
  6
Continuous
 62
     7
370
     0
100
AcDbPolyline
 90
        3
 70
   128
 43
0.0
 10
120.4023773873
 20
150.8468871126
 10
120.4012821143
 20
151.3334745839
 10
120.4023773873
 20
151.6531128874
  0
LINE
  5
E4
330
1F
100
AcDbEntity
  8
0
  6
Continuous
 62
     7
370
     0
100
AcDbLine
 10
120.4023773873
 20
150.8468871126
 30
0.0
 11
120.4023773873
 21
146.25
 31
0.0
  0
LINE
  5
E5
330
1F
100
AcDbEntity
  8
0
  6
Continuous
 62
     7
370
     0
100
AcDbLine
 10
119.4023773873
 20
155.75
 30
0.0
 11
120.4023773873
 21
155.75
 31
0.0
  0
LINE
  5
E6
330
1F
100
AcDbEntity
  8
0
  6
Continuous
 62
     7
370
     0
100
AcDbLine
 10
89.0023773873
 20
155.75
 30
0.0
 11
89.0023773873
 21
146.25
 31
0.0
  0
LINE
  5
E7
330
1F
100
AcDbEntity
  8
0
  6
Continuous
 62
     7
370
     0
100
AcDbLine
 10
89.0023773873
 20
155.75
 30
0.0
 11
98.9023773873
 21
155.75
 31
0.0
  0
LINE
  5
E8
330
1F
100
AcDbEntity
  8
0
  6
Continuous
 62
     7
370
     0
100
AcDbLine
 10
88.0023773873
 20
150.8468871126
 30
0.0
 11
88.0023773873
 21
146.25
 31
0.0
  0
LWPOLYLINE
  5
E9
330
1F
100
AcDbEntity
  8
0
  6
Continuous
 62
     7
370
     0
100
AcDbPolyline
 90
        3
 70
   128
 43
0.0
 10
88.0023773873
 20
151.6531128874
 10
88.0034726603
 20
151.1665254161
 10
88.0023773873
 20
150.8468871126
  0
LINE
  5
EA
330
1F
100
AcDbEntity
  8
0
  6
Continuous
 62
     7
370
     0
100
AcDbLine
 10
88.0023773873
 20
155.75
 30
0.0
 11
88.0023773873
 21
151.6531128874
 31
0.0
  0
LINE
  5
EB
330
1F
100
AcDbEntity
  8
0
  6
Continuous
 62
     7
370
     0
100
AcDbLine
 10
88.0023773873
 20
155.75
 30
0.0
 11
89.0023773873
 21
155.75
 31
0.0
  0
CIRCLE
  5
EC
330
1F
100
AcDbEntity
  8
0
  6
Continuous
 62
     7
370
     0
100
AcDbCircle
 10
104.2023773873
 20
148.45
 30
0.0
 40
0.5
  0
LINE
  5
ED
330
1F
100
AcDbEntity
  8
0
  6
Continuous
 62
     7
370
     0
100
AcDbLine
 10
109.5023773873
 20
97.55
 30
0.0
 11
109.5023773873
 21
107.05
 31
0.0
  0
LINE
  5
EE
330
1F
100
AcDbEntity
  8
0
  6
Continuous
 62
     7
370
     0
100
AcDbLine
 10
109.5023773873
 20
97.55
 30
0.0
 11
109.2523773873
 21
97.55
 31
0.0
  0
LINE
  5
EF
330
1F
100
AcDbEntity
  8
0
  6
Continuous
 62
     7
370
     0
100
AcDbLine
 10
109.2523773873
 20
97.55
 30
0.0
 11
109.2523773873
 21
107.05
 31
0.0
  0
LINE
  5
F0
330
1F
100
AcDbEntity
  8
0
  6
Continuous
 62
     7
370
     0
100
AcDbLine
 10
109.2523773873
 20
97.55
 30
0.0
 11
99.1523773873
 21
97.55
 31
0.0
  0
LINE
  5
F1
330
1F
100
AcDbEntity
  8
0
  6
Continuous
 62
     7
370
     0
100
AcDbLine
 10
99.1523773873
 20
97.55
 30
0.0
 11
99.1523773873
 21
107.05
 31
0.0
  0
CIRCLE
  5
F2
330
1F
100
AcDbEntity
  8
0
  6
Continuous
 62
     7
370
     0
100
AcDbCircle
 10
104.2023773873
 20
103.65
 30
0.0
 40
3.0
  0
LINE
  5
F3
330
1F
100
AcDbEntity
  8
0
  6
Continuous
 62
     7
370
     0
100
AcDbLine
 10
99.1523773873
 20
97.55
 30
0.0
 11
98.9023773873
 21
97.55
 31
0.0
  0
LINE
  5
F4
330
1F
100
AcDbEntity
  8
0
  6
Continuous
 62
     7
370
     0
100
AcDbLine
 10
98.9023773873
 20
97.55
 30
0.0
 11
98.9023773873
 21
107.05
 31
0.0
  0
LINE
  5
F5
330
1F
100
AcDbEntity
  8
0
  6
Continuous
 62
     7
370
     0
100
AcDbLine
 10
119.4023773873
 20
97.55
 30
0.0
 11
119.4023773873
 21
107.05
 31
0.0
  0
LINE
  5
F6
330
1F
100
AcDbEntity
  8
0
  6
Continuous
 62
     7
370
     0
100
AcDbLine
 10
119.4023773873
 20
97.55
 30
0.0
 11
109.5023773873
 21
97.55
 31
0.0
  0
LINE
  5
F7
330
1F
100
AcDbEntity
  8
0
  6
Continuous
 62
     7
370
     0
100
AcDbLine
 10
120.4023773873
 20
102.4531128874
 30
0.0
 11
120.4023773873
 21
107.05
 31
0.0
  0
LWPOLYLINE
  5
F8
330
1F
100
AcDbEntity
  8
0
  6
Continuous
 62
     7
370
     0
100
AcDbPolyline
 90
        3
 70
   128
 43
0.0
 10
120.4023773873
 20
101.6468871126
 10
120.4012821143
 20
102.1334745839
 10
120.4023773873
 20
102.4531128874
  0
LINE
  5
F9
330
1F
100
AcDbEntity
  8
0
  6
Continuous
 62
     7
370
     0
100
AcDbLine
 10
120.4023773873
 20
97.55
 30
0.0
 11
120.4023773873
 21
101.6468871126
 31
0.0
  0
LINE
  5
FA
330
1F
100
AcDbEntity
  8
0
  6
Continuous
 62
     7
370
     0
100
AcDbLine
 10
120.4023773873
 20
97.55
 30
0.0
 11
119.4023773873
 21
97.55
 31
0.0
  0
LINE
  5
FB
330
1F
100
AcDbEntity
  8
0
  6
Continuous
 62
     7
370
     0
100
AcDbLine
 10
89.0023773873
 20
97.55
 30
0.0
 11
89.0023773873
 21
107.05
 31
0.0
  0
LINE
  5
FC
330
1F
100
AcDbEntity
  8
0
  6
Continuous
 62
     7
370
     0
100
AcDbLine
 10
98.9023773873
 20
97.55
 30
0.0
 11
89.0023773873
 21
97.55
 31
0.0
  0
LINE
  5
FD
330
1F
100
AcDbEntity
  8
0
  6
Continuous
 62
     7
370
     0
100
AcDbLine
 10
88.0023773873
 20
97.55
 30
0.0
 11
88.0023773873
 21
101.6468871126
 31
0.0
  0
LWPOLYLINE
  5
FE
330
1F
100
AcDbEntity
  8
0
  6
Continuous
 62
     7
370
     0
100
AcDbPolyline
 90
        3
 70
   128
 43
0.0
 10
88.0023773873
 20
102.4531128874
 10
88.0034726603
 20
101.9665254161
 10
88.0023773873
 20
101.6468871126
  0
LINE
  5
FF
330
1F
100
AcDbEntity
  8
0
  6
Continuous
 62
     7
370
     0
100
AcDbLine
 10
88.0023773873
 20
102.4531128874
 30
0.0
 11
88.0023773873
 21
107.05
 31
0.0
  0
LINE
  5
100
330
1F
100
AcDbEntity
  8
0
  6
Continuous
 62
     7
370
     0
100
AcDbLine
 10
89.0023773873
 20
97.55
 30
0.0
 11
88.0023773873
 21
97.55
 31
0.0
  0
CIRCLE
  5
101
330
1F
100
AcDbEntity
  8
0
  6
Continuous
 62
     7
370
     0
100
AcDbCircle
 10
104.2023773873
 20
104.65
 30
0.0
 40
0.5
  0
LINE
  5
102
330
1F
100
AcDbEntity
  8
0
  6
Continuous
 62
     7
370
     0
100
AcDbLine
 10
88.0023773873
 20
107.05
 30
0.0
 11
88.0023773873
 21
146.25
 31
0.0
  0
LINE
  5
103
330
1F
100
AcDbEntity
  8
0
  6
Continuous
 62
     7
370
     0
100
AcDbLine
 10
88.0023773873
 20
107.05
 30
0.0
 11
87.2023773873
 21
107.05
 31
0.0
  0
LINE
  5
104
330
1F
100
AcDbEntity
  8
0
  6
Continuous
 62
     7
370
     0
100
AcDbLine
 10
87.2023773873
 20
107.05
 30
0.0
 11
87.2023773873
 21
146.25
 31
0.0
  0
LINE
  5
105
330
1F
100
AcDbEntity
  8
0
  6
Continuous
 62
     7
370
     0
100
AcDbLine
 10
88.0023773873
 20
146.25
 30
0.0
 11
87.2023773873
 21
146.25
 31
0.0
  0
LINE
  5
106
330
1F
100
AcDbEntity
  8
0
  6
Continuous
 62
     7
370
     0
100
AcDbLine
 10
120.4023773873
 20
107.05
 30
0.0
 11
120.4023773873
 21
146.25
 31
0.0
  0
LINE
  5
107
330
1F
100
AcDbEntity
  8
0
  6
Continuous
 62
     7
370
     0
100
AcDbLine
 10
120.4023773873
 20
107.05
 30
0.0
 11
88.0023773873
 21
107.05
 31
0.0
  0
CIRCLE
  5
108
330
1F
100
AcDbEntity
  8
0
  6
Continuous
 62
     7
370
     0
100
AcDbCircle
 10
91.2023773873
 20
139.65
 30
0.0
 40
2.050000000000125
  0
CIRCLE
  5
109
330
1F
100
AcDbEntity
  8
0
  6
Continuous
 62
     7
370
     0
100
AcDbCircle
 10
117.2023773873
 20
139.65
 30
0.0
 40
2.049999999999883
  0
CIRCLE
  5
10A
330
1F
100
AcDbEntity
  8
0
  6
Continuous
 62
     7
370
     0
100
AcDbCircle
 10
91.2023773873
 20
113.65
 30
0.0
 40
2.050000000000125
  0
CIRCLE
  5
10B
330
1F
100
AcDbEntity
  8
0
  6
Continuous
 62
     7
370
     0
100
AcDbCircle
 10
117.2023773873
 20
113.65
 30
0.0
 40
2.049999999999883
  0
LINE
  5
10C
330
1F
100
AcDbEntity
  8
0
  6
Continuous
 62
     7
370
     0
100
AcDbLine
 10
120.4023773873
 20
146.25
 30
0.0
 11
88.0023773873
 21
146.25
 31
0.0
  0
CIRCLE
  5
10D
330
1F
100
AcDbEntity
  8
0
  6
Continuous
 62
     7
370
     0
100
AcDbCircle
 10
91.2023773873
 20
139.65
 30
0.0
 40
1.650000000000006
  0
CIRCLE
  5
10E
330
1F
100
AcDbEntity
  8
0
  6
Continuous
 62
     7
370
     0
100
AcDbCircle
 10
91.2023773873
 20
113.65
 30
0.0
 40
1.65000000000002
  0
LINE
  5
10F
330
1F
100
AcDbEntity
  8
0
  6
Continuous
 62
     7
370
     0
100
AcDbLine
 10
121.2023773873
 20
107.05
 30
0.0
 11
121.2023773873
 21
146.25
 31
0.0
  0
LINE
  5
110
330
1F
100
AcDbEntity
  8
0
  6
Continuous
 62
     7
370
     0
100
AcDbLine
 10
121.2023773873
 20
107.05
 30
0.0
 11
120.4023773873
 21
107.05
 31
0.0
  0
LINE
  5
111
330
1F
100
AcDbEntity
  8
0
  6
Continuous
 62
     7
370
     0
100
AcDbLine
 10
121.2023773873
 20
146.25
 30
0.0
 11
120.4023773873
 21
146.25
 31
0.0
  0
CIRCLE
  5
112
330
1F
100
AcDbEntity
  8
0
  6
Continuous
 62
     7
370
     0
100
AcDbCircle
 10
117.2023773873
 20
139.65
 30
0.0
 40
1.650000000000006
  0
CIRCLE
  5
113
330
1F
100
AcDbEntity
  8
0
  6
Continuous
 62
     7
370
     0
100
AcDbCircle
 10
117.2023773873
 20
113.65
 30
0.0
 40
1.650000000000006
  0
INSERT
  5
11F
330
1F
100
AcDbEntity
  8
0
  6
Continuous
 62
     7
370
     0
100
AcDbBlockReference
  2
SW_CENTERMARKSYMBOL_5
 10
91.2023773873
 20
113.65
 30
0.0
  0
INSERT
  5
12B
330
1F
100
AcDbEntity
  8
0
  6
Continuous
 62
     7
370
     0
100
AcDbBlockReference
  2
SW_CENTERMARKSYMBOL_6
 10
117.2023773873
 20
113.65
 30
0.0
  0
INSERT
  5
137
330
1F
100
AcDbEntity
  8
0
  6
Continuous
 62
     7
370
     0
100
AcDbBlockReference
  2
SW_CENTERMARKSYMBOL_7
 10
117.2023773873
 20
139.65
 30
0.0
  0
INSERT
  5
143
330
1F
100
AcDbEntity
  8
0
  6
Continuous
 62
     7
370
     0
100
AcDbBlockReference
  2
SW_CENTERMARKSYMBOL_8
 10
91.2023773873
 20
139.65
 30
0.0
  0
INSERT
  5
14F
330
1F
100
AcDbEntity
  8
0
  6
Continuous
 62
     7
370
     0
100
AcDbBlockReference
  2
SW_CENTERMARKSYMBOL_9
 10
104.2023773873
 20
149.65
 30
0.0
  0
INSERT
  5
15B
330
1F
100
AcDbEntity
  8
0
  6
Continuous
 62
     7
370
     0
100
AcDbBlockReference
  2
SW_CENTERMARKSYMBOL_10
 10
104.2023773873
 20
148.45
 30
0.0
  0
INSERT
  5
167
330
1F
100
AcDbEntity
  8
0
  6
Continuous
 62
     7
370
     0
100
AcDbBlockReference
  2
SW_CENTERMARKSYMBOL_11
 10
104.2023773873
 20
103.65
 30
0.0
  0
INSERT
  5
173
330
1F
100
AcDbEntity
  8
0
  6
Continuous
 62
     7
370
     0
100
AcDbBlockReference
  2
SW_CENTERMARKSYMBOL_12
 10
104.2023773873
 20
104.65
 30
0.0
  0
ARC
  5
174
330
1F
100
AcDbEntity
  8
0
  6
Continuous
 62
     7
370
     0
100
AcDbCircle
 10
91.2023773873
 20
113.65
 30
0.0
 40
2.000000000000009
100
AcDbArc
 50
255.0
 51
195.0
  0
ARC
  5
175
330
1F
100
AcDbEntity
  8
0
  6
Continuous
 62
     7
370
     0
100
AcDbCircle
 10
117.2023773873
 20
113.65
 30
0.0
 40
2.000000000000009
100
AcDbArc
 50
255.0
 51
195.0
  0
ARC
  5
176
330
1F
100
AcDbEntity
  8
0
  6
Continuous
 62
     7
370
     0
100
AcDbCircle
 10
117.2023773873
 20
139.65
 30
0.0
 40
2.000000000000022
100
AcDbArc
 50
255.0
 51
195.0
  0
ARC
  5
177
330
1F
100
AcDbEntity
  8
0
  6
Continuous
 62
     7
370
     0
100
AcDbCircle
 10
91.2023773873
 20
139.65
 30
0.0
 40
2.000000000000022
100
AcDbArc
 50
255.0
 51
195.0
  0
LINE
  5
178
330
1F
100
AcDbEntity
  8
0
  6
Continuous
 62
     7
370
     0
100
AcDbLine
 10
186.5288248922
 20
150.2603923743
 30
0.0
 11
180.4427433077
 21
146.7469722608
 31
0.0
  0
LINE
  5
179
330
1F
100
AcDbEntity
  8
0
  6
Continuous
 62
     7
370
     0
100
AcDbLine
 10
161.4315187619
 20
110.2394311264
 30
0.0
 11
160.7805340049
 21
109.8636256255
 31
0.0
  0
LINE
  5
17A
330
1F
100
AcDbEntity
  8
0
  6
Continuous
 62
     7
370
     0
100
AcDbLine
 10
152.0927246484
 20
130.3808548514
 30
0.0
 11
145.3752102271
 21
126.5029163202
 31
0.0
  0
LINE
  5
17B
330
1F
100
AcDbEntity
  8
0
  6
Continuous
 62
     7
370
     0
100
AcDbLine
 10
152.4658512768
 20
108.5055313073
 30
0.0
 11
159.1833656981
 21
112.3834698385
 31
0.0
  0
LINE
  5
17C
330
1F
100
AcDbEntity
  8
0
  6
Continuous
 62
     7
370
     0
100
AcDbLine
 10
159.1833656981
 20
112.3834698385
 30
0.0
 11
159.8356820449
 21
112.7600440499
 31
0.0
  0
ARC
  5
17D
330
1F
100
AcDbEntity
  8
0
  6
Continuous
 62
     7
370
     0
100
AcDbCircle
 10
207.6967210864
 20
136.506875304
 30
0.0
 40
1.536804807571999
100
AcDbArc
 50
2.6054784857
 51
57.39452166
  0
LINE
  5
17E
330
1F
100
AcDbEntity
  8
0
  6
Continuous
 62
     7
370
     0
100
AcDbLine
 10
209.2319371878
 20
136.5767361563
 30
0.0
 11
206.3350005287
 21
134.9043702203
 31
0.0
  0
LWPOLYLINE
  5
17F
330
1F
100
AcDbEntity
  8
0
  6
Continuous
 62
     7
370
     0
100
AcDbPolyline
 90
        3
 70
   128
 43
0.0
 10
205.7649128161
 20
134.575265589
 10
206.1082076417
 20
134.8125459769
 10
206.3350005287
 20
134.9043702203
  0
LINE
  5
180
330
1F
100
AcDbEntity
  8
0
  6
Continuous
 62
     7
370
     0
100
AcDbLine
 10
209.2319371878
 20
136.5767361563
 30
0.0
 11
209.2319371878
 21
123.4065131583
 31
0.0
  0
LINE
  5
181
330
1F
100
AcDbEntity
  8
0
  6
Continuous
 62
     7
370
     0
100
AcDbLine
 10
209.2319371878
 20
123.4065131583
 30
0.0
 11
203.0801081914
 21
119.8551378718
 31
0.0
  0
LWPOLYLINE
  5
182
330
1F
100
AcDbEntity
  8
0
  6
Continuous
 62
     7
370
     0
100
AcDbPolyline
 90
       29
 70
   128
 43
0.0
 10
206.3350005287
 20
134.9043702203
 10
206.5611993117
 20
134.9395469134
 10
206.7656182202
 20
134.9105569654
 10
206.9395486338
 20
134.8186354015
 10
207.0755807977
 20
134.6676982488
 10
207.167919492
 20
134.4641757071
 10
207.2126309191
 20
134.2167382099
 10
207.2078102901
 20
133.9359270487
 10
207.1536629726
 20
133.6337052941
 10
207.0524957417
 20
133.3229481474
 10
206.9086185071
 20
133.0168944332
 10
206.7281607029
 20
132.7285826012
 10
206.5188101626
 20
132.4702952645
 10
206.2894856035
 20
132.2530359374
 10
206.0499566724
 20
132.086060266
 10
205.8104277413
 20
131.9764817202
 10
205.5811031822
 20
131.9289685471
 10
205.371752642
 20
131.9455448951
 10
205.1912948377
 20
132.0255045812
 10
205.0474176031
 20
132.1654411762
 10
204.9462503722
 20
132.3593931244
 10
204.8921030547
 20
132.5990977169
 10
204.8872824257
 20
132.8743430983
 10
204.9319938528
 20
133.1734033104
 10
205.0243325472
 20
133.4835378394
 10
205.160364711
 20
133.7915343853
 10
205.3342951246
 20
134.0842717303
 10
205.5387140331
 20
134.3492787263
 10
205.7649128161
 20
134.575265589
  0
LINE
  5
183
330
1F
100
AcDbEntity
  8
0
  6
Continuous
 62
     7
370
     0
100
AcDbLine
 10
201.5244732728
 20
141.8427011776
 30
0.0
 11
195.2312918807
 21
138.20972489
 31
0.0
  0
LINE
  5
184
330
1F
100
AcDbEntity
  8
0
  6
Continuous
 62
     7
370
     0
100
AcDbLine
 10
201.5244732728
 20
141.8427011776
 30
0.0
 11
208.5248304066
 21
137.8014810241
 31
0.0
  0
LWPOLYLINE
  5
185
330
1F
100
AcDbEntity
  8
0
  6
Continuous
 62
     7
370
     0
100
AcDbPolyline
 90
       20
 70
   128
 43
0.0
 10
204.8930750496
 20
132.9401506722
 10
204.9089145309
 20
132.8569424846
 10
204.9844740097
 20
132.6704940065
 10
205.1055176777
 20
132.5378694317
 10
205.2650109167
 20
132.4667764184
 10
205.4536845596
 20
132.4613466342
 10
205.6605735799
 20
132.5218956383
 10
205.8736543399
 20
132.6449045427
 10
206.0805433603
 20
132.823224517
 10
206.2692170031
 20
133.0464922525
 10
206.4287102422
 20
133.30173224
 10
206.5497539102
 20
133.574110859
 10
206.625313389
 20
133.8477984544
 10
206.6509974364
 20
134.1068892979
 10
206.625313389
 20
134.3363259715
 10
206.5497539102
 20
134.5227744495
 10
206.4287102422
 20
134.6553990243
 10
206.2692170031
 20
134.7264920376
 10
206.0805433603
 20
134.7319218219
 10
205.8782235069
 20
134.6733559329
  0
LINE
  5
186
330
1F
100
AcDbEntity
  8
0
  6
Continuous
 62
     7
370
     0
100
AcDbLine
 10
201.3476965775
 20
142.1488873945
 30
0.0
 11
194.8777097566
 21
138.4138435055
 31
0.0
  0
LINE
  5
187
330
1F
100
AcDbEntity
  8
0
  6
Continuous
 62
     7
370
     0
100
AcDbLine
 10
201.3476965775
 20
142.1488873945
 30
0.0
 11
201.5244732728
 21
141.8427011776
 31
0.0
  0
LINE
  5
188
330
1F
100
AcDbEntity
  8
0
  6
Continuous
 62
     7
370
     0
100
AcDbLine
 10
194.2059180875
 20
146.2717483593
 30
0.0
 11
187.7359312666
 21
142.5367044702
 31
0.0
  0
LWPOLYLINE
  5
189
330
1F
100
AcDbEntity
  8
0
  6
Continuous
 62
     7
370
     0
100
AcDbPolyline
 90
       42
 70
   128
 43
0.0
 10
191.3421356237
 20
142.9448853036
 10
191.0431785671
 20
142.7435971971
 10
190.8009507615
 20
142.5183232419
 10
190.6211298212
 20
142.2743436687
 10
190.5079305968
 20
142.0173771518
 10
190.464006382
 20
141.7534467685
 10
190.4903867233
 20
141.4887388234
 10
190.5864532878
 20
141.2294578464
 10
190.7499543567
 20
140.9816811637
 10
190.9770576035
 20
140.7512164509
 10
191.2624399206
 20
140.5434656055
 10
191.5994121883
 20
140.3632981311
 10
191.9800760623
 20
140.2149370007
 10
192.395509104
 20
140.1018596735
 10
192.8359739151
 20
140.0267165861
 10
193.2911463736
 20
139.9912690289
 10
193.7503576229
 20
139.9963478625
 10
194.2028441406
 20
140.0418340433
 10
194.6380000262
 20
140.1266614139
 10
195.0456255946
 20
140.2488416926
 10
195.4161664479
 20
140.4055110772
 10
195.7409374225
 20
140.5929973701
 10
196.0123261622
 20
140.8069060516
 10
196.2239715448
 20
141.0422232833
 10
196.3709127819
 20
141.2934334289
 10
196.4497056956
 20
141.5546483355
 10
196.4585034467
 20
141.819745347
 10
196.3970998233
 20
142.0825108141
 10
196.2669340744
 20
142.3367857372
 10
196.0710571748
 20
142.5766101273
 10
195.814060313
 20
142.7963627042
 10
195.5019672776
 20
142.9908926537
 10
195.1420932648
 20
143.1556403586
 10
194.7428734166
 20
143.2867442723
 10
194.3136651077
 20
143.3811314303
 10
193.8645286171
 20
143.4365894776
 10
193.4059913236
 20
143.4518185245
 10
192.9488009527
 20
143.426461615
 10
192.503673659
 20
143.3611130937
 10
192.0810428492
 20
143.2573046745
 10
191.6908146312
 20
143.1174695388
 10
191.3421356237
 20
142.9448853036
  0
LINE
  5
18A
330
1F
100
AcDbEntity
  8
0
  6
Continuous
 62
     7
370
     0
100
AcDbLine
 10
194.2059180875
 20
146.2717483593
 30
0.0
 11
201.3476965775
 21
142.1488873945
 31
0.0
  0
ARC
  5
18B
330
1F
100
AcDbEntity
  8
0
  6
Continuous
 62
     7
370
     0
100
AcDbCircle
 10
192.0034690749
 20
141.1956552847
 30
0.0
 40
1.568818554333512
100
AcDbArc
 50
114.9324032345
 51
166.6848609432
  0
LWPOLYLINE
  5
18C
330
1F
100
AcDbEntity
  8
0
  6
Continuous
 62
     7
370
     0
100
AcDbPolyline
 90
       16
 70
   128
 43
0.0
 10
196.4500885177
 20
141.5569649735
 10
196.3970998233
 20
141.7558944894
 10
196.2669340744
 20
142.0101694124
 10
196.0710571748
 20
142.2499938026
 10
195.814060313
 20
142.4697463795
 10
195.5019672776
 20
142.6642763289
 10
195.1420932648
 20
142.8290240338
 10
194.7428734166
 20
142.9601279476
 10
194.3136651077
 20
143.0545151056
 10
193.8645286171
 20
143.1099731528
 10
193.4059913236
 20
143.1252021997
 10
192.9488009527
 20
143.0998452903
 10
192.503673659
 20
143.034496769
 10
192.0810428492
 20
142.9306883498
 10
191.6908146312
 20
142.790853214
 10
191.3421356237
 20
142.6182689788
  0
LWPOLYLINE
  5
18D
330
1F
100
AcDbEntity
  8
0
  6
Continuous
 62
     7
370
     0
100
AcDbPolyline
 90
       17
 70
   128
 43
0.0
 10
192.2613744393
 20
141.1079139719
 10
192.1529880636
 20
141.0142711656
 10
192.1149278299
 20
140.903811944
 10
192.1529880636
 20
140.7933527224
 10
192.2613744393
 20
140.699709916
 10
192.4235861137
 20
140.6371397932
 10
192.6149278299
 20
140.615168088
 10
192.806269546
 20
140.6371397932
 10
192.9684812205
 20
140.699709916
 10
193.0768675961
 20
140.7933527224
 10
193.1149278299
 20
140.903811944
 10
193.0768675961
 20
141.0142711656
 10
192.9684812205
 20
141.1079139719
 10
192.806269546
 20
141.1704840948
 10
192.6149278299
 20
141.1924558
 10
192.4235861137
 20
141.1704840948
 10
192.2613744393
 20
141.1079139719
  0
LINE
  5
18E
330
1F
100
AcDbEntity
  8
0
  6
Continuous
 62
     7
370
     0
100
AcDbLine
 10
207.7323682863
 20
122.5405490396
 30
0.0
 11
203.0801081914
 21
119.8548564534
 31
0.0
  0
LINE
  5
18F
330
1F
100
AcDbEntity
  8
0
  6
Continuous
 62
     7
370
     0
100
AcDbLine
 10
209.2319371878
 20
123.4065131583
 30
0.0
 11
207.7323682863
 21
122.5405490396
 31
0.0
  0
LINE
  5
190
330
1F
100
AcDbEntity
  8
0
  6
Continuous
 62
     7
370
     0
100
AcDbLine
 10
187.0287842585
 20
150.2108843238
 30
0.0
 11
194.0291126587
 21
146.1696807578
 31
0.0
  0
ARC
  5
191
330
1F
100
AcDbEntity
  8
0
  6
Continuous
 62
     7
370
     0
100
AcDbCircle
 10
186.7358642036
 20
149.8020029947
 30
0.0
 40
0.502977235902008
100
AcDbArc
 50
54.3824225248
 51
114.3071190461
  0
LINE
  5
192
330
1F
100
AcDbEntity
  8
0
  6
Continuous
 62
     7
370
     0
100
AcDbLine
 10
145.1680628122
 20
112.8748485157
 30
0.0
 11
146.6676317137
 21
110.2775189966
 31
0.0
  0
LINE
  5
193
330
1F
100
AcDbEntity
  8
0
  6
Continuous
 62
     7
370
     0
100
AcDbLine
 10
145.1680628122
 20
126.0450715138
 30
0.0
 11
145.1680628122
 21
112.8748485157
 31
0.0
  0
ARC
  5
194
330
1F
100
AcDbEntity
  8
0
  6
Continuous
 62
     7
370
     0
100
AcDbCircle
 10
145.5991371797
 20
126.1149987107
 30
0.0
 40
0.4367091974284882
100
AcDbArc
 50
50.7967147643
 51
189.2140369905
  0
LINE
  5
195
330
1F
100
AcDbEntity
  8
0
  6
Continuous
 62
     7
370
     0
100
AcDbLine
 10
152.8755267272
 20
122.4121881162
 30
0.0
 11
145.8751695934
 21
126.4534082697
 31
0.0
  0
LINE
  5
196
330
1F
100
AcDbEntity
  8
0
  6
Continuous
 62
     7
370
     0
100
AcDbLine
 10
153.0523034225
 20
122.5142723052
 30
0.0
 11
152.8755267272
 21
122.4121881162
 31
0.0
  0
LINE
  5
197
330
1F
100
AcDbEntity
  8
0
  6
Continuous
 62
     7
370
     0
100
AcDbLine
 10
160.1940819125
 20
118.3914113405
 30
0.0
 11
153.0523034225
 21
122.5142723052
 31
0.0
  0
LINE
  5
198
330
1F
100
AcDbEntity
  8
0
  6
Continuous
 62
     7
370
     0
100
AcDbLine
 10
160.3708586078
 20
118.0852251236
 30
0.0
 11
160.1940819125
 21
118.3914113405
 31
0.0
  0
LINE
  5
199
330
1F
100
AcDbEntity
  8
0
  6
Continuous
 62
     7
370
     0
100
AcDbLine
 10
167.3712157415
 20
114.04400497
 30
0.0
 11
160.3708586078
 21
118.0852251236
 31
0.0
  0
ARC
  5
19A
330
1F
100
AcDbEntity
  8
0
  6
Continuous
 62
     7
370
     0
100
AcDbCircle
 10
166.5431064213
 20
112.74939925
 30
0.0
 40
1.536804807572059
100
AcDbArc
 50
2.6054784857
 51
57.39452166
  0
LINE
  5
19B
330
1F
100
AcDbEntity
  8
0
  6
Continuous
 62
     7
370
     0
100
AcDbLine
 10
168.0783225227
 20
99.6490371042
 30
0.0
 11
168.0783225227
 21
112.8192601022
 31
0.0
  0
LINE
  5
19C
330
1F
100
AcDbEntity
  8
0
  6
Continuous
 62
     7
370
     0
100
AcDbLine
 10
166.5787536213
 20
98.7830729855
 30
0.0
 11
168.0783225227
 21
99.6490371042
 31
0.0
  0
LINE
  5
19D
330
1F
100
AcDbEntity
  8
0
  6
Continuous
 62
     7
370
     0
100
AcDbLine
 10
161.4315187977
 20
101.7545084004
 30
0.0
 11
166.5787536213
 21
98.7830729855
 31
0.0
  0
LINE
  5
19E
330
1F
100
AcDbEntity
  8
0
  6
Continuous
 62
     7
370
     0
100
AcDbLine
 10
161.4315187977
 20
101.7545084004
 30
0.0
 11
161.4315187977
 21
102.9502841981
 31
0.0
  0
ARC
  5
19F
330
1F
100
AcDbEntity
  8
0
  6
Continuous
 62
     7
370
     0
100
AcDbCircle
 10
163.085741159
 20
105.0406675329
 30
0.0
 40
2.665737066308226
100
AcDbArc
 50
191.4445502782
 51
231.6437117276
  0
LINE
  5
1A0
330
1F
100
AcDbEntity
  8
0
  6
Continuous
 62
     7
370
     0
100
AcDbLine
 10
160.4730064362
 20
104.5117333451
 30
0.0
 11
159.981949768
 21
105.122603098
 31
0.0
  0
LINE
  5
1A1
330
1F
100
AcDbEntity
  8
0
  6
Continuous
 62
     7
370
     0
100
AcDbLine
 10
159.981949768
 20
105.122603098
 30
0.0
 11
159.981949768
 21
109.3686153198
 31
0.0
  0
LINE
  5
1A2
330
1F
100
AcDbEntity
  8
0
  6
Continuous
 62
     7
370
     0
100
AcDbLine
 10
159.981949768
 20
109.3686153198
 30
0.0
 11
160.4730064172
 21
109.4125233413
 31
0.0
  0
ARC
  5
1A3
330
1F
100
AcDbEntity
  8
0
  6
Continuous
 62
     7
370
     0
100
AcDbCircle
 10
161.1166857019
 20
109.2933613145
 30
0.0
 40
0.6546163839960633
100
AcDbArc
 50
61.2530017899
 51
169.5117796615
  0
LINE
  5
1A4
330
1F
100
AcDbEntity
  8
0
  6
Continuous
 62
     7
370
     0
100
AcDbLine
 10
161.4315187619
 20
109.8672975083
 30
0.0
 11
161.4315187619
 21
110.4098407019
 31
0.0
  0
LINE
  5
1A5
330
1F
100
AcDbEntity
  8
0
  6
Continuous
 62
     7
370
     0
100
AcDbLine
 10
161.4315187619
 20
110.4098407019
 30
0.0
 11
161.3572364874
 21
110.538501375
 31
0.0
  0
LINE
  5
1A6
330
1F
100
AcDbEntity
  8
0
  6
Continuous
 62
     7
370
     0
100
AcDbLine
 10
161.3572364874
 20
110.538501375
 30
0.0
 11
161.6689029936
 21
111.7017481227
 31
0.0
  0
LINE
  5
1A7
330
1F
100
AcDbEntity
  8
0
  6
Continuous
 62
     7
370
     0
100
AcDbLine
 10
161.6689029936
 20
111.7017481227
 30
0.0
 11
151.577482306
 21
117.5274012831
 31
0.0
  0
LINE
  5
1A8
330
1F
100
AcDbEntity
  8
0
  6
Continuous
 62
     7
370
     0
100
AcDbLine
 10
151.577482306
 20
117.5274012831
 30
0.0
 11
151.8891488122
 21
116.0043120469
 31
0.0
  0
LINE
  5
1A9
330
1F
100
AcDbEntity
  8
0
  6
Continuous
 62
     7
370
     0
100
AcDbLine
 10
151.8891488122
 20
116.0043120469
 30
0.0
 11
151.8148665377
 21
115.9614158623
 31
0.0
  0
LINE
  5
1AA
330
1F
100
AcDbEntity
  8
0
  6
Continuous
 62
     7
370
     0
100
AcDbLine
 10
151.8148665377
 20
115.9614158623
 30
0.0
 11
151.8148665377
 21
115.4188726687
 31
0.0
  0
ARC
  5
1AB
330
1F
100
AcDbEntity
  8
0
  6
Continuous
 62
     7
370
     0
100
AcDbCircle
 10
150.1606441764
 20
113.328489334
 30
0.0
 40
2.665737066308276
100
AcDbArc
 50
11.4445502782
 51
51.6437117276
  0
LINE
  5
1AC
330
1F
100
AcDbEntity
  8
0
  6
Continuous
 62
     7
370
     0
100
AcDbLine
 10
152.7733788992
 20
113.8574235217
 30
0.0
 11
153.2644355674
 21
113.2465537689
 31
0.0
  0
LINE
  5
1AD
330
1F
100
AcDbEntity
  8
0
  6
Continuous
 62
     7
370
     0
100
AcDbLine
 10
153.2644355674
 20
113.2465537689
 30
0.0
 11
153.2644355674
 21
109.0005415471
 31
0.0
  0
LINE
  5
1AE
330
1F
100
AcDbEntity
  8
0
  6
Continuous
 62
     7
370
     0
100
AcDbLine
 10
153.2644355674
 20
109.0005415471
 30
0.0
 11
152.7733788992
 21
108.9566337552
 31
0.0
  0
ARC
  5
1AF
330
1F
100
AcDbEntity
  8
0
  6
Continuous
 62
     7
370
     0
100
AcDbCircle
 10
152.1296995875
 20
109.0757956207
 30
0.0
 40
0.6546163811528246
100
AcDbArc
 50
241.2530026621
 51
349.5117939684
  0
LINE
  5
1B0
330
1F
100
AcDbEntity
  8
0
  6
Continuous
 62
     7
370
     0
100
AcDbLine
 10
151.8148665377
 20
108.5018594246
 30
0.0
 11
151.8148665377
 21
107.3060835815
 31
0.0
  0
LINE
  5
1B1
330
1F
100
AcDbEntity
  8
0
  6
Continuous
 62
     7
370
     0
100
AcDbLine
 10
146.6676317137
 20
110.2775189966
 30
0.0
 11
151.8148665377
 21
107.3060835815
 31
0.0
  0
LWPOLYLINE
  5
1B2
330
1F
100
AcDbEntity
  8
0
  6
Continuous
 62
     7
370
     0
100
AcDbPolyline
 90
       27
 70
   128
 43
0.0
 10
147.0772511215
 20
120.7785624222
 10
147.1024214879
 20
121.0034103623
 10
147.1764697772
 20
121.1861298708
 10
147.2950925718
 20
121.3161019541
 10
147.4513959461
 20
121.3857731071
 10
147.6362961161
 20
121.3910942957
 10
147.839047356
 20
121.3317562716
 10
148.0478665008
 20
121.2112075453
 10
148.2506177407
 20
121.0364539705
 10
148.4355179108
 20
120.8176515897
 10
148.591821285
 20
120.567516402
 10
148.7104440796
 20
120.3005853553
 10
148.7844923689
 20
120.0323715118
 10
148.8096627354
 20
119.7784624852
 10
148.7844923689
 20
119.5536145451
 10
148.7104440796
 20
119.3708950366
 10
148.591821285
 20
119.2409229533
 10
148.4355179108
 20
119.1712518003
 10
148.2506177407
 20
119.1659306117
 10
148.0478665008
 20
119.2252686358
 10
147.839047356
 20
119.3458173621
 10
147.6362961161
 20
119.5205709369
 10
147.4513959461
 20
119.7393733177
 10
147.2950925718
 20
119.9895085054
 10
147.1764697772
 20
120.2564395521
 10
147.1024214879
 20
120.5246533956
 10
147.0772511215
 20
120.7785624222
  0
LWPOLYLINE
  5
1B3
330
1F
100
AcDbEntity
  8
0
  6
Continuous
 62
     7
370
     0
100
AcDbPolyline
 90
       27
 70
   128
 43
0.0
 10
164.4367225996
 20
110.7571528496
 10
164.4618929661
 20
110.9820007896
 10
164.5359412553
 20
111.1647202981
 10
164.6545640499
 20
111.2946923814
 10
164.8108674242
 20
111.3643635345
 10
164.9957675942
 20
111.369684723
 10
165.1985188341
 20
111.310346699
 10
165.4073379789
 20
111.1897979727
 10
165.6100892189
 20
111.0150443978
 10
165.7949893889
 20
110.7962420171
 10
165.9512927632
 20
110.5461068294
 10
166.0699155578
 20
110.2791757827
 10
166.143963847
 20
110.0109619392
 10
166.1691342135
 20
109.7570529126
 10
166.143963847
 20
109.5322049725
 10
166.0699155578
 20
109.349485464
 10
165.9512927632
 20
109.2195133807
 10
165.7949893889
 20
109.1498422277
 10
165.6100892189
 20
109.1445210391
 10
165.4073379789
 20
109.2038590631
 10
165.1985188341
 20
109.3244077895
 10
164.9957675942
 20
109.4991613643
 10
164.8108674242
 20
109.7179637451
 10
164.6545640499
 20
109.9680989328
 10
164.5359412553
 20
110.2350299795
 10
164.4618929661
 20
110.5032438229
 10
164.4367225996
 20
110.7571528496
  0
LWPOLYLINE
  5
1B4
330
1F
100
AcDbEntity
  8
0
  6
Continuous
 62
     7
370
     0
100
AcDbPolyline
 90
       31
 70
   128
 43
0.0
 10
155.4564664785
 20
118.7992372012
 10
155.481962245
 20
119.0646366369
 10
155.5573352572
 20
119.2890000582
 10
155.6792913528
 20
119.4625217071
 10
155.8425004652
 20
119.5776178549
 10
156.039829573
 20
119.6292582475
 10
156.2626544473
 20
119.6151859522
 10
156.5012365719
 20
119.5360159956
 10
156.7451487631
 20
119.3952084848
 10
156.9837308876
 20
119.1989173837
 10
157.206555762
 20
118.9557215553
 10
157.4038848697
 20
118.6762498243
 10
157.5670939821
 20
118.3727164464
 10
157.6890500777
 20
118.0583872867
 10
157.7644230899
 20
117.7470000378
 10
157.7899188564
 20
117.4521638167
 10
157.7644230899
 20
117.1867643811
 10
157.6890500777
 20
116.9624009598
 10
157.5670939821
 20
116.7888793109
 10
157.4038848697
 20
116.6737831631
 10
157.206555762
 20
116.6221427704
 10
156.9837308876
 20
116.6362150658
 10
156.7451487631
 20
116.7153850224
 10
156.5012365719
 20
116.8561925332
 10
156.2626544473
 20
117.0524836343
 10
156.039829573
 20
117.2956794627
 10
155.8425004652
 20
117.5751511937
 10
155.6792913528
 20
117.8786845716
 10
155.5573352572
 20
118.1930137313
 10
155.481962245
 20
118.5044009802
 10
155.4564664785
 20
118.7992372012
  0
LINE
  5
1B5
330
1F
100
AcDbEntity
  8
0
  6
Continuous
 62
     7
370
     0
100
AcDbLine
 10
167.3712157415
 20
114.04400497
 30
0.0
 11
174.0887301628
 21
117.9219435012
 31
0.0
  0
ARC
  5
1B6
330
1F
100
AcDbEntity
  8
0
  6
Continuous
 62
     7
370
     0
100
AcDbCircle
 10
173.2606208426
 20
116.6273377811
 30
0.0
 40
1.536804807572173
100
AcDbArc
 50
2.6054784857
 51
57.39452166
  0
LINE
  5
1B7
330
1F
100
AcDbEntity
  8
0
  6
Continuous
 62
     7
370
     0
100
AcDbLine
 10
171.5453468943
 20
114.8207306695
 30
0.0
 11
174.795836944
 21
116.6971986334
 31
0.0
  0
LWPOLYLINE
  5
1B8
330
1F
100
AcDbEntity
  8
0
  6
Continuous
 62
     7
370
     0
100
AcDbPolyline
 90
        3
 70
   128
 43
0.0
 10
170.9752591818
 20
114.4916260382
 10
171.3185540074
 20
114.728906426
 10
171.5453468943
 20
114.8207306695
  0
LINE
  5
1B9
330
1F
100
AcDbEntity
  8
0
  6
Continuous
 62
     7
370
     0
100
AcDbLine
 10
168.0783225227
 20
112.8192601022
 30
0.0
 11
170.9752591818
 21
114.4916260382
 31
0.0
  0
LINE
  5
1BA
330
1F
100
AcDbEntity
  8
0
  6
Continuous
 62
     7
370
     0
100
AcDbLine
 10
174.795836944
 20
103.5269756354
 30
0.0
 11
174.795836944
 21
116.6971986334
 31
0.0
  0
LINE
  5
1BB
330
1F
100
AcDbEntity
  8
0
  6
Continuous
 62
     7
370
     0
100
AcDbLine
 10
168.0783225227
 20
99.6490371042
 30
0.0
 11
174.795836944
 21
103.5269756354
 31
0.0
  0
LWPOLYLINE
  5
1BC
330
1F
100
AcDbEntity
  8
0
  6
Continuous
 62
     7
370
     0
100
AcDbPolyline
 90
       29
 70
   128
 43
0.0
 10
171.5453468943
 20
114.8207306695
 10
171.7715456773
 20
114.8559073625
 10
171.9759645859
 20
114.8269174146
 10
172.1498949994
 20
114.7349958507
 10
172.2859271633
 20
114.584058698
 10
172.3782658577
 20
114.3805361562
 10
172.4229772847
 20
114.1330986591
 10
172.4181566557
 20
113.8522874978
 10
172.3640093382
 20
113.5500657433
 10
172.2628421073
 20
113.2393085966
 10
172.1189648727
 20
112.9332548823
 10
171.9385070685
 20
112.6449430504
 10
171.7291565283
 20
112.3866557136
 10
171.4998319691
 20
112.1693963866
 10
171.260303038
 20
112.0024207152
 10
171.020774107
 20
111.8928421694
 10
170.7914495478
 20
111.8453289963
 10
170.5820990076
 20
111.8619053442
 10
170.4016412034
 20
111.9418650304
 10
170.2577639687
 20
112.0818016254
 10
170.1565967378
 20
112.2757535735
 10
170.1024494203
 20
112.5154581661
 10
170.0976287913
 20
112.7907035475
 10
170.1423402184
 20
113.0897637595
 10
170.2346789128
 20
113.3998982885
 10
170.3707110766
 20
113.7078948345
 10
170.5446414902
 20
114.0006321794
 10
170.7490603988
 20
114.2656391754
 10
170.9752591818
 20
114.4916260382
  0
LINE
  5
1BD
330
1F
100
AcDbEntity
  8
0
  6
Continuous
 62
     7
370
     0
100
AcDbLine
 10
160.3708586078
 20
118.0852251236
 30
0.0
 11
167.088373029
 21
121.9631636547
 31
0.0
  0
LINE
  5
1BE
330
1F
100
AcDbEntity
  8
0
  6
Continuous
 62
     7
370
     0
100
AcDbLine
 10
174.0887301628
 20
117.9219435012
 30
0.0
 11
167.088373029
 21
121.9631636547
 31
0.0
  0
LWPOLYLINE
  5
1BF
330
1F
100
AcDbEntity
  8
0
  6
Continuous
 62
     7
370
     0
100
AcDbPolyline
 90
       20
 70
   128
 43
0.0
 10
170.1034214152
 20
112.8565111213
 10
170.1192608965
 20
112.7733029338
 10
170.1948203753
 20
112.5868544557
 10
170.3158640433
 20
112.4542298809
 10
170.4753572824
 20
112.3831368676
 10
170.6640309252
 20
112.3777070834
 10
170.8709199456
 20
112.4382560875
 10
171.0840007055
 20
112.5612649919
 10
171.2908897259
 20
112.7395849662
 10
171.4795633688
 20
112.9628527017
 10
171.6390566078
 20
113.2180926891
 10
171.7601002758
 20
113.4904713082
 10
171.8356597546
 20
113.7641589036
 10
171.861343802
 20
114.0232497471
 10
171.8356597546
 20
114.2526864206
 10
171.7601002758
 20
114.4391348987
 10
171.6390566078
 20
114.5717594735
 10
171.4795633688
 20
114.6428524868
 10
171.2908897259
 20
114.648282271
 10
171.0885698725
 20
114.5897163821
  0
LWPOLYLINE
  5
1C0
330
1F
100
AcDbEntity
  8
0
  6
Continuous
 62
     7
370
     0
100
AcDbPolyline
 90
       13
 70
   128
 43
0.0
 10
164.7195653121
 20
110.7571528496
 10
164.7464422856
 20
110.5158295266
 10
164.825079864
 20
110.2613725574
 10
164.9496458578
 20
110.0126538513
 10
165.1109017771
 20
109.788119737
 10
165.2968880081
 20
109.6044228825
 10
165.4938108029
 20
109.4751872431
 10
165.6870652985
 20
109.4099976351
 10
165.8623186933
 20
109.4136888734
 10
166.0065732445
 20
109.4859871958
 10
166.1091302521
 20
109.6215305664
 10
166.162383532
 20
109.8102663536
 10
166.1659800296
 20
109.8441575239
  0
LWPOLYLINE
  5
1C1
330
1F
100
AcDbEntity
  8
0
  6
Continuous
 62
     7
370
     0
100
AcDbPolyline
 90
        7
 70
   128
 43
0.0
 10
165.3769225599
 20
111.2109932508
 10
165.2968880081
 20
111.24332022
 10
165.1109017771
 20
111.274358497
 10
164.9496458578
 20
111.2360065041
 10
164.825079864
 20
111.1311086332
 10
164.7464422856
 20
110.9674446794
 10
164.7195653121
 20
110.7571528496
  0
LINE
  5
1C2
330
1F
100
AcDbEntity
  8
0
  6
Continuous
 62
     7
370
     0
100
AcDbLine
 10
160.1940819125
 20
118.3914113405
 30
0.0
 11
166.9115963337
 21
122.2693498717
 31
0.0
  0
LINE
  5
1C3
330
1F
100
AcDbEntity
  8
0
  6
Continuous
 62
     7
370
     0
100
AcDbLine
 10
167.088373029
 20
121.9631636547
 30
0.0
 11
166.9115963337
 21
122.2693498717
 31
0.0
  0
LINE
  5
1C4
330
1F
100
AcDbEntity
  8
0
  6
Continuous
 62
     7
370
     0
100
AcDbLine
 10
153.0523034225
 20
122.5142723052
 30
0.0
 11
159.7698178438
 21
126.3922108364
 31
0.0
  0
LWPOLYLINE
  5
1C5
330
1F
100
AcDbEntity
  8
0
  6
Continuous
 62
     7
370
     0
100
AcDbPolyline
 90
       42
 70
   128
 43
0.0
 10
158.8152236891
 20
124.1674987317
 10
158.5162666326
 20
123.9662106252
 10
158.2740388269
 20
123.74093667
 10
158.0942178866
 20
123.4969570968
 10
157.9810186622
 20
123.2399905798
 10
157.9370944474
 20
122.9760601966
 10
157.9634747887
 20
122.7113522515
 10
158.0595413533
 20
122.4520712745
 10
158.2230424222
 20
122.2042945918
 10
158.450145669
 20
121.973829879
 10
158.735527986
 20
121.7660790335
 10
159.0725002537
 20
121.5859115592
 10
159.4531641277
 20
121.4375504288
 10
159.8685971694
 20
121.3244731016
 10
160.3090619805
 20
121.2493300142
 10
160.764234439
 20
121.2138824569
 10
161.2234456884
 20
121.2189612905
 10
161.6759322061
 20
121.2644474714
 10
162.1110880917
 20
121.349274842
 10
162.51871366
 20
121.4714551207
 10
162.8892545133
 20
121.6281245053
 10
163.214025488
 20
121.8156107982
 10
163.4854142276
 20
122.0295194796
 10
163.6970596102
 20
122.2648367114
 10
163.8440008474
 20
122.516046857
 10
163.922793761
 20
122.7772617635
 10
163.9315915121
 20
123.042358775
 10
163.8701878888
 20
123.3051242422
 10
163.7400221399
 20
123.5593991652
 10
163.5441452402
 20
123.7992235554
 10
163.2871483784
 20
124.0189761323
 10
162.975055343
 20
124.2135060818
 10
162.6151813303
 20
124.3782537867
 10
162.215961482
 20
124.5093577004
 10
161.7867531731
 20
124.6037448584
 10
161.3376166826
 20
124.6592029057
 10
160.879079389
 20
124.6744319525
 10
160.4218890181
 20
124.6490750431
 10
159.9767617244
 20
124.5837265218
 10
159.5541309146
 20
124.4799181026
 10
159.1639026966
 20
124.3400829669
 10
158.8152236891
 20
124.1674987317
  0
LINE
  5
1C6
330
1F
100
AcDbEntity
  8
0
  6
Continuous
 62
     7
370
     0
100
AcDbLine
 10
166.9115963337
 20
122.2693498717
 30
0.0
 11
159.7698178438
 21
126.3922108364
 31
0.0
  0
LWPOLYLINE
  5
1C7
330
1F
100
AcDbEntity
  8
0
  6
Continuous
 62
     7
370
     0
100
AcDbPolyline
 90
       14
 70
   128
 43
0.0
 10
156.0221519035
 20
118.7992372012
 10
156.0478359509
 20
118.5401463577
 10
156.1233954297
 20
118.2664587623
 10
156.2444390977
 20
117.9940801433
 10
156.4039323367
 20
117.7388401559
 10
156.5926059796
 20
117.5155724204
 10
156.799495
 20
117.337252446
 10
157.0125757599
 20
117.2142435416
 10
157.2194647803
 20
117.1536945375
 10
157.4081384232
 20
117.1591243218
 10
157.5676316622
 20
117.2302173351
 10
157.6886753302
 20
117.3628419098
 10
157.764234809
 20
117.5492903879
 10
157.7800742904
 20
117.6324985757
  0
LWPOLYLINE
  5
1C8
330
1F
100
AcDbEntity
  8
0
  6
Continuous
 62
     7
370
     0
100
AcDbPolyline
 90
        7
 70
   128
 43
0.0
 10
156.7746252308
 20
119.3741761456
 10
156.5926059796
 20
119.4242697252
 10
156.4039323367
 20
119.4188399409
 10
156.2444390977
 20
119.3477469276
 10
156.1233954297
 20
119.2151223529
 10
156.0478359509
 20
119.0286738748
 10
156.0221519035
 20
118.7992372012
  0
ARC
  5
1C9
330
1F
100
AcDbEntity
  8
0
  6
Continuous
 62
     7
370
     0
100
AcDbCircle
 10
159.4765571403
 20
122.4182687127
 30
0.0
 40
1.568818554333935
100
AcDbArc
 50
114.9324032345
 51
166.6848609431
  0
LWPOLYLINE
  5
1CA
330
1F
100
AcDbEntity
  8
0
  6
Continuous
 62
     7
370
     0
100
AcDbPolyline
 90
       16
 70
   128
 43
0.0
 10
163.9231765831
 20
122.7795784015
 10
163.8701878888
 20
122.9785079175
 10
163.7400221399
 20
123.2327828405
 10
163.5441452402
 20
123.4726072307
 10
163.2871483784
 20
123.6923598076
 10
162.975055343
 20
123.886889757
 10
162.6151813303
 20
124.0516374619
 10
162.215961482
 20
124.1827413757
 10
161.7867531731
 20
124.2771285337
 10
161.3376166826
 20
124.3325865809
 10
160.879079389
 20
124.3478156278
 10
160.4218890181
 20
124.3224587183
 10
159.9767617244
 20
124.257110197
 10
159.5541309146
 20
124.1533017778
 10
159.1639026966
 20
124.0134666421
 10
158.8152236891
 20
123.8408824069
  0
LWPOLYLINE
  5
1CB
330
1F
100
AcDbEntity
  8
0
  6
Continuous
 62
     7
370
     0
100
AcDbPolyline
 90
       17
 70
   128
 43
0.0
 10
161.2900974233
 20
123.228576323
 10
161.1817110476
 20
123.1349335166
 10
161.1436508139
 20
123.0244742951
 10
161.1817110476
 20
122.9140150735
 10
161.2900974233
 20
122.8203722671
 10
161.4523090977
 20
122.7578021443
 10
161.6436508139
 20
122.735830439
 10
161.8349925301
 20
122.7578021443
 10
161.9972042045
 20
122.8203722671
 10
162.1055905802
 20
122.9140150735
 10
162.1436508139
 20
123.0244742951
 10
162.1055905802
 20
123.1349335166
 10
161.9972042045
 20
123.228576323
 10
161.8349925301
 20
123.2911464459
 10
161.6436508139
 20
123.3131181511
 10
161.4523090977
 20
123.2911464459
 10
161.2900974233
 20
123.228576323
  0
LINE
  5
1CC
330
1F
100
AcDbEntity
  8
0
  6
Continuous
 62
     7
370
     0
100
AcDbLine
 10
166.5787536213
 20
98.7830729855
 30
0.0
 11
173.2962680425
 21
102.6610115167
 31
0.0
  0
LINE
  5
1CD
330
1F
100
AcDbEntity
  8
0
  6
Continuous
 62
     7
370
     0
100
AcDbLine
 10
173.2962680425
 20
102.6610115167
 30
0.0
 11
174.795836944
 21
103.5269756354
 31
0.0
  0
LINE
  5
1CE
330
1F
100
AcDbEntity
  8
0
  6
Continuous
 62
     7
370
     0
100
AcDbLine
 10
160.6400835731
 20
109.7485478783
 30
0.0
 11
159.981949768
 21
109.3686153198
 31
0.0
  0
LINE
  5
1CF
330
1F
100
AcDbEntity
  8
0
  6
Continuous
 62
     7
370
     0
100
AcDbLine
 10
145.8751695934
 20
126.4534082697
 30
0.0
 11
152.5926840147
 21
130.3313468009
 31
0.0
  0
LINE
  5
1D0
330
1F
100
AcDbEntity
  8
0
  6
Continuous
 62
     7
370
     0
100
AcDbLine
 10
159.5930124149
 20
126.2901432349
 30
0.0
 11
152.5926840147
 21
130.3313468009
 31
0.0
  0
LINE
  5
1D1
330
1F
100
AcDbEntity
  8
0
  6
Continuous
 62
     7
370
     0
100
AcDbLine
 10
153.0524924655
 20
116.6758960429
 30
0.0
 11
151.8891488122
 21
116.0043120469
 31
0.0
  0
LINE
  5
1D2
330
1F
100
AcDbEntity
  8
0
  6
Continuous
 62
     7
370
     0
100
AcDbLine
 10
155.3540689874
 20
115.3472241983
 30
0.0
 11
152.7733788992
 21
113.8574235217
 31
0.0
  0
LINE
  5
1D3
330
1F
100
AcDbEntity
  8
0
  6
Continuous
 62
     7
370
     0
100
AcDbLine
 10
153.5224116432
 20
116.4046174759
 30
0.0
 11
151.8148665377
 21
115.4188726687
 31
0.0
  0
ARC
  5
1D4
330
1F
100
AcDbEntity
  8
0
  6
Continuous
 62
     7
370
     0
100
AcDbCircle
 10
152.2997639599
 20
129.9224654718
 30
0.0
 40
0.5029772359017143
100
AcDbArc
 50
54.3824225248
 51
114.3071190461
  0
LINE
  5
1D5
330
1F
100
AcDbEntity
  8
0
  6
Continuous
 62
     7
370
     0
100
AcDbLine
 10
153.0525045394
 20
116.6758890727
 30
0.0
 11
151.8148665377
 21
115.9614158623
 31
0.0
  0
LINE
  5
1D6
330
1F
100
AcDbEntity
  8
0
  6
Continuous
 62
     7
370
     0
100
AcDbLine
 10
156.1286833734
 20
114.9000488317
 30
0.0
 11
153.2644355674
 21
113.2465537689
 31
0.0
  0
LINE
  5
1D7
330
1F
100
AcDbEntity
  8
0
  6
Continuous
 62
     7
370
     0
100
AcDbLine
 10
159.8062362928
 20
112.7770427208
 30
0.0
 11
153.2644355674
 21
109.0005415471
 31
0.0
  0
LWPOLYLINE
  5
1D8
330
1F
100
AcDbEntity
  8
0
  6
Continuous
 62
     7
370
     0
100
AcDbPolyline
 90
       13
 70
   128
 43
0.0
 10
147.3600938339
 20
120.7785624222
 10
147.3869708074
 20
120.5372390992
 10
147.4656083858
 20
120.28278213
 10
147.5901743797
 20
120.0340634239
 10
147.751430299
 20
119.8095293096
 10
147.93741653
 20
119.6258324551
 10
148.1343393247
 20
119.4965968158
 10
148.3275938204
 20
119.4314072077
 10
148.5028472151
 20
119.435098446
 10
148.6471017664
 20
119.5073967684
 10
148.749658774
 20
119.642940139
 10
148.8029120539
 20
119.8316759262
 10
148.8065085514
 20
119.8655670958
  0
LWPOLYLINE
  5
1D9
330
1F
100
AcDbEntity
  8
0
  6
Continuous
 62
     7
370
     0
100
AcDbPolyline
 90
        7
 70
   128
 43
0.0
 10
148.0174510812
 20
121.2324028237
 10
147.93741653
 20
121.2647297926
 10
147.751430299
 20
121.2957680696
 10
147.5901743797
 20
121.2574160768
 10
147.4656083858
 20
121.1525182058
 10
147.3869708074
 20
120.9888542521
 10
147.3600938339
 20
120.7785624222
  0
LWPOLYLINE
  5
1DA
330
1F
100
AcDbEntity
  8
0
  6
Continuous
 62
     7
370
     0
100
AcDbPolyline
 90
        3
 70
   128
 43
0.0
 10
159.1833656981
 20
112.3834698385
 10
159.2621314841
 20
112.4385923003
 10
159.3238159506
 20
112.4985473852
  0
LINE
  5
1DB
330
1F
100
AcDbEntity
  8
0
  6
Continuous
 62
     7
370
     0
100
AcDbLine
 10
158.532380959
 20
111.1840221126
 30
0.0
 11
151.8148665377
 21
107.3060835815
 31
0.0
  0
LINE
  5
1DC
330
1F
100
AcDbEntity
  8
0
  6
Continuous
 62
     7
370
     0
100
AcDbLine
 10
158.532380959
 20
111.1840221126
 30
0.0
 11
158.532380959
 21
112.0076643479
 31
0.0
  0
LINE
  5
1DD
330
1F
100
AcDbEntity
  8
0
  6
Continuous
 62
     7
370
     0
100
AcDbLine
 10
158.4970198732
 20
111.1636085924
 30
0.0
 11
158.532380959
 21
111.1431950721
 31
0.0
  0
LINE
  5
1DE
330
1F
100
AcDbEntity
  8
0
  6
Continuous
 62
     7
370
     0
100
AcDbLine
 10
151.3198918086
 20
130.9028059392
 30
0.0
 11
151.3198918086
 21
129.9347079495
 31
0.0
  0
LINE
  5
1DF
330
1F
100
AcDbEntity
  8
0
  6
Continuous
 62
     7
370
     0
100
AcDbLine
 10
151.8855772335
 20
131.2294753439
 30
0.0
 11
151.3198918086
 21
130.9028059392
 31
0.0
  0
LINE
  5
1E0
330
1F
100
AcDbEntity
  8
0
  6
Continuous
 62
     7
370
     0
100
AcDbLine
 10
174.795836944
 20
118.0036639324
 30
0.0
 11
151.8855772335
 21
131.2294753439
 31
0.0
  0
LINE
  5
1E1
330
1F
100
AcDbEntity
  8
0
  6
Continuous
 62
     7
370
     0
100
AcDbLine
 10
175.3615223689
 20
117.0238680382
 30
0.0
 11
174.795836944
 21
118.0036639324
 31
0.0
  0
LINE
  5
1E2
330
1F
100
AcDbEntity
  8
0
  6
Continuous
 62
     7
370
     0
100
AcDbLine
 10
175.3615223689
 20
103.7959068856
 30
0.0
 11
175.3615223689
 21
117.0238680382
 31
0.0
  0
LINE
  5
1E3
330
1F
100
AcDbEntity
  8
0
  6
Continuous
 62
     7
370
     0
100
AcDbLine
 10
173.3109127035
 20
102.6117302933
 30
0.0
 11
175.3615223689
 21
103.7959068856
 31
0.0
  0
LINE
  5
1E4
330
1F
100
AcDbEntity
  8
0
  6
Continuous
 62
     7
370
     0
100
AcDbLine
 10
173.2609069568
 20
102.6405979964
 30
0.0
 11
173.3109127035
 21
102.6117302933
 31
0.0
  0
LWPOLYLINE
  5
1E5
330
1F
100
AcDbEntity
  8
0
  6
Continuous
 62
     7
370
     0
100
AcDbPolyline
 90
        3
 70
   128
 43
0.0
 10
159.3238159506
 20
112.4985473852
 10
159.2621314841
 20
112.4385923003
 10
159.1833656981
 20
112.3834698385
  0
LINE
  5
1E6
330
1F
100
AcDbEntity
  8
0
  6
Continuous
 62
     7
370
     0
100
AcDbLine
 10
158.532380959
 20
112.0076643479
 30
0.0
 11
158.532380959
 21
111.1431950721
 31
0.0
  0
LINE
  5
1E7
330
1F
100
AcDbEntity
  8
0
  6
Continuous
 62
     7
370
     0
100
AcDbLine
 10
175.3615223689
 20
117.0238680382
 30
0.0
 11
203.0801081914
 21
133.0254670299
 31
0.0
  0
LINE
  5
1E8
330
1F
100
AcDbEntity
  8
0
  6
Continuous
 62
     7
370
     0
100
AcDbLine
 10
174.795836944
 20
118.0036639324
 30
0.0
 11
202.5144227665
 21
134.0052629241
 31
0.0
  0
LINE
  5
1E9
330
1F
100
AcDbEntity
  8
0
  6
Continuous
 62
     7
370
     0
100
AcDbLine
 10
203.0801081914
 20
133.0254670299
 30
0.0
 11
202.5144227665
 21
134.0052629241
 31
0.0
  0
LINE
  5
1EA
330
1F
100
AcDbEntity
  8
0
  6
Continuous
 62
     7
370
     0
100
AcDbLine
 10
175.3615223689
 20
103.7959068856
 30
0.0
 11
203.0801081914
 21
119.7975058774
 31
0.0
  0
LINE
  5
1EB
330
1F
100
AcDbEntity
  8
0
  6
Continuous
 62
     7
370
     0
100
AcDbLine
 10
203.0801081914
 20
119.7975058774
 30
0.0
 11
203.0801081914
 21
133.0254670299
 31
0.0
  0
LINE
  5
1EC
330
1F
100
AcDbEntity
  8
0
  6
Continuous
 62
     7
370
     0
100
AcDbLine
 10
151.8855772335
 20
131.2294753439
 30
0.0
 11
179.604163056
 21
147.2310743357
 31
0.0
  0
LINE
  5
1ED
330
1F
100
AcDbEntity
  8
0
  6
Continuous
 62
     7
370
     0
100
AcDbLine
 10
202.5144227665
 20
134.0052629241
 30
0.0
 11
179.604163056
 21
147.2310743357
 31
0.0
  0
LWPOLYLINE
  5
1EE
330
1F
100
AcDbEntity
  8
0
  6
Continuous
 62
     7
370
     0
100
AcDbPolyline
 90
       34
 70
   128
 43
0.0
 10
178.6495689014
 20
142.3938562731
 10
178.3490405846
 20
142.2506097629
 10
178.0069829472
 20
142.1427853489
 10
177.6357588436
 20
142.0742800865
 10
177.24878528
 20
142.0475699344
 10
176.8600484892
 20
142.063620267
 10
176.4835984318
 20
142.1218509834
 10
176.1330409937
 20
142.2201574739
 10
175.8210462339
 20
142.3549866858
 10
175.5588904561
 20
142.5214655401
 10
175.3560486531
 20
142.7135770571
 10
175.2198520561
 20
142.9243778262
 10
175.155223165
 20
143.1462489583
 10
175.1644978364
 20
143.3711714527
 10
175.2473408594
 20
143.5910160242
 10
175.4007580714
 20
143.7978369174
 10
175.6192045745
 20
143.9841590863
 10
175.8947851431
 20
144.1432483622
 10
176.2175395772
 20
144.2693548442
 10
176.5758026908
 20
144.3579207155
 10
176.9566259216
 20
144.4057449747
 10
177.3462453256
 20
144.4110991285
 10
177.7305790425
 20
144.3737896639
 10
178.0957362504
 20
144.295165042
 10
178.4285192163
 20
144.1780669616
 10
178.716900297
 20
144.0267276524
 10
178.9504566486
 20
143.8466169114
 10
179.1207469362
 20
143.64424441
 10
179.2216164251
 20
143.4269244176
 10
179.2494194291
 20
143.2025114451
 10
179.2031510752
 20
142.9791163619
 10
179.0844836223
 20
142.7648132484
 10
178.8977060214
 20
142.5673475776
 10
178.6495689014
 20
142.3938562731
  0
LWPOLYLINE
  5
1EF
330
1F
100
AcDbEntity
  8
0
  6
Continuous
 62
     7
370
     0
100
AcDbPolyline
 90
       34
 70
   128
 43
0.0
 10
197.0343452123
 20
131.7805508194
 10
196.7338168954
 20
131.6373043092
 10
196.3917592581
 20
131.5294798952
 10
196.0205351544
 20
131.4609746329
 10
195.6335615908
 20
131.4342644807
 10
195.2448248001
 20
131.4503148133
 10
194.8683747427
 20
131.5085455297
 10
194.5178173045
 20
131.6068520202
 10
194.2058225448
 20
131.7416812321
 10
193.943666767
 20
131.9081600864
 10
193.7408249639
 20
132.1002716034
 10
193.604628367
 20
132.3110723725
 10
193.5399994759
 20
132.5329435046
 10
193.5492741473
 20
132.757865999
 10
193.6321171703
 20
132.9777105705
 10
193.7855343822
 20
133.1845314637
 10
194.0039808854
 20
133.3708536326
 10
194.2795614539
 20
133.5299429085
 10
194.6023158881
 20
133.6560493905
 10
194.9605790017
 20
133.7446152618
 10
195.3414022324
 20
133.792439521
 10
195.7310216364
 20
133.7977936748
 10
196.1153553533
 20
133.7604842102
 10
196.4805125612
 20
133.6818595883
 10
196.8132955272
 20
133.5647615079
 10
197.1016766078
 20
133.4134221987
 10
197.3352329595
 20
133.2333114577
 10
197.5055232471
 20
133.0309389563
 10
197.606392736
 20
132.8136189639
 10
197.63419574
 20
132.5892059914
 10
197.5879273861
 20
132.3658109082
 10
197.4692599332
 20
132.1515077947
 10
197.2824823322
 20
131.9540421239
 10
197.0343452123
 20
131.7805508194
  0
LWPOLYLINE
  5
1F0
330
1F
100
AcDbEntity
  8
0
  6
Continuous
 62
     7
370
     0
100
AcDbPolyline
 90
       34
 70
   128
 43
0.0
 10
160.2647925906
 20
131.7805508194
 10
159.9642642737
 20
131.6373043092
 10
159.6222066364
 20
131.5294798952
 10
159.2509825327
 20
131.4609746329
 10
158.8640089691
 20
131.4342644807
 10
158.4752721784
 20
131.4503148133
 10
158.098822121
 20
131.5085455297
 10
157.7482646828
 20
131.6068520202
 10
157.4362699231
 20
131.7416812321
 10
157.1741141453
 20
131.9081600864
 10
156.9712723422
 20
132.1002716034
 10
156.8350757453
 20
132.3110723725
 10
156.7704468542
 20
132.5329435046
 10
156.7797215256
 20
132.757865999
 10
156.8625645486
 20
132.9777105705
 10
157.0159817605
 20
133.1845314637
 10
157.2344282637
 20
133.3708536326
 10
157.5100088322
 20
133.5299429085
 10
157.8327632664
 20
133.6560493905
 10
158.19102638
 20
133.7446152618
 10
158.5718496107
 20
133.792439521
 10
158.9614690147
 20
133.7977936748
 10
159.3458027316
 20
133.7604842102
 10
159.7109599395
 20
133.6818595883
 10
160.0437429055
 20
133.5647615079
 10
160.3321239861
 20
133.4134221987
 10
160.5656803378
 20
133.2333114577
 10
160.7359706254
 20
133.0309389563
 10
160.8368401143
 20
132.8136189639
 10
160.8646431183
 20
132.5892059914
 10
160.8183747644
 20
132.3658109082
 10
160.6997073115
 20
132.1515077947
 10
160.5129297105
 20
131.9540421239
 10
160.2647925906
 20
131.7805508194
  0
LWPOLYLINE
  5
1F1
330
1F
100
AcDbEntity
  8
0
  6
Continuous
 62
     7
370
     0
100
AcDbPolyline
 90
       34
 70
   128
 43
0.0
 10
178.6495689014
 20
121.1672453657
 10
178.3490405846
 20
121.0239988555
 10
178.0069829472
 20
120.9161744415
 10
177.6357588436
 20
120.8476691792
 10
177.24878528
 20
120.820959027
 10
176.8600484892
 20
120.8370093596
 10
176.4835984318
 20
120.895240076
 10
176.1330409937
 20
120.9935465665
 10
175.8210462339
 20
121.1283757784
 10
175.5588904561
 20
121.2948546327
 10
175.3560486531
 20
121.4869661497
 10
175.2198520561
 20
121.6977669188
 10
175.155223165
 20
121.9196380509
 10
175.1644978364
 20
122.1445605453
 10
175.2473408594
 20
122.3644051168
 10
175.4007580714
 20
122.57122601
 10
175.6192045745
 20
122.7575481789
 10
175.8947851431
 20
122.9166374548
 10
176.2175395772
 20
123.0427439368
 10
176.5758026908
 20
123.1313098081
 10
176.9566259216
 20
123.1791340673
 10
177.3462453256
 20
123.1844882211
 10
177.7305790425
 20
123.1471787565
 10
178.0957362504
 20
123.0685541346
 10
178.4285192163
 20
122.9514560542
 10
178.716900297
 20
122.800116745
 10
178.9504566486
 20
122.620006004
 10
179.1207469362
 20
122.4176335026
 10
179.2216164251
 20
122.2003135102
 10
179.2494194291
 20
121.9759005377
 10
179.2031510752
 20
121.7525054545
 10
179.0844836223
 20
121.538202341
 10
178.8977060214
 20
121.3407366702
 10
178.6495689014
 20
121.1672453657
  0
LWPOLYLINE
  5
1F2
330
1F
100
AcDbEntity
  8
0
  6
Continuous
 62
     7
370
     0
100
AcDbPolyline
 90
       16
 70
   128
 43
0.0
 10
178.366726189
 20
122.3509840478
 10
178.0986544078
 20
122.4763018076
 10
177.7913071167
 20
122.5667057946
 10
177.4581168673
 20
122.6182449205
 10
177.1136456722
 20
122.6286666785
 10
176.7729485756
 20
122.5975155876
 10
176.4509156754
 20
122.5261531
 10
176.1616213548
 20
122.4176980988
 10
175.9177091636
 20
122.276890588
 10
175.7298392351
 20
122.1098845315
 10
175.6062223866
 20
121.9239788953
 10
175.5522612677
 20
121.7272986479
 10
175.570314238
 20
121.5284396598
 10
175.6595922963
 20
121.336093023
 10
175.8161935629
 20
121.1586652086
 10
175.9070266231
 20
121.0857007421
  0
LWPOLYLINE
  5
1F3
330
1F
100
AcDbEntity
  8
0
  6
Continuous
 62
     7
370
     0
100
AcDbPolyline
 90
        8
 70
   128
 43
0.0
 10
178.4929733769
 20
121.0857007421
 10
178.6701607649
 20
121.2450101797
 10
178.7937776134
 20
121.4309158158
 10
178.8477387323
 20
121.6275960633
 10
178.829685762
 20
121.8264550514
 10
178.7404077037
 20
122.0188016882
 10
178.5838064371
 20
122.1962295026
 10
178.366726189
 20
122.3509840478
  0
LINE
  5
1F4
330
1F
100
AcDbEntity
  8
0
  6
Continuous
 62
     7
370
     0
100
AcDbLine
 10
173.3109127035
 20
102.6117302933
 30
0.0
 11
201.029498526
 21
118.613329285
 31
0.0
  0
LINE
  5
1F5
330
1F
100
AcDbEntity
  8
0
  6
Continuous
 62
     7
370
     0
100
AcDbLine
 10
201.029498526
 20
118.613329285
 30
0.0
 11
203.0801081914
 21
119.7975058774
 31
0.0
  0
LWPOLYLINE
  5
1F6
330
1F
100
AcDbEntity
  8
0
  6
Continuous
 62
     7
370
     0
100
AcDbPolyline
 90
       16
 70
   128
 43
0.0
 10
159.9819498781
 20
132.9642895015
 10
159.7138780969
 20
133.0896072613
 10
159.4065308059
 20
133.1800112482
 10
159.0733405565
 20
133.2315503742
 10
158.7288693613
 20
133.2419721322
 10
158.3881722647
 20
133.2108210413
 10
158.0661393646
 20
133.1394585537
 10
157.7768450439
 20
133.0310035525
 10
157.5329328527
 20
132.8901960417
 10
157.3450629242
 20
132.7231899852
 10
157.2214460758
 20
132.537284349
 10
157.1674849568
 20
132.3406041016
 10
157.1855379272
 20
132.1417451135
 10
157.2748159854
 20
131.9493984767
 10
157.431417252
 20
131.7719706623
 10
157.5222503121
 20
131.6990061959
  0
LWPOLYLINE
  5
1F7
330
1F
100
AcDbEntity
  8
0
  6
Continuous
 62
     7
370
     0
100
AcDbPolyline
 90
        8
 70
   128
 43
0.0
 10
160.1081970661
 20
131.6990061959
 10
160.2853844541
 20
131.8583156334
 10
160.4090013025
 20
132.0442212695
 10
160.4629624215
 20
132.240901517
 10
160.4449094511
 20
132.4397605051
 10
160.3556313929
 20
132.6321071419
 10
160.1990301263
 20
132.8095349563
 10
159.9819498781
 20
132.9642895015
  0
LWPOLYLINE
  5
1F8
330
1F
100
AcDbEntity
  8
0
  6
Continuous
 62
     7
370
     0
100
AcDbPolyline
 90
       16
 70
   128
 43
0.0
 10
196.7515024998
 20
132.9642895015
 10
196.4834307186
 20
133.0896072613
 10
196.1760834276
 20
133.1800112482
 10
195.8428931782
 20
133.2315503742
 10
195.498421983
 20
133.2419721322
 10
195.1577248864
 20
133.2108210413
 10
194.8356919863
 20
133.1394585537
 10
194.5463976656
 20
133.0310035525
 10
194.3024854744
 20
132.8901960417
 10
194.1146155459
 20
132.7231899852
 10
193.9909986975
 20
132.537284349
 10
193.9370375785
 20
132.3406041016
 10
193.9550905489
 20
132.1417451135
 10
194.0443686071
 20
131.9493984767
 10
194.2009698737
 20
131.7719706623
 10
194.291802934
 20
131.6990061958
  0
LWPOLYLINE
  5
1F9
330
1F
100
AcDbEntity
  8
0
  6
Continuous
 62
     7
370
     0
100
AcDbPolyline
 90
        8
 70
   128
 43
0.0
 10
196.8777496877
 20
131.6990061958
 10
197.0549370758
 20
131.8583156334
 10
197.1785539242
 20
132.0442212695
 10
197.2325150432
 20
132.240901517
 10
197.2144620728
 20
132.4397605051
 10
197.1251840146
 20
132.6321071419
 10
196.968582748
 20
132.8095349563
 10
196.7515024998
 20
132.9642895015
  0
LINE
  5
1FA
330
1F
100
AcDbEntity
  8
0
  6
Continuous
 62
     7
370
     0
100
AcDbLine
 10
160.5844155254
 20
112.327809412
 30
0.0
 11
158.532380959
 21
111.1431950721
 31
0.0
  0
LWPOLYLINE
  5
1FB
330
1F
100
AcDbEntity
  8
0
  6
Continuous
 62
     7
370
     0
100
AcDbPolyline
 90
       16
 70
   128
 43
0.0
 10
178.366726189
 20
143.5775949552
 10
178.0986544078
 20
143.702912715
 10
177.7913071167
 20
143.7933167019
 10
177.4581168673
 20
143.8448558279
 10
177.1136456722
 20
143.8552775859
 10
176.7729485756
 20
143.824126495
 10
176.4509156754
 20
143.7527640074
 10
176.1616213548
 20
143.6443090062
 10
175.9177091636
 20
143.5035014954
 10
175.7298392351
 20
143.3364954389
 10
175.6062223866
 20
143.1505898027
 10
175.5522612677
 20
142.9539095553
 10
175.570314238
 20
142.7550505672
 10
175.6595922963
 20
142.5627039304
 10
175.8161935629
 20
142.385276116
 10
175.9070266231
 20
142.3123116495
  0
LWPOLYLINE
  5
1FC
330
1F
100
AcDbEntity
  8
0
  6
Continuous
 62
     7
370
     0
100
AcDbPolyline
 90
        8
 70
   128
 43
0.0
 10
178.4929733769
 20
142.3123116495
 10
178.6701607649
 20
142.4716210871
 10
178.7937776134
 20
142.6575267232
 10
178.8477387323
 20
142.8542069707
 10
178.829685762
 20
143.0530659588
 10
178.7404077037
 20
143.2454125955
 10
178.5838064371
 20
143.42284041
 10
178.366726189
 20
143.5775949552
  0
LINE
  5
1FD
330
1F
100
AcDbEntity
  8
0
  6
Continuous
 62
     7
370
     0
100
AcDbLine
 10
208.5248304066
 20
137.8014810241
 30
0.0
 11
202.2316490145
 21
134.1685047365
 31
0.0
  0
LINE
  5
1FE
330
1F
100
AcDbEntity
  8
0
  6
Continuous
 62
     7
370
     0
100
AcDbLine
 10
205.7649128161
 20
134.575265589
 30
0.0
 11
203.0801081914
 21
133.0253608699
 31
0.0
  0
LINE
  5
1FF
330
1F
100
AcDbEntity
  8
0
  6
Continuous
 62
     7
370
     0
100
AcDbLine
 10
187.0287842585
 20
150.2108843238
 30
0.0
 11
180.7356028664
 21
146.5779080362
 31
0.0
  0
LWPOLYLINE
  5
200
330
1F
100
AcDbEntity
  8
0
  6
Continuous
 62
     7
370
     0
100
AcDbPolyline
 90
       17
 70
   128
 43
0.0
 10
157.4010101268
 20
131.4743446975
 10
156.9674646241
 20
131.848915923
 10
156.8152236891
 20
132.2907528093
 10
156.9674646241
 20
132.7325896955
 10
157.4010101268
 20
133.1071609211
 10
158.0498568244
 20
133.3574414124
 10
158.8152236891
 20
133.4453282335
 10
159.5805905539
 20
133.3574414124
 10
160.2294372515
 20
133.1071609211
 10
160.6629827542
 20
132.7325896955
 10
160.8152236891
 20
132.2907528093
 10
160.6629827542
 20
131.848915923
 10
160.2294372515
 20
131.4743446975
 10
159.5805905539
 20
131.2240642062
 10
158.8152236891
 20
131.1361773851
 10
158.0498568244
 20
131.2240642062
 10
157.4010101268
 20
131.4743446975
  0
LWPOLYLINE
  5
201
330
1F
100
AcDbEntity
  8
0
  6
Continuous
 62
     7
370
     0
100
AcDbPolyline
 90
       17
 70
   128
 43
0.0
 10
175.7857864376
 20
120.8610392438
 10
175.352240935
 20
121.2356104693
 10
175.2
 20
121.6774473556
 10
175.352240935
 20
122.1192842418
 10
175.7857864376
 20
122.4938554674
 10
176.4346331353
 20
122.7441359587
 10
177.2
 20
122.8320227798
 10
177.9653668647
 20
122.7441359587
 10
178.6142135624
 20
122.4938554674
 10
179.047759065
 20
122.1192842418
 10
179.2
 20
121.6774473556
 10
179.047759065
 20
121.2356104693
 10
178.6142135624
 20
120.8610392438
 10
177.9653668647
 20
120.6107587525
 10
177.2
 20
120.5228719314
 10
176.4346331353
 20
120.6107587525
 10
175.7857864376
 20
120.8610392438
  0
LWPOLYLINE
  5
202
330
1F
100
AcDbEntity
  8
0
  6
Continuous
 62
     7
370
     0
100
AcDbPolyline
 90
       17
 70
   128
 43
0.0
 10
194.1705627485
 20
131.4743446975
 10
193.7370172458
 20
131.848915923
 10
193.5847763109
 20
132.2907528093
 10
193.7370172458
 20
132.7325896955
 10
194.1705627485
 20
133.1071609211
 10
194.8194094461
 20
133.3574414124
 10
195.5847763109
 20
133.4453282335
 10
196.3501431756
 20
133.3574414124
 10
196.9989898732
 20
133.1071609211
 10
197.4325353759
 20
132.7325896955
 10
197.5847763109
 20
132.2907528093
 10
197.4325353759
 20
131.848915923
 10
196.9989898732
 20
131.4743446975
 10
196.3501431756
 20
131.2240642062
 10
195.5847763109
 20
131.1361773851
 10
194.8194094461
 20
131.2240642062
 10
194.1705627485
 20
131.4743446975
  0
LWPOLYLINE
  5
203
330
1F
100
AcDbEntity
  8
0
  6
Continuous
 62
     7
370
     0
100
AcDbPolyline
 90
       17
 70
   128
 43
0.0
 10
175.7857864376
 20
142.0876501512
 10
175.352240935
 20
142.4622213767
 10
175.2
 20
142.904058263
 10
175.352240935
 20
143.3458951492
 10
175.7857864376
 20
143.7204663748
 10
176.4346331353
 20
143.9707468661
 10
177.2
 20
144.0586336872
 10
177.9653668647
 20
143.9707468661
 10
178.6142135624
 20
143.7204663748
 10
179.047759065
 20
143.3458951492
 10
179.2
 20
142.904058263
 10
179.047759065
 20
142.4622213767
 10
178.6142135624
 20
142.0876501512
 10
177.9653668647
 20
141.8373696598
 10
177.2
 20
141.7494828388
 10
176.4346331353
 20
141.8373696598
 10
175.7857864376
 20
142.0876501512
  0
LWPOLYLINE
  5
204
330
1F
100
AcDbEntity
  8
0
  6
Continuous
 62
     7
370
     0
100
AcDbPolyline
 90
       17
 70
   128
 43
0.0
 10
165.4443497628
 20
109.3180676774
 10
165.1061022002
 20
109.5910281743
 10
164.8193497628
 20
109.9778215808
 10
164.6277479097
 20
110.419562107
 10
164.5604662863
 20
110.8489987621
 10
164.6277479097
 20
111.2007537084
 10
164.8193497628
 20
111.4212754438
 10
165.1061022002
 20
111.4769915332
 10
165.4443497628
 20
111.3594197071
 10
165.7825973254
 20
111.0864592102
 10
166.0693497628
 20
110.6996658037
 10
166.2609516158
 20
110.2579252775
 10
166.3282332393
 20
109.8284886224
 10
166.2609516158
 20
109.4767336761
 10
166.0693497628
 20
109.2562119407
 10
165.7825973254
 20
109.2004958513
 10
165.4443497628
 20
109.3180676774
  0
LWPOLYLINE
  5
205
330
1F
100
AcDbEntity
  8
0
  6
Continuous
 62
     7
370
     0
100
AcDbPolyline
 90
       17
 70
   128
 43
0.0
 10
148.0848782846
 20
119.33947725
 10
147.7466307221
 20
119.612437747
 10
147.4598782846
 20
119.9992311534
 10
147.2682764316
 20
120.4409716796
 10
147.2009948082
 20
120.8704083348
 10
147.2682764316
 20
121.222163281
 10
147.4598782846
 20
121.4426850164
 10
147.7466307221
 20
121.4984011059
 10
148.0848782846
 20
121.3808292797
 10
148.4231258472
 20
121.1078687828
 10
148.7098782846
 20
120.7210753763
 10
148.9014801377
 20
120.2793348501
 10
148.9687617611
 20
119.849898195
 10
148.9014801377
 20
119.4981432488
 10
148.7098782846
 20
119.2776215133
 10
148.4231258472
 20
119.2219054239
 10
148.0848782846
 20
119.33947725
  0
LWPOLYLINE
  5
206
330
1F
100
AcDbEntity
  8
0
  6
Continuous
 62
     7
370
     0
100
AcDbPolyline
 90
       17
 70
   128
 43
0.0
 10
206.8277741317
 20
134.2089403119
 10
206.7470361836
 20
133.6936163257
 10
206.5171139599
 20
133.1635276943
 10
206.173011035
 20
132.6993756065
 10
205.7671139599
 20
132.3718230102
 10
205.3612168848
 20
132.2307368189
 10
205.0171139599
 20
132.2975961262
 10
204.7871917363
 20
132.5622222087
 10
204.7064537882
 20
132.9843281442
 10
204.7871917363
 20
133.4996521303
 10
205.0171139599
 20
134.0297407618
 10
205.3612168848
 20
134.4938928495
 10
205.7671139599
 20
134.8214454459
 10
206.173011035
 20
134.9625316372
 10
206.5171139599
 20
134.8956723299
 10
206.7470361836
 20
134.6310462474
 10
206.8277741317
 20
134.2089403119
  0
LWPOLYLINE
  5
207
330
1F
100
AcDbEntity
  8
0
  6
Continuous
 62
     7
370
     0
100
AcDbPolyline
 90
       17
 70
   128
 43
0.0
 10
172.0381204973
 20
114.1253007611
 10
171.9573825492
 20
113.6099767749
 10
171.7274603256
 20
113.0798881435
 10
171.3833574007
 20
112.6157360557
 10
170.9774603256
 20
112.2881834594
 10
170.5715632504
 20
112.147097268
 10
170.2274603256
 20
112.2139565753
 10
169.9975381019
 20
112.4785826578
 10
169.9168001538
 20
112.9006885933
 10
169.9975381019
 20
113.4160125795
 10
170.2274603256
 20
113.9461012109
 10
170.5715632504
 20
114.4102532987
 10
170.9774603256
 20
114.737805895
 10
171.3833574007
 20
114.8788920864
 10
171.7274603256
 20
114.8120327791
 10
171.9573825492
 20
114.5474066965
 10
172.0381204973
 20
114.1253007611
  0
LWPOLYLINE
  5
208
330
1F
100
AcDbEntity
  8
0
  6
Continuous
 62
     7
370
     0
100
AcDbPolyline
 90
       17
 70
   128
 43
0.0
 10
156.9060353799
 20
117.0641709135
 10
156.5001383048
 20
117.3917235098
 10
156.1560353799
 20
117.8558755976
 10
155.9261131563
 20
118.385964229
 10
155.8453752082
 20
118.9012882152
 10
155.9261131563
 20
119.3233941507
 10
156.1560353799
 20
119.5880202332
 10
156.5001383048
 20
119.6548795405
 10
156.9060353799
 20
119.5137933492
 10
157.3119324551
 20
119.1862407529
 10
157.6560353799
 20
118.7220886651
 10
157.8859576036
 20
118.1920000337
 10
157.9666955517
 20
117.6766760475
 10
157.8859576036
 20
117.254570112
 10
157.6560353799
 20
116.9899440295
 10
157.3119324551
 20
116.9230847222
 10
156.9060353799
 20
117.0641709135
  0
ENDSEC
  0
SECTION
  2
OBJECTS
  0
DICTIONARY
  5
C
330
0
100
AcDbDictionary
281
     1
  3
ACAD_GROUP
350
D
  3
ACAD_LAYOUT
350
1A
  3
ACAD_MLEADERSTYLE
350
20A
  3
ACAD_MLINESTYLE
350
17
  3
ACAD_PLOTSETTINGS
350
19
  3
ACAD_PLOTSTYLENAME
350
E
  3
ACAD_TABLESTYLE
350
209
  3
ACAD_VISUALSTYLE
350
2A
  3
AcDbVariableDictionary
350
20B
  0
DICTIONARY
  5
D
102
{ACAD_REACTORS
330
C
102
}
330
C
100
AcDbDictionary
281
     1
  0
DICTIONARY
  5
1A
102
{ACAD_REACTORS
330
C
102
}
330
C
100
AcDbDictionary
281
     1
  3
Layout1
350
1E
  3
Layout2
350
26
  3
Model
350
22
  0
DICTIONARY
  5
20A
102
{ACAD_REACTORS
330
C
102
}
330
C
100
AcDbDictionary
281
     1
  0
DICTIONARY
  5
17
102
{ACAD_REACTORS
330
C
102
}
330
C
100
AcDbDictionary
281
     1
  3
Standard
350
18
  0
DICTIONARY
  5
19
102
{ACAD_REACTORS
330
C
102
}
330
C
100
AcDbDictionary
281
     1
  0
ACDBDICTIONARYWDFLT
  5
E
102
{ACAD_REACTORS
330
C
102
}
330
C
100
AcDbDictionary
281
     1
  3
Normal
350
F
100
AcDbDictionaryWithDefault
340
F
  0
DICTIONARY
  5
209
102
{ACAD_REACTORS
330
C
102
}
330
C
100
AcDbDictionary
281
     1
  0
DICTIONARY
  5
2A
102
{ACAD_REACTORS
330
C
102
}
330
C
100
AcDbDictionary
281
     1
  3
2dWireframe
350
2F
  3
3D Hidden
350
31
  3
3dWireframe
350
30
  3
Basic
350
32
  3
Brighten
350
36
  3
ColorChange
350
3A
  3
Conceptual
350
34
  3
Dim
350
35
  3
Facepattern
350
39
  3
Flat
350
2B
  3
FlatWithEdges
350
2C
  3
Gouraud
350
2D
  3
GouraudWithEdges
350
2E
  3
Linepattern
350
38
  3
Realistic
350
33
  3
Thicken
350
37
  0
DICTIONARY
  5
20B
102
{ACAD_REACTORS
330
C
102
}
330
C
100
AcDbDictionary
281
     1
  3
PSOLHEIGHT
350
20D
  3
PSOLWIDTH
350
20C
  0
LAYOUT
  5
1E
102
{ACAD_REACTORS
330
1A
102
}
330
1A
100
AcDbPlotSettings
  1

  2
none_device
  4

  6

 40
0.0
 41
0.0
 42
0.0
 43
0.0
 44
0.0
 45
0.0
 46
0.0
 47
0.0
 48
0.0
 49
0.0
140
0.0
141
0.0
142
1.0
143
1.0
 70
   688
 72
     0
 73
     0
 74
     5
  7

 75
    16
147
1.0
148
0.0
149
0.0
100
AcDbLayout
  1
Layout1
 70
     1
 71
     1
 10
0.0
 20
0.0
 11
420.0
 21
297.0
 12
0.0
 22
0.0
 32
0.0
 14
1.0000000000E+20
 24
1.0000000000E+20
 34
1.0000000000E+20
 15
-1.0000000000E+20
 25
-1.0000000000E+20
 35
-1.0000000000E+20
146
0.0
 13
0.0
 23
0.0
 33
0.0
 16
1.0
 26
0.0
 36
0.0
 17
0.0
 27
1.0
 37
0.0
 76
     0
330
1B
  0
LAYOUT
  5
26
102
{ACAD_REACTORS
330
1A
102
}
330
1A
100
AcDbPlotSettings
  1

  2
none_device
  4

  6

 40
0.0
 41
0.0
 42
0.0
 43
0.0
 44
0.0
 45
0.0
 46
0.0
 47
0.0
 48
0.0
 49
0.0
140
0.0
141
0.0
142
1.0
143
1.0
 70
   688
 72
     0
 73
     0
 74
     5
  7

 75
    16
147
1.0
148
0.0
149
0.0
100
AcDbLayout
  1
Layout2
 70
     1
 71
     2
 10
0.0
 20
0.0
 11
0.0
 21
0.0
 12
0.0
 22
0.0
 32
0.0
 14
0.0
 24
0.0
 34
0.0
 15
0.0
 25
0.0
 35
0.0
146
0.0
 13
0.0
 23
0.0
 33
0.0
 16
1.0
 26
0.0
 36
0.0
 17
0.0
 27
1.0
 37
0.0
 76
     0
330
23
  0
LAYOUT
  5
22
102
{ACAD_REACTORS
330
1A
102
}
330
1A
100
AcDbPlotSettings
  1

  2
none_device
  4

  6

 40
0.0
 41
0.0
 42
0.0
 43
0.0
 44
0.0
 45
0.0
 46
0.0
 47
0.0
 48
0.0
 49
0.0
140
0.0
141
0.0
142
1.0
143
1.0
 70
  1712
 72
     0
 73
     0
 74
     0
  7

 75
     0
147
1.0
148
0.0
149
0.0
100
AcDbLayout
  1
Model
 70
     1
 71
     0
 10
0.0
 20
0.0
 11
297.0
 21
210.0
 12
0.0
 22
0.0
 32
0.0
 14
0.0
 24
0.0
 34
0.0
 15
297.0
 25
210.0
 35
0.0
146
0.0
 13
0.0
 23
0.0
 33
0.0
 16
1.0
 26
0.0
 36
0.0
 17
0.0
 27
1.0
 37
0.0
 76
     0
330
1F
331
29
  0
MLINESTYLE
  5
18
102
{ACAD_REACTORS
330
17
102
}
330
17
100
AcDbMlineStyle
  2
Standard
 70
     0
  3

 62
   256
 51
90.0
 52
90.0
 71
     2
 49
0.5
 62
   256
  6
BYLAYER
 49
-0.5
 62
   256
  6
BYLAYER
  0
ACDBPLACEHOLDER
  5
F
102
{ACAD_REACTORS
330
E
102
}
330
E
  0
VISUALSTYLE
  5
2F
102
{ACAD_REACTORS
330
2A
102
}
330
2A
100
AcDbVisualStyle
  2
2dWireframe
 70
     4
 71
     0
 72
     2
 73
     0
 90
        0
 40
-0.6
 41
-30.0
 62
     5
 63
     7
 74
     1
 91
        4
 64
     7
 65
   257
 75
     1
175
     1
 42
1.0
 92
        0
 66
   257
 43
1.0
 76
     1
 77
     6
 78
     2
 67
     7
 79
     5
170
     0
171
     0
290
     0
174
     0
 93
        1
 44
0.0
173
     0
291
     0
 45
0.0
1001
ACAD
1000
AcDbSavedByObjectVersion
1070
     0
  0
VISUALSTYLE
  5
31
102
{ACAD_REACTORS
330
2A
102
}
330
2A
100
AcDbVisualStyle
  2
3D Hidden
 70
     6
 71
     1
 72
     2
 73
     2
 90
        0
 40
-0.6
 41
-30.0
 62
     5
 63
     7
 74
     2
 91
        2
 64
     7
 65
   257
 75
     2
175
     1
 42
40.0
 92
        0
 66
   257
 43
1.0
 76
     1
 77
     6
 78
     2
 67
     7
 79
     3
170
     0
171
     0
290
     0
174
     0
 93
        1
 44
0.0
173
     0
291
     0
 45
0.0
1001
ACAD
1000
AcDbSavedByObjectVersion
1070
     0
  0
VISUALSTYLE
  5
30
102
{ACAD_REACTORS
330
2A
102
}
330
2A
100
AcDbVisualStyle
  2
3dWireframe
 70
     5
 71
     0
 72
     2
 73
     0
 90
        0
 40
-0.6
 41
-30.0
 62
     5
 63
     7
 74
     1
 91
        4
 64
     7
 65
   257
 75
     1
175
     1
 42
1.0
 92
        0
 66
   257
 43
1.0
 76
     1
 77
     6
 78
     2
 67
     7
 79
     5
170
     0
171
     0
290
     0
174
     0
 93
        1
 44
0.0
173
     0
291
     0
 45
0.0
1001
ACAD
1000
AcDbSavedByObjectVersion
1070
     0
  0
VISUALSTYLE
  5
32
102
{ACAD_REACTORS
330
2A
102
}
330
2A
100
AcDbVisualStyle
  2
Basic
 70
     7
 71
     1
 72
     0
 73
     1
 90
        0
 40
-0.6
 41
-30.0
 62
     5
 63
     7
 74
     0
 91
        4
 64
     7
 65
   257
 75
     1
175
     1
 42
1.0
 92
        8
 66
     7
 43
1.0
 76
     1
 77
     6
 78
     2
 67
     7
 79
     5
170
     0
171
     0
290
     0
174
     0
 93
        1
 44
0.0
173
     0
291
     1
 45
0.0
1001
ACAD
1000
AcDbSavedByObjectVersion
1070
     0
  0
VISUALSTYLE
  5
36
102
{ACAD_REACTORS
330
2A
102
}
330
2A
100
AcDbVisualStyle
  2
Brighten
 70
    12
 71
     2
 72
     2
 73
     0
 90
        0
 40
-0.6
 41
-30.0
 62
     5
 63
     7
 74
     1
 91
        4
 64
     7
 65
   257
 75
     1
175
     1
 42
1.0
 92
        8
 66
     7
 43
1.0
 76
     1
 77
     6
 78
     2
 67
     7
 79
     5
170
     0
171
     0
290
     0
174
     0
 93
        1
 44
50.0
173
     0
291
     1
 45
0.0
1001
ACAD
1000
AcDbSavedByObjectVersion
1070
     0
  0
VISUALSTYLE
  5
3A
102
{ACAD_REACTORS
330
2A
102
}
330
2A
100
AcDbVisualStyle
  2
ColorChange
 70
    16
 71
     2
 72
     2
 73
     3
 90
        0
 40
-0.6
 41
-30.0
 62
     5
 63
     8
 74
     1
 91
        4
 64
     7
 65
   257
 75
     1
175
     1
 42
1.0
 92
        8
 66
     8
 43
1.0
 76
     1
 77
     6
 78
     2
 67
     7
 79
     5
170
     0
171
     0
290
     0
174
     0
 93
        1
 44
0.0
173
     0
291
     1
 45
0.0
1001
ACAD
1000
AcDbSavedByObjectVersion
1070
     0
  0
VISUALSTYLE
  5
34
102
{ACAD_REACTORS
330
2A
102
}
330
2A
100
AcDbVisualStyle
  2
Conceptual
 70
     9
 71
     3
 72
     2
 73
     0
 90
        0
 40
-0.6
 41
-30.0
 62
     5
 63
     7
 74
     2
 91
        2
 64
     7
 65
   257
 75
     1
175
     1
 42
40.0
 92
        8
 66
     7
 43
1.0
 76
     1
 77
     6
 78
     2
 67
     7
 79
     3
170
     0
171
     0
290
     0
174
     0
 93
        1
 44
0.0
173
     0
291
     0
 45
0.0
1001
ACAD
1000
AcDbSavedByObjectVersion
1070
     0
  0
VISUALSTYLE
  5
35
102
{ACAD_REACTORS
330
2A
102
}
330
2A
100
AcDbVisualStyle
  2
Dim
 70
    11
 71
     2
 72
     2
 73
     0
 90
        0
 40
-0.6
 41
-30.0
 62
     5
 63
     7
 74
     1
 91
        4
 64
     7
 65
   257
 75
     1
175
     1
 42
1.0
 92
        8
 66
     7
 43
1.0
 76
     1
 77
     6
 78
     2
 67
     7
 79
     5
170
     0
171
     0
290
     0
174
     0
 93
        1
 44
-50.0
173
     0
291
     1
 45
0.0
1001
ACAD
1000
AcDbSavedByObjectVersion
1070
     0
  0
VISUALSTYLE
  5
39
102
{ACAD_REACTORS
330
2A
102
}
330
2A
100
AcDbVisualStyle
  2
Facepattern
 70
    15
 71
     2
 72
     2
 73
     0
 90
        0
 40
-0.6
 41
-30.0
 62
     5
 63
     7
 74
     1
 91
        4
 64
     7
 65
   257
 75
     1
175
     1
 42
1.0
 92
        8
 66
     7
 43
1.0
 76
     1
 77
     6
 78
     2
 67
     7
 79
     5
170
     0
171
     0
290
     0
174
     0
 93
        1
 44
0.0
173
     0
291
     1
 45
0.0
1001
ACAD
1000
AcDbSavedByObjectVersion
1070
     0
  0
VISUALSTYLE
  5
2B
102
{ACAD_REACTORS
330
2A
102
}
330
2A
100
AcDbVisualStyle
  2
Flat
 70
     0
 71
     2
 72
     1
 73
     1
 90
        2
 40
-0.6
 41
30.0
 62
     5
 63
     7
 74
     0
 91
        4
 64
     7
 65
   257
 75
     1
175
     1
 42
1.0
 92
        8
 66
     7
 43
1.0
 76
     1
 77
     6
 78
     2
 67
     7
 79
     5
170
     0
171
     0
290
     0
174
     0
 93
       13
 44
0.0
173
     0
291
     1
 45
0.0
1001
ACAD
1000
AcDbSavedByObjectVersion
1070
     0
  0
VISUALSTYLE
  5
2C
102
{ACAD_REACTORS
330
2A
102
}
330
2A
100
AcDbVisualStyle
  2
FlatWithEdges
 70
     1
 71
     2
 72
     1
 73
     1
 90
        2
 40
-0.6
 41
30.0
 62
     5
 63
     7
 74
     1
 91
        4
 64
     7
 65
   257
 75
     1
175
     1
 42
1.0
 92
        0
 66
   257
 43
1.0
 76
     1
 77
     6
 78
     2
 67
     7
 79
     5
170
     0
171
     0
290
     0
174
     0
 93
       13
 44
0.0
173
     0
291
     1
 45
0.0
1001
ACAD
1000
AcDbSavedByObjectVersion
1070
     0
  0
VISUALSTYLE
  5
2D
102
{ACAD_REACTORS
330
2A
102
}
330
2A
100
AcDbVisualStyle
  2
Gouraud
 70
     2
 71
     2
 72
     2
 73
     1
 90
        2
 40
-0.6
 41
30.0
 62
     5
 63
     7
 74
     0
 91
        4
 64
     7
 65
   257
 75
     1
175
     1
 42
1.0
 92
        0
 66
     7
 43
1.0
 76
     1
 77
     6
 78
     2
 67
     7
 79
     5
170
     0
171
     0
290
     0
174
     0
 93
       13
 44
0.0
173
     0
291
     1
 45
0.0
1001
ACAD
1000
AcDbSavedByObjectVersion
1070
     0
  0
VISUALSTYLE
  5
2E
102
{ACAD_REACTORS
330
2A
102
}
330
2A
100
AcDbVisualStyle
  2
GouraudWithEdges
 70
     3
 71
     2
 72
     2
 73
     1
 90
        2
 40
-0.6
 41
30.0
 62
     5
 63
     7
 74
     1
 91
        4
 64
     7
 65
   257
 75
     1
175
     1
 42
1.0
 92
        0
 66
   257
 43
1.0
 76
     1
 77
     6
 78
     2
 67
     7
 79
     5
170
     0
171
     0
290
     0
174
     0
 93
       13
 44
0.0
173
     0
291
     1
 45
0.0
1001
ACAD
1000
AcDbSavedByObjectVersion
1070
     0
  0
VISUALSTYLE
  5
38
102
{ACAD_REACTORS
330
2A
102
}
330
2A
100
AcDbVisualStyle
  2
Linepattern
 70
    14
 71
     2
 72
     2
 73
     0
 90
        0
 40
-0.6
 41
-30.0
 62
     5
 63
     7
 74
     1
 91
        4
 64
     7
 65
   257
 75
     7
175
     7
 42
1.0
 92
        8
 66
     7
 43
1.0
 76
     1
 77
     6
 78
     2
 67
     7
 79
     5
170
     0
171
     0
290
     0
174
     0
 93
        1
 44
0.0
173
     0
291
     1
 45
0.0
1001
ACAD
1000
AcDbSavedByObjectVersion
1070
     0
  0
VISUALSTYLE
  5
33
102
{ACAD_REACTORS
330
2A
102
}
330
2A
100
AcDbVisualStyle
  2
Realistic
 70
     8
 71
     2
 72
     2
 73
     0
 90
        0
 40
-0.6
 41
-30.0
 62
     5
 63
     7
 74
     1
 91
        0
 64
     7
 65
   257
 75
     1
175
     1
 42
1.0
 92
        8
 66
     8
 43
1.0
 76
     1
 77
     6
 78
     2
 67
     7
 79
     5
170
     0
171
     0
290
     0
174
     0
 93
       13
 44
0.0
173
     0
291
     0
 45
0.0
1001
ACAD
1000
AcDbSavedByObjectVersion
1070
     0
  0
VISUALSTYLE
  5
37
102
{ACAD_REACTORS
330
2A
102
}
330
2A
100
AcDbVisualStyle
  2
Thicken
 70
    13
 71
     2
 72
     2
 73
     0
 90
        0
 40
-0.6
 41
-30.0
 62
     5
 63
     7
 74
     1
 91
        4
 64
     7
 65
   257
 75
     1
175
     1
 42
1.0
 92
       12
 66
     7
 43
1.0
 76
     1
 77
     6
 78
     2
 67
     7
 79
     5
170
     0
171
     0
290
     0
174
     0
 93
        1
 44
0.0
173
     0
291
     1
 45
0.0
1001
ACAD
1000
AcDbSavedByObjectVersion
1070
     0
  0
DICTIONARYVAR
  5
20D
102
{ACAD_REACTORS
330
20B
102
}
330
20B
100
DictionaryVariables
280
     0
  1
80.000000
  0
DICTIONARYVAR
  5
20C
102
{ACAD_REACTORS
330
20B
102
}
330
20B
100
DictionaryVariables
280
     0
  1
5.000000
  0
ENDSEC
  0
EOF
