  0
SECTION
  2
HEADER
  9
$ACADVER
  1
AC1015
  9
$ACADMAINTVER
 70
     6
  9
$DWGCODEPAGE
  3
ANSI_1252
  9
$INSBASE
 10
0.0
 20
0.0
 30
0.0
  9
$EXTMIN
 10
0.0
 20
0.0
 30
0.0
  9
$EXTMAX
 10
297.0
 20
210.0
 30
0.0
  9
$LIMMIN
 10
0.0
 20
0.0
  9
$LIMMAX
 10
297.0
 20
210.0
  9
$ORTHOMODE
 70
     0
  9
$REGENMODE
 70
     1
  9
$FILLMODE
 70
     1
  9
$QTEXTMODE
 70
     0
  9
$MIRRTEXT
 70
     1
  9
$LTSCALE
 40
1.0
  9
$ATTMODE
 70
     1
  9
$TEXTSIZE
 40
3.5
  9
$TRACEWID
 40
1.0
  9
$TEXTSTYLE
  7
Standard
  9
$CLAYER
  8
0
  9
$CELTYPE
  6
ByLayer
  9
$CECOLOR
 62
   256
  9
$CELTSCALE
 40
1.0
  9
$DISPSILH
 70
     0
  9
$DIMSCALE
 40
1.0
  9
$DIMASZ
 40
6.0
  9
$DIMEXO
 40
1.0
  9
$DIMDLI
 40
3.75
  9
$DIMRND
 40
0.0
  9
$DIMDLE
 40
0.0
  9
$DIMEXE
 40
1.0
  9
$DIMTP
 40
0.0
  9
$DIMTM
 40
0.0
  9
$DIMTXT
 40
3.5
  9
$DIMCEN
 40
2.5
  9
$DIMTSZ
 40
0.0
  9
$DIMTOL
 70
     0
  9
$DIMLIM
 70
     0
  9
$DIMTIH
 70
     1
  9
$DIMTOH
 70
     1
  9
$DIMSE1
 70
     0
  9
$DIMSE2
 70
     0
  9
$DIMTAD
 70
     1
  9
$DIMZIN
 70
     0
  9
$DIMBLK
  1

  9
$DIMASO
 70
     1
  9
$DIMSHO
 70
     1
  9
$DIMPOST
  1

  9
$DIMAPOST
  1

  9
$DIMALT
 70
     0
  9
$DIMALTD
 70
     3
  9
$DIMALTF
 40
0.0393700787
  9
$DIMLFAC
 40
1.0
  9
$DIMTOFL
 70
     1
  9
$DIMTVP
 40
0.0
  9
$DIMTIX
 70
     0
  9
$DIMSOXD
 70
     0
  9
$DIMSAH
 70
     0
  9
$DIMBLK1
  1

  9
$DIMBLK2
  1

  9
$DIMSTYLE
  2
ISO-25
  9
$DIMCLRD
 70
     0
  9
$DIMCLRE
 70
     0
  9
$DIMCLRT
 70
     0
  9
$DIMTFAC
 40
1.0
  9
$DIMGAP
 40
1.524
  9
$DIMJUST
 70
     0
  9
$DIMSD1
 70
     0
  9
$DIMSD2
 70
     0
  9
$DIMTOLJ
 70
     0
  9
$DIMTZIN
 70
     0
  9
$DIMALTZ
 70
     0
  9
$DIMALTTZ
 70
     0
  9
$DIMUPT
 70
     0
  9
$DIMDEC
 70
     2
  9
$DIMTDEC
 70
     2
  9
$DIMALTU
 70
     2
  9
$DIMALTTD
 70
     3
  9
$DIMTXSTY
  7
Standard
  9
$DIMAUNIT
 70
     0
  9
$DIMADEC
 70
     0
  9
$DIMALTRND
 40
0.0
  9
$DIMAZIN
 70
     0
  9
$DIMDSEP
 70
    44
  9
$DIMATFIT
 70
     3
  9
$DIMFRAC
 70
     0
  9
$DIMLDRBLK
  1

  9
$DIMLUNIT
 70
     2
  9
$DIMLWD
 70
    -2
  9
$DIMLWE
 70
    -2
  9
$DIMTMOVE
 70
     0
  9
$LUNITS
 70
     2
  9
$LUPREC
 70
     2
  9
$SKETCHINC
 40
1.0
  9
$FILLETRAD
 40
10.0
  9
$AUNITS
 70
     0
  9
$AUPREC
 70
     0
  9
$MENU
  1
.
  9
$ELEVATION
 40
0.0
  9
$PELEVATION
 40
0.0
  9
$THICKNESS
 40
0.0
  9
$LIMCHECK
 70
     0
  9
$CHAMFERA
 40
10.0
  9
$CHAMFERB
 40
10.0
  9
$CHAMFERC
 40
20.0
  9
$CHAMFERD
 40
0.0
  9
$SKPOLY
 70
     0
  9
$TDCREATE
 40
2454871.93828956
  9
$TDUCREATE
 40
2454872.146622893
  9
$TDUPDATE
 40
2454871.938289572
  9
$TDUUPDATE
 40
2454872.146622905
  9
$TDINDWG
 40
0.0000000116
  9
$TDUSRTIMER
 40
0.0000000116
  9
$USRTIMER
 70
     1
  9
$ANGBASE
 50
0.0
  9
$ANGDIR
 70
     0
  9
$PDMODE
 70
     0
  9
$PDSIZE
 40
-1.0
  9
$PLINEWID
 40
0.0
  9
$SPLFRAME
 70
     0
  9
$SPLINETYPE
 70
     6
  9
$SPLINESEGS
 70
     8
  9
$HANDSEED
  5
1FF
  9
$SURFTAB1
 70
     6
  9
$SURFTAB2
 70
     6
  9
$SURFTYPE
 70
     6
  9
$SURFU
 70
     6
  9
$SURFV
 70
     6
  9
$UCSBASE
  2

  9
$UCSNAME
  2

  9
$UCSORG
 10
0.0
 20
0.0
 30
0.0
  9
$UCSXDIR
 10
1.0
 20
0.0
 30
0.0
  9
$UCSYDIR
 10
0.0
 20
1.0
 30
0.0
  9
$UCSORTHOREF
  2

  9
$UCSORTHOVIEW
 70
     0
  9
$UCSORGTOP
 10
0.0
 20
0.0
 30
0.0
  9
$UCSORGBOTTOM
 10
0.0
 20
0.0
 30
0.0
  9
$UCSORGLEFT
 10
0.0
 20
0.0
 30
0.0
  9
$UCSORGRIGHT
 10
0.0
 20
0.0
 30
0.0
  9
$UCSORGFRONT
 10
0.0
 20
0.0
 30
0.0
  9
$UCSORGBACK
 10
0.0
 20
0.0
 30
0.0
  9
$PUCSBASE
  2

  9
$PUCSNAME
  2

  9
$PUCSORG
 10
0.0
 20
0.0
 30
0.0
  9
$PUCSXDIR
 10
1.0
 20
0.0
 30
0.0
  9
$PUCSYDIR
 10
0.0
 20
1.0
 30
0.0
  9
$PUCSORTHOREF
  2

  9
$PUCSORTHOVIEW
 70
     0
  9
$PUCSORGTOP
 10
0.0
 20
0.0
 30
0.0
  9
$PUCSORGBOTTOM
 10
0.0
 20
0.0
 30
0.0
  9
$PUCSORGLEFT
 10
0.0
 20
0.0
 30
0.0
  9
$PUCSORGRIGHT
 10
0.0
 20
0.0
 30
0.0
  9
$PUCSORGFRONT
 10
0.0
 20
0.0
 30
0.0
  9
$PUCSORGBACK
 10
0.0
 20
0.0
 30
0.0
  9
$USERI1
 70
     0
  9
$USERI2
 70
     0
  9
$USERI3
 70
     0
  9
$USERI4
 70
     0
  9
$USERI5
 70
     0
  9
$USERR1
 40
0.0
  9
$USERR2
 40
0.0
  9
$USERR3
 40
0.0
  9
$USERR4
 40
0.0
  9
$USERR5
 40
0.0
  9
$WORLDVIEW
 70
     1
  9
$SHADEDGE
 70
     3
  9
$SHADEDIF
 70
    70
  9
$TILEMODE
 70
     1
  9
$MAXACTVP
 70
    64
  9
$PINSBASE
 10
0.0
 20
0.0
 30
0.0
  9
$PLIMCHECK
 70
     0
  9
$PEXTMIN
 10
1.0000000000E+20
 20
1.0000000000E+20
 30
1.0000000000E+20
  9
$PEXTMAX
 10
-1.0000000000E+20
 20
-1.0000000000E+20
 30
-1.0000000000E+20
  9
$PLIMMIN
 10
0.0
 20
0.0
  9
$PLIMMAX
 10
420.0
 20
297.0
  9
$UNITMODE
 70
     0
  9
$VISRETAIN
 70
     1
  9
$PLINEGEN
 70
     0
  9
$PSLTSCALE
 70
     1
  9
$TREEDEPTH
 70
  3020
  9
$CMLSTYLE
  2
Standard
  9
$CMLJUST
 70
     0
  9
$CMLSCALE
 40
20.0
  9
$PROXYGRAPHICS
 70
     1
  9
$MEASUREMENT
 70
     1
  9
$CELWEIGHT
370
    -1
  9
$ENDCAPS
280
     0
  9
$JOINSTYLE
280
     0
  9
$LWDISPLAY
290
     1
  9
$INSUNITS
 70
     4
  9
$HYPERLINKBASE
  1

  9
$STYLESHEET
  1

  9
$XEDIT
290
     1
  9
$CEPSNTYPE
380
     0
  9
$PSTYLEMODE
290
     1
  9
$FINGERPRINTGUID
  2
{18A12E8B-5280-4F79-A14D-815A542C358B}
  9
$VERSIONGUID
  2
{FAEB1C32-E019-11D5-929B-00C0DF256EC4}
  9
$EXTNAMES
290
     1
  9
$PSVPSCALE
 40
0.0
  9
$OLESTARTUP
290
     0
  0
ENDSEC
  0
SECTION
  2
CLASSES
  0
CLASS
  1
ACDBDICTIONARYWDFLT
  2
AcDbDictionaryWithDefault
  3
ObjectDBX Classes
 90
        0
280
     0
281
     0
  0
CLASS
  1
VISUALSTYLE
  2
AcDbVisualStyle
  3
ObjectDBX Classes
 90
     4095
280
     0
281
     0
  0
CLASS
  1
DICTIONARYVAR
  2
AcDbDictionaryVar
  3
ObjectDBX Classes
 90
        0
280
     0
281
     0
  0
CLASS
  1
ACDBPLACEHOLDER
  2
AcDbPlaceHolder
  3
ObjectDBX Classes
 90
        0
280
     0
281
     0
  0
CLASS
  1
LAYOUT
  2
AcDbLayout
  3
ObjectDBX Classes
 90
        0
280
     0
281
     0
  0
ENDSEC
  0
SECTION
  2
TABLES
  0
TABLE
  2
VPORT
  5
8
330
0
100
AcDbSymbolTable
 70
     1
  0
VPORT
  5
29
330
8
100
AcDbSymbolTableRecord
100
AcDbViewportTableRecord
  2
*Active
 70
     0
 10
0.0
 20
0.0
 11
1.0
 21
1.0
 12
148.5
 22
105.0
 13
0.0
 23
0.0
 14
10.0
 24
10.0
 15
10.0
 25
10.0
 16
0.0
 26
0.0
 36
1.0
 17
0.0
 27
0.0
 37
0.0
 40
210.0
 41
1.4142857143
 42
50.0
 43
0.0
 44
0.0
 50
0.0
 51
0.0
 71
     0
 72
  2000
 73
     1
 74
     3
 75
     0
 76
     0
 77
     0
 78
     0
281
     0
 65
     1
110
0.0
120
0.0
130
0.0
111
1.0
121
0.0
131
0.0
112
0.0
122
1.0
132
0.0
 79
     0
146
0.0
  0
ENDTAB
  0
TABLE
  2
LTYPE
  5
5
330
0
100
AcDbSymbolTable
 70
     6
  0
LTYPE
  5
14
330
5
100
AcDbSymbolTableRecord
100
AcDbLinetypeTableRecord
  2
ByBlock
 70
     0
  3

 72
    65
 73
     0
 40
0.0
  0
LTYPE
  5
15
330
5
100
AcDbSymbolTableRecord
100
AcDbLinetypeTableRecord
  2
ByLayer
 70
     0
  3

 72
    65
 73
     0
 40
0.0
  0
LTYPE
  5
16
330
5
100
AcDbSymbolTableRecord
100
AcDbLinetypeTableRecord
  2
Continuous
 70
     0
  3
Solid line
 72
    65
 73
     0
 40
0.0
  0
LTYPE
  5
3B
330
5
100
AcDbSymbolTableRecord
100
AcDbLinetypeTableRecord
  2
HIDDEN
 70
     0
  3
Hidden __ __ __ __ __ __ __ __ __ __ __ __ __ __
 72
    65
 73
     2
 40
1.905
 49
1.27
 74
     0
 49
-0.635
 74
     0
  0
LTYPE
  5
3C
330
5
100
AcDbSymbolTableRecord
100
AcDbLinetypeTableRecord
  2
PHANTOM
 70
     0
  3
Phantom ______  __  __  ______  __  __  ______
 72
    65
 73
     6
 40
12.7
 49
6.35
 74
     0
 49
-1.27
 74
     0
 49
1.27
 74
     0
 49
-1.27
 74
     0
 49
1.27
 74
     0
 49
-1.27
 74
     0
  0
LTYPE
  5
3D
330
5
100
AcDbSymbolTableRecord
100
AcDbLinetypeTableRecord
  2
CENTER
 70
     0
  3
Center ____ _ ____ _ ____ _ ____ _ ____ _ ____
 72
    65
 73
     4
 40
10.16
 49
6.35
 74
     0
 49
-1.27
 74
     0
 49
1.27
 74
     0
 49
-1.27
 74
     0
  0
LTYPE
  5
3E
330
5
100
AcDbSymbolTableRecord
100
AcDbLinetypeTableRecord
  2
CENTERX2
 70
     0
  3
Center (2x) ________  __  ________  __  _____
 72
    65
 73
     4
 40
20.32
 49
12.7
 74
     0
 49
-2.54
 74
     0
 49
2.54
 74
     0
 49
-2.54
 74
     0
  0
LTYPE
  5
3F
330
5
100
AcDbSymbolTableRecord
100
AcDbLinetypeTableRecord
  2
DOT2
 70
     0
  3
Dot (.5x) ........................................
 72
    65
 73
     2
 40
0.635
 49
0.0
 74
     0
 49
-0.635
 74
     0
  0
ENDTAB
  0
TABLE
  2
LAYER
  5
2
330
0
100
AcDbSymbolTable
 70
     1
  0
LAYER
  5
10
330
2
100
AcDbSymbolTableRecord
100
AcDbLayerTableRecord
  2
0
 70
     0
 62
     7
  6
Continuous
370
    -3
390
F
  0
ENDTAB
  0
TABLE
  2
STYLE
  5
3
330
0
100
AcDbSymbolTable
 70
     1
  0
STYLE
  5
11
330
3
100
AcDbSymbolTableRecord
100
AcDbTextStyleTableRecord
  2
Standard
 70
     0
 40
0.0
 41
1.0
 50
0.0
 71
     0
 42
2.5
  3
txt
  4

  0
ENDTAB
  0
TABLE
  2
VIEW
  5
6
330
0
100
AcDbSymbolTable
 70
     0
  0
ENDTAB
  0
TABLE
  2
UCS
  5
7
330
0
100
AcDbSymbolTable
 70
     0
  0
ENDTAB
  0
TABLE
  2
APPID
  5
9
330
0
100
AcDbSymbolTable
 70
     1
  0
APPID
  5
12
330
9
100
AcDbSymbolTableRecord
100
AcDbRegAppTableRecord
  2
ACAD
 70
     0
  0
ENDTAB
  0
TABLE
  2
DIMSTYLE
  5
A
330
0
100
AcDbSymbolTable
 70
     1
100
AcDbDimStyleTable
  0
DIMSTYLE
105
27
330
A
100
AcDbSymbolTableRecord
100
AcDbDimStyleTableRecord
  2
ISO-25
 70
     0
 41
2.5
 42
0.625
 43
3.75
 44
1.25
 73
     0
 74
     0
 77
     1
 78
     8
140
2.5
141
2.5
143
0.0393700787
147
0.625
171
     3
172
     1
271
     2
272
     2
274
     3
278
    44
283
     0
284
     8
340
11
  0
ENDTAB
  0
TABLE
  2
BLOCK_RECORD
  5
1
330
0
100
AcDbSymbolTable
 70
    14
  0
BLOCK_RECORD
  5
1F
330
1
100
AcDbSymbolTableRecord
100
AcDbBlockTableRecord
  2
*Model_Space
340
22
  0
BLOCK_RECORD
  5
1B
330
1
100
AcDbSymbolTableRecord
100
AcDbBlockTableRecord
  2
*Paper_Space
340
1E
  0
BLOCK_RECORD
  5
23
330
1
100
AcDbSymbolTableRecord
100
AcDbBlockTableRecord
  2
*Paper_Space0
340
26
  0
BLOCK_RECORD
  5
74
330
1
100
AcDbSymbolTableRecord
100
AcDbBlockTableRecord
  2
SW_CENTERMARKSYMBOL_0
340
0
102
{BLKREFS
331
7F
102
}
  0
BLOCK_RECORD
  5
80
330
1
100
AcDbSymbolTableRecord
100
AcDbBlockTableRecord
  2
SW_CENTERMARKSYMBOL_1
340
0
102
{BLKREFS
331
8B
102
}
  0
BLOCK_RECORD
  5
8C
330
1
100
AcDbSymbolTableRecord
100
AcDbBlockTableRecord
  2
SW_CENTERMARKSYMBOL_2
340
0
102
{BLKREFS
331
97
102
}
  0
BLOCK_RECORD
  5
BB
330
1
100
AcDbSymbolTableRecord
100
AcDbBlockTableRecord
  2
SW_CENTERMARKSYMBOL_3
340
0
102
{BLKREFS
331
C6
102
}
  0
BLOCK_RECORD
  5
C7
330
1
100
AcDbSymbolTableRecord
100
AcDbBlockTableRecord
  2
SW_CENTERMARKSYMBOL_4
340
0
102
{BLKREFS
331
D2
102
}
  0
BLOCK_RECORD
  5
109
330
1
100
AcDbSymbolTableRecord
100
AcDbBlockTableRecord
  2
SW_CENTERMARKSYMBOL_5
340
0
102
{BLKREFS
331
114
102
}
  0
BLOCK_RECORD
  5
115
330
1
100
AcDbSymbolTableRecord
100
AcDbBlockTableRecord
  2
SW_CENTERMARKSYMBOL_6
340
0
102
{BLKREFS
331
120
102
}
  0
BLOCK_RECORD
  5
121
330
1
100
AcDbSymbolTableRecord
100
AcDbBlockTableRecord
  2
SW_CENTERMARKSYMBOL_7
340
0
102
{BLKREFS
331
12C
102
}
  0
BLOCK_RECORD
  5
12D
330
1
100
AcDbSymbolTableRecord
100
AcDbBlockTableRecord
  2
SW_CENTERMARKSYMBOL_8
340
0
102
{BLKREFS
331
138
102
}
  0
BLOCK_RECORD
  5
139
330
1
100
AcDbSymbolTableRecord
100
AcDbBlockTableRecord
  2
SW_CENTERMARKSYMBOL_9
340
0
102
{BLKREFS
331
144
102
}
  0
BLOCK_RECORD
  5
145
330
1
100
AcDbSymbolTableRecord
100
AcDbBlockTableRecord
  2
SW_CENTERMARKSYMBOL_10
340
0
102
{BLKREFS
331
150
102
}
  0
BLOCK_RECORD
  5
151
330
1
100
AcDbSymbolTableRecord
100
AcDbBlockTableRecord
  2
SW_CENTERMARKSYMBOL_11
340
0
102
{BLKREFS
331
15C
102
}
  0
BLOCK_RECORD
  5
15D
330
1
100
AcDbSymbolTableRecord
100
AcDbBlockTableRecord
  2
SW_CENTERMARKSYMBOL_12
340
0
102
{BLKREFS
331
168
102
}
  0
ENDTAB
  0
ENDSEC
  0
SECTION
  2
BLOCKS
  0
BLOCK
  5
20
330
1F
100
AcDbEntity
  8
0
100
AcDbBlockBegin
  2
*Model_Space
 70
     0
 10
0.0
 20
0.0
 30
0.0
  3
*Model_Space
  1

  0
ENDBLK
  5
21
330
1F
100
AcDbEntity
  8
0
100
AcDbBlockEnd
  0
BLOCK
  5
1C
330
1B
100
AcDbEntity
 67
     1
  8
0
100
AcDbBlockBegin
  2
*Paper_Space
 70
     0
 10
0.0
 20
0.0
 30
0.0
  3
*Paper_Space
  1

  0
ENDBLK
  5
1D
330
1B
100
AcDbEntity
 67
     1
  8
0
100
AcDbBlockEnd
  0
BLOCK
  5
24
330
23
100
AcDbEntity
  8
0
100
AcDbBlockBegin
  2
*Paper_Space0
 70
     0
 10
0.0
 20
0.0
 30
0.0
  3
*Paper_Space0
  1

  0
ENDBLK
  5
25
330
23
100
AcDbEntity
  8
0
100
AcDbBlockEnd
  0
BLOCK
  5
75
330
74
100
AcDbEntity
  8
0
100
AcDbBlockBegin
  2
SW_CENTERMARKSYMBOL_0
 70
     0
 10
0.0
 20
0.0
 30
0.0
  3
SW_CENTERMARKSYMBOL_0
  1

  0
LINE
  5
77
330
74
100
AcDbEntity
  8
0
  6
Continuous
 62
     0
370
     0
100
AcDbLine
 10
0.0
 20
0.0
 30
0.0
 11
0.0
 21
2.5
 31
0.0
  0
LINE
  5
78
330
74
100
AcDbEntity
  8
0
  6
Continuous
 62
     0
370
     0
100
AcDbLine
 10
0.0
 20
0.0
 30
0.0
 11
-2.5
 21
0.0
 31
0.0
  0
LINE
  5
79
330
74
100
AcDbEntity
  8
0
  6
Continuous
 62
     0
370
     0
100
AcDbLine
 10
0.0
 20
0.0
 30
0.0
 11
0.0
 21
-2.5
 31
0.0
  0
LINE
  5
7A
330
74
100
AcDbEntity
  8
0
  6
Continuous
 62
     0
370
     0
100
AcDbLine
 10
0.0
 20
0.0
 30
0.0
 11
2.5
 21
0.0
 31
0.0
  0
LINE
  5
7B
330
74
100
AcDbEntity
  8
0
  6
Continuous
 62
     0
370
     0
100
AcDbLine
 10
0.0
 20
2.5
 30
0.0
 11
0.0
 21
3.75
 31
0.0
  0
LINE
  5
7C
330
74
100
AcDbEntity
  8
0
  6
Continuous
 62
     0
370
     0
100
AcDbLine
 10
-2.5
 20
0.0
 30
0.0
 11
-3.75
 21
0.0
 31
0.0
  0
LINE
  5
7D
330
74
100
AcDbEntity
  8
0
  6
Continuous
 62
     0
370
     0
100
AcDbLine
 10
0.0
 20
-2.5
 30
0.0
 11
0.0
 21
-3.75
 31
0.0
  0
LINE
  5
7E
330
74
100
AcDbEntity
  8
0
  6
Continuous
 62
     0
370
     0
100
AcDbLine
 10
2.5
 20
0.0
 30
0.0
 11
3.75
 21
0.0
 31
0.0
  0
ENDBLK
  5
76
330
74
100
AcDbEntity
  8
0
100
AcDbBlockEnd
  0
BLOCK
  5
81
330
80
100
AcDbEntity
  8
0
100
AcDbBlockBegin
  2
SW_CENTERMARKSYMBOL_1
 70
     0
 10
0.0
 20
0.0
 30
0.0
  3
SW_CENTERMARKSYMBOL_1
  1

  0
LINE
  5
83
330
80
100
AcDbEntity
  8
0
  6
Continuous
 62
     0
370
     0
100
AcDbLine
 10
0.0
 20
0.0
 30
0.0
 11
0.0
 21
2.5
 31
0.0
  0
LINE
  5
84
330
80
100
AcDbEntity
  8
0
  6
Continuous
 62
     0
370
     0
100
AcDbLine
 10
0.0
 20
0.0
 30
0.0
 11
-2.5
 21
0.0
 31
0.0
  0
LINE
  5
85
330
80
100
AcDbEntity
  8
0
  6
Continuous
 62
     0
370
     0
100
AcDbLine
 10
0.0
 20
0.0
 30
0.0
 11
0.0
 21
-2.5
 31
0.0
  0
LINE
  5
86
330
80
100
AcDbEntity
  8
0
  6
Continuous
 62
     0
370
     0
100
AcDbLine
 10
0.0
 20
0.0
 30
0.0
 11
2.5
 21
0.0
 31
0.0
  0
LINE
  5
87
330
80
100
AcDbEntity
  8
0
  6
Continuous
 62
     0
370
     0
100
AcDbLine
 10
0.0
 20
2.5
 30
0.0
 11
0.0
 21
3.75
 31
0.0
  0
LINE
  5
88
330
80
100
AcDbEntity
  8
0
  6
Continuous
 62
     0
370
     0
100
AcDbLine
 10
-2.5
 20
0.0
 30
0.0
 11
-3.75
 21
0.0
 31
0.0
  0
LINE
  5
89
330
80
100
AcDbEntity
  8
0
  6
Continuous
 62
     0
370
     0
100
AcDbLine
 10
0.0
 20
-2.5
 30
0.0
 11
0.0
 21
-3.75
 31
0.0
  0
LINE
  5
8A
330
80
100
AcDbEntity
  8
0
  6
Continuous
 62
     0
370
     0
100
AcDbLine
 10
2.5
 20
0.0
 30
0.0
 11
3.75
 21
0.0
 31
0.0
  0
ENDBLK
  5
82
330
80
100
AcDbEntity
  8
0
100
AcDbBlockEnd
  0
BLOCK
  5
8D
330
8C
100
AcDbEntity
  8
0
100
AcDbBlockBegin
  2
SW_CENTERMARKSYMBOL_2
 70
     0
 10
0.0
 20
0.0
 30
0.0
  3
SW_CENTERMARKSYMBOL_2
  1

  0
LINE
  5
8F
330
8C
100
AcDbEntity
  8
0
  6
Continuous
 62
     0
370
     0
100
AcDbLine
 10
0.0
 20
0.0
 30
0.0
 11
0.0
 21
2.5
 31
0.0
  0
LINE
  5
90
330
8C
100
AcDbEntity
  8
0
  6
Continuous
 62
     0
370
     0
100
AcDbLine
 10
0.0
 20
0.0
 30
0.0
 11
-2.5
 21
0.0
 31
0.0
  0
LINE
  5
91
330
8C
100
AcDbEntity
  8
0
  6
Continuous
 62
     0
370
     0
100
AcDbLine
 10
0.0
 20
0.0
 30
0.0
 11
0.0
 21
-2.5
 31
0.0
  0
LINE
  5
92
330
8C
100
AcDbEntity
  8
0
  6
Continuous
 62
     0
370
     0
100
AcDbLine
 10
0.0
 20
0.0
 30
0.0
 11
2.5
 21
0.0
 31
0.0
  0
LINE
  5
93
330
8C
100
AcDbEntity
  8
0
  6
Continuous
 62
     0
370
     0
100
AcDbLine
 10
0.0
 20
2.5
 30
0.0
 11
0.0
 21
5.0
 31
0.0
  0
LINE
  5
94
330
8C
100
AcDbEntity
  8
0
  6
Continuous
 62
     0
370
     0
100
AcDbLine
 10
-2.5
 20
0.0
 30
0.0
 11
-5.0
 21
0.0
 31
0.0
  0
LINE
  5
95
330
8C
100
AcDbEntity
  8
0
  6
Continuous
 62
     0
370
     0
100
AcDbLine
 10
0.0
 20
-2.5
 30
0.0
 11
0.0
 21
-5.0
 31
0.0
  0
LINE
  5
96
330
8C
100
AcDbEntity
  8
0
  6
Continuous
 62
     0
370
     0
100
AcDbLine
 10
2.5
 20
0.0
 30
0.0
 11
5.0
 21
0.0
 31
0.0
  0
ENDBLK
  5
8E
330
8C
100
AcDbEntity
  8
0
100
AcDbBlockEnd
  0
BLOCK
  5
BC
330
BB
100
AcDbEntity
  8
0
100
AcDbBlockBegin
  2
SW_CENTERMARKSYMBOL_3
 70
     0
 10
0.0
 20
0.0
 30
0.0
  3
SW_CENTERMARKSYMBOL_3
  1

  0
LINE
  5
BE
330
BB
100
AcDbEntity
  8
0
  6
Continuous
 62
     0
370
     0
100
AcDbLine
 10
0.0
 20
0.0
 30
0.0
 11
0.0
 21
2.5
 31
0.0
  0
LINE
  5
BF
330
BB
100
AcDbEntity
  8
0
  6
Continuous
 62
     0
370
     0
100
AcDbLine
 10
0.0
 20
0.0
 30
0.0
 11
-2.5
 21
0.0
 31
0.0
  0
LINE
  5
C0
330
BB
100
AcDbEntity
  8
0
  6
Continuous
 62
     0
370
     0
100
AcDbLine
 10
0.0
 20
0.0
 30
0.0
 11
0.0
 21
-2.5
 31
0.0
  0
LINE
  5
C1
330
BB
100
AcDbEntity
  8
0
  6
Continuous
 62
     0
370
     0
100
AcDbLine
 10
0.0
 20
0.0
 30
0.0
 11
2.5
 21
0.0
 31
0.0
  0
LINE
  5
C2
330
BB
100
AcDbEntity
  8
0
  6
Continuous
 62
     0
370
     0
100
AcDbLine
 10
0.0
 20
2.5
 30
0.0
 11
0.0
 21
5.0
 31
0.0
  0
LINE
  5
C3
330
BB
100
AcDbEntity
  8
0
  6
Continuous
 62
     0
370
     0
100
AcDbLine
 10
-2.5
 20
0.0
 30
0.0
 11
-5.0
 21
0.0
 31
0.0
  0
LINE
  5
C4
330
BB
100
AcDbEntity
  8
0
  6
Continuous
 62
     0
370
     0
100
AcDbLine
 10
0.0
 20
-2.5
 30
0.0
 11
0.0
 21
-5.0
 31
0.0
  0
LINE
  5
C5
330
BB
100
AcDbEntity
  8
0
  6
Continuous
 62
     0
370
     0
100
AcDbLine
 10
2.5
 20
0.0
 30
0.0
 11
5.0
 21
0.0
 31
0.0
  0
ENDBLK
  5
BD
330
BB
100
AcDbEntity
  8
0
100
AcDbBlockEnd
  0
BLOCK
  5
C8
330
C7
100
AcDbEntity
  8
0
100
AcDbBlockBegin
  2
SW_CENTERMARKSYMBOL_4
 70
     0
 10
0.0
 20
0.0
 30
0.0
  3
SW_CENTERMARKSYMBOL_4
  1

  0
LINE
  5
CA
330
C7
100
AcDbEntity
  8
0
  6
Continuous
 62
     0
370
     0
100
AcDbLine
 10
0.0
 20
0.0
 30
0.0
 11
0.0
 21
2.5
 31
0.0
  0
LINE
  5
CB
330
C7
100
AcDbEntity
  8
0
  6
Continuous
 62
     0
370
     0
100
AcDbLine
 10
0.0
 20
0.0
 30
0.0
 11
-2.5
 21
0.0
 31
0.0
  0
LINE
  5
CC
330
C7
100
AcDbEntity
  8
0
  6
Continuous
 62
     0
370
     0
100
AcDbLine
 10
0.0
 20
0.0
 30
0.0
 11
0.0
 21
-2.5
 31
0.0
  0
LINE
  5
CD
330
C7
100
AcDbEntity
  8
0
  6
Continuous
 62
     0
370
     0
100
AcDbLine
 10
0.0
 20
0.0
 30
0.0
 11
2.5
 21
0.0
 31
0.0
  0
LINE
  5
CE
330
C7
100
AcDbEntity
  8
0
  6
Continuous
 62
     0
370
     0
100
AcDbLine
 10
0.0
 20
2.5
 30
0.0
 11
0.0
 21
5.0
 31
0.0
  0
LINE
  5
CF
330
C7
100
AcDbEntity
  8
0
  6
Continuous
 62
     0
370
     0
100
AcDbLine
 10
-2.5
 20
0.0
 30
0.0
 11
-5.0
 21
0.0
 31
0.0
  0
LINE
  5
D0
330
C7
100
AcDbEntity
  8
0
  6
Continuous
 62
     0
370
     0
100
AcDbLine
 10
0.0
 20
-2.5
 30
0.0
 11
0.0
 21
-5.0
 31
0.0
  0
LINE
  5
D1
330
C7
100
AcDbEntity
  8
0
  6
Continuous
 62
     0
370
     0
100
AcDbLine
 10
2.5
 20
0.0
 30
0.0
 11
5.0
 21
0.0
 31
0.0
  0
ENDBLK
  5
C9
330
C7
100
AcDbEntity
  8
0
100
AcDbBlockEnd
  0
BLOCK
  5
10A
330
109
100
AcDbEntity
  8
0
100
AcDbBlockBegin
  2
SW_CENTERMARKSYMBOL_5
 70
     0
 10
0.0
 20
0.0
 30
0.0
  3
SW_CENTERMARKSYMBOL_5
  1

  0
LINE
  5
10C
330
109
100
AcDbEntity
  8
0
  6
Continuous
 62
     0
370
     0
100
AcDbLine
 10
0.0
 20
0.0
 30
0.0
 11
0.0
 21
2.5
 31
0.0
  0
LINE
  5
10D
330
109
100
AcDbEntity
  8
0
  6
Continuous
 62
     0
370
     0
100
AcDbLine
 10
0.0
 20
0.0
 30
0.0
 11
-2.5
 21
0.0
 31
0.0
  0
LINE
  5
10E
330
109
100
AcDbEntity
  8
0
  6
Continuous
 62
     0
370
     0
100
AcDbLine
 10
0.0
 20
0.0
 30
0.0
 11
0.0
 21
-2.5
 31
0.0
  0
LINE
  5
10F
330
109
100
AcDbEntity
  8
0
  6
Continuous
 62
     0
370
     0
100
AcDbLine
 10
0.0
 20
0.0
 30
0.0
 11
2.5
 21
0.0
 31
0.0
  0
LINE
  5
110
330
109
100
AcDbEntity
  8
0
  6
Continuous
 62
     0
370
     0
100
AcDbLine
 10
0.0
 20
5.0
 30
0.0
 11
0.0
 21
6.1
 31
0.0
  0
LINE
  5
111
330
109
100
AcDbEntity
  8
0
  6
Continuous
 62
     0
370
     0
100
AcDbLine
 10
-5.0
 20
0.0
 30
0.0
 11
-6.1
 21
0.0
 31
0.0
  0
LINE
  5
112
330
109
100
AcDbEntity
  8
0
  6
Continuous
 62
     0
370
     0
100
AcDbLine
 10
0.0
 20
-5.0
 30
0.0
 11
0.0
 21
-6.1
 31
0.0
  0
LINE
  5
113
330
109
100
AcDbEntity
  8
0
  6
Continuous
 62
     0
370
     0
100
AcDbLine
 10
5.0
 20
0.0
 30
0.0
 11
6.1
 21
0.0
 31
0.0
  0
ENDBLK
  5
10B
330
109
100
AcDbEntity
  8
0
100
AcDbBlockEnd
  0
BLOCK
  5
116
330
115
100
AcDbEntity
  8
0
100
AcDbBlockBegin
  2
SW_CENTERMARKSYMBOL_6
 70
     0
 10
0.0
 20
0.0
 30
0.0
  3
SW_CENTERMARKSYMBOL_6
  1

  0
LINE
  5
118
330
115
100
AcDbEntity
  8
0
  6
Continuous
 62
     0
370
     0
100
AcDbLine
 10
0.0
 20
0.0
 30
0.0
 11
0.0
 21
2.5
 31
0.0
  0
LINE
  5
119
330
115
100
AcDbEntity
  8
0
  6
Continuous
 62
     0
370
     0
100
AcDbLine
 10
0.0
 20
0.0
 30
0.0
 11
-2.5
 21
0.0
 31
0.0
  0
LINE
  5
11A
330
115
100
AcDbEntity
  8
0
  6
Continuous
 62
     0
370
     0
100
AcDbLine
 10
0.0
 20
0.0
 30
0.0
 11
0.0
 21
-2.5
 31
0.0
  0
LINE
  5
11B
330
115
100
AcDbEntity
  8
0
  6
Continuous
 62
     0
370
     0
100
AcDbLine
 10
0.0
 20
0.0
 30
0.0
 11
2.5
 21
0.0
 31
0.0
  0
LINE
  5
11C
330
115
100
AcDbEntity
  8
0
  6
Continuous
 62
     0
370
     0
100
AcDbLine
 10
0.0
 20
2.5
 30
0.0
 11
0.0
 21
3.0
 31
0.0
  0
LINE
  5
11D
330
115
100
AcDbEntity
  8
0
  6
Continuous
 62
     0
370
     0
100
AcDbLine
 10
-2.5
 20
0.0
 30
0.0
 11
-3.0
 21
0.0
 31
0.0
  0
LINE
  5
11E
330
115
100
AcDbEntity
  8
0
  6
Continuous
 62
     0
370
     0
100
AcDbLine
 10
0.0
 20
-2.5
 30
0.0
 11
0.0
 21
-3.0
 31
0.0
  0
LINE
  5
11F
330
115
100
AcDbEntity
  8
0
  6
Continuous
 62
     0
370
     0
100
AcDbLine
 10
2.5
 20
0.0
 30
0.0
 11
3.0
 21
0.0
 31
0.0
  0
ENDBLK
  5
117
330
115
100
AcDbEntity
  8
0
100
AcDbBlockEnd
  0
BLOCK
  5
122
330
121
100
AcDbEntity
  8
0
100
AcDbBlockBegin
  2
SW_CENTERMARKSYMBOL_7
 70
     0
 10
0.0
 20
0.0
 30
0.0
  3
SW_CENTERMARKSYMBOL_7
  1

  0
LINE
  5
124
330
121
100
AcDbEntity
  8
0
  6
Continuous
 62
     0
370
     0
100
AcDbLine
 10
0.0
 20
0.0
 30
0.0
 11
0.0
 21
2.5
 31
0.0
  0
LINE
  5
125
330
121
100
AcDbEntity
  8
0
  6
Continuous
 62
     0
370
     0
100
AcDbLine
 10
0.0
 20
0.0
 30
0.0
 11
-2.5
 21
0.0
 31
0.0
  0
LINE
  5
126
330
121
100
AcDbEntity
  8
0
  6
Continuous
 62
     0
370
     0
100
AcDbLine
 10
0.0
 20
0.0
 30
0.0
 11
0.0
 21
-2.5
 31
0.0
  0
LINE
  5
127
330
121
100
AcDbEntity
  8
0
  6
Continuous
 62
     0
370
     0
100
AcDbLine
 10
0.0
 20
0.0
 30
0.0
 11
2.5
 21
0.0
 31
0.0
  0
LINE
  5
128
330
121
100
AcDbEntity
  8
0
  6
Continuous
 62
     0
370
     0
100
AcDbLine
 10
0.0
 20
2.5
 30
0.0
 11
0.0
 21
5.0
 31
0.0
  0
LINE
  5
129
330
121
100
AcDbEntity
  8
0
  6
Continuous
 62
     0
370
     0
100
AcDbLine
 10
-2.5
 20
0.0
 30
0.0
 11
-5.0
 21
0.0
 31
0.0
  0
LINE
  5
12A
330
121
100
AcDbEntity
  8
0
  6
Continuous
 62
     0
370
     0
100
AcDbLine
 10
0.0
 20
-2.5
 30
0.0
 11
0.0
 21
-5.0
 31
0.0
  0
LINE
  5
12B
330
121
100
AcDbEntity
  8
0
  6
Continuous
 62
     0
370
     0
100
AcDbLine
 10
2.5
 20
0.0
 30
0.0
 11
5.0
 21
0.0
 31
0.0
  0
ENDBLK
  5
123
330
121
100
AcDbEntity
  8
0
100
AcDbBlockEnd
  0
BLOCK
  5
12E
330
12D
100
AcDbEntity
  8
0
100
AcDbBlockBegin
  2
SW_CENTERMARKSYMBOL_8
 70
     0
 10
0.0
 20
0.0
 30
0.0
  3
SW_CENTERMARKSYMBOL_8
  1

  0
LINE
  5
130
330
12D
100
AcDbEntity
  8
0
  6
Continuous
 62
     0
370
     0
100
AcDbLine
 10
0.0
 20
0.0
 30
0.0
 11
0.0
 21
2.5
 31
0.0
  0
LINE
  5
131
330
12D
100
AcDbEntity
  8
0
  6
Continuous
 62
     0
370
     0
100
AcDbLine
 10
0.0
 20
0.0
 30
0.0
 11
-2.5
 21
0.0
 31
0.0
  0
LINE
  5
132
330
12D
100
AcDbEntity
  8
0
  6
Continuous
 62
     0
370
     0
100
AcDbLine
 10
0.0
 20
0.0
 30
0.0
 11
0.0
 21
-2.5
 31
0.0
  0
LINE
  5
133
330
12D
100
AcDbEntity
  8
0
  6
Continuous
 62
     0
370
     0
100
AcDbLine
 10
0.0
 20
0.0
 30
0.0
 11
2.5
 21
0.0
 31
0.0
  0
LINE
  5
134
330
12D
100
AcDbEntity
  8
0
  6
Continuous
 62
     0
370
     0
100
AcDbLine
 10
0.0
 20
2.5
 30
0.0
 11
0.0
 21
5.0
 31
0.0
  0
LINE
  5
135
330
12D
100
AcDbEntity
  8
0
  6
Continuous
 62
     0
370
     0
100
AcDbLine
 10
-2.5
 20
0.0
 30
0.0
 11
-5.0
 21
0.0
 31
0.0
  0
LINE
  5
136
330
12D
100
AcDbEntity
  8
0
  6
Continuous
 62
     0
370
     0
100
AcDbLine
 10
0.0
 20
-2.5
 30
0.0
 11
0.0
 21
-5.0
 31
0.0
  0
LINE
  5
137
330
12D
100
AcDbEntity
  8
0
  6
Continuous
 62
     0
370
     0
100
AcDbLine
 10
2.5
 20
0.0
 30
0.0
 11
5.0
 21
0.0
 31
0.0
  0
ENDBLK
  5
12F
330
12D
100
AcDbEntity
  8
0
100
AcDbBlockEnd
  0
BLOCK
  5
13A
330
139
100
AcDbEntity
  8
0
100
AcDbBlockBegin
  2
SW_CENTERMARKSYMBOL_9
 70
     0
 10
0.0
 20
0.0
 30
0.0
  3
SW_CENTERMARKSYMBOL_9
  1

  0
LINE
  5
13C
330
139
100
AcDbEntity
  8
0
  6
Continuous
 62
     0
370
     0
100
AcDbLine
 10
0.0
 20
0.0
 30
0.0
 11
0.0
 21
2.5
 31
0.0
  0
LINE
  5
13D
330
139
100
AcDbEntity
  8
0
  6
Continuous
 62
     0
370
     0
100
AcDbLine
 10
0.0
 20
0.0
 30
0.0
 11
-2.5
 21
0.0
 31
0.0
  0
LINE
  5
13E
330
139
100
AcDbEntity
  8
0
  6
Continuous
 62
     0
370
     0
100
AcDbLine
 10
0.0
 20
0.0
 30
0.0
 11
0.0
 21
-2.5
 31
0.0
  0
LINE
  5
13F
330
139
100
AcDbEntity
  8
0
  6
Continuous
 62
     0
370
     0
100
AcDbLine
 10
0.0
 20
0.0
 30
0.0
 11
2.5
 21
0.0
 31
0.0
  0
LINE
  5
140
330
139
100
AcDbEntity
  8
0
  6
Continuous
 62
     0
370
     0
100
AcDbLine
 10
0.0
 20
2.5
 30
0.0
 11
0.0
 21
5.0
 31
0.0
  0
LINE
  5
141
330
139
100
AcDbEntity
  8
0
  6
Continuous
 62
     0
370
     0
100
AcDbLine
 10
-2.5
 20
0.0
 30
0.0
 11
-5.0
 21
0.0
 31
0.0
  0
LINE
  5
142
330
139
100
AcDbEntity
  8
0
  6
Continuous
 62
     0
370
     0
100
AcDbLine
 10
0.0
 20
-2.5
 30
0.0
 11
0.0
 21
-5.0
 31
0.0
  0
LINE
  5
143
330
139
100
AcDbEntity
  8
0
  6
Continuous
 62
     0
370
     0
100
AcDbLine
 10
2.5
 20
0.0
 30
0.0
 11
5.0
 21
0.0
 31
0.0
  0
ENDBLK
  5
13B
330
139
100
AcDbEntity
  8
0
100
AcDbBlockEnd
  0
BLOCK
  5
146
330
145
100
AcDbEntity
  8
0
100
AcDbBlockBegin
  2
SW_CENTERMARKSYMBOL_10
 70
     0
 10
0.0
 20
0.0
 30
0.0
  3
SW_CENTERMARKSYMBOL_10
  1

  0
LINE
  5
148
330
145
100
AcDbEntity
  8
0
  6
Continuous
 62
     0
370
     0
100
AcDbLine
 10
0.0
 20
0.0
 30
0.0
 11
0.0
 21
2.5
 31
0.0
  0
LINE
  5
149
330
145
100
AcDbEntity
  8
0
  6
Continuous
 62
     0
370
     0
100
AcDbLine
 10
0.0
 20
0.0
 30
0.0
 11
-2.5
 21
0.0
 31
0.0
  0
LINE
  5
14A
330
145
100
AcDbEntity
  8
0
  6
Continuous
 62
     0
370
     0
100
AcDbLine
 10
0.0
 20
0.0
 30
0.0
 11
0.0
 21
-2.5
 31
0.0
  0
LINE
  5
14B
330
145
100
AcDbEntity
  8
0
  6
Continuous
 62
     0
370
     0
100
AcDbLine
 10
0.0
 20
0.0
 30
0.0
 11
2.5
 21
0.0
 31
0.0
  0
LINE
  5
14C
330
145
100
AcDbEntity
  8
0
  6
Continuous
 62
     0
370
     0
100
AcDbLine
 10
0.0
 20
2.5
 30
0.0
 11
0.0
 21
5.0
 31
0.0
  0
LINE
  5
14D
330
145
100
AcDbEntity
  8
0
  6
Continuous
 62
     0
370
     0
100
AcDbLine
 10
-2.5
 20
0.0
 30
0.0
 11
-5.0
 21
0.0
 31
0.0
  0
LINE
  5
14E
330
145
100
AcDbEntity
  8
0
  6
Continuous
 62
     0
370
     0
100
AcDbLine
 10
0.0
 20
-2.5
 30
0.0
 11
0.0
 21
-5.0
 31
0.0
  0
LINE
  5
14F
330
145
100
AcDbEntity
  8
0
  6
Continuous
 62
     0
370
     0
100
AcDbLine
 10
2.5
 20
0.0
 30
0.0
 11
5.0
 21
0.0
 31
0.0
  0
ENDBLK
  5
147
330
145
100
AcDbEntity
  8
0
100
AcDbBlockEnd
  0
BLOCK
  5
152
330
151
100
AcDbEntity
  8
0
100
AcDbBlockBegin
  2
SW_CENTERMARKSYMBOL_11
 70
     0
 10
0.0
 20
0.0
 30
0.0
  3
SW_CENTERMARKSYMBOL_11
  1

  0
LINE
  5
154
330
151
100
AcDbEntity
  8
0
  6
Continuous
 62
     0
370
     0
100
AcDbLine
 10
0.0
 20
0.0
 30
0.0
 11
0.0
 21
2.5
 31
0.0
  0
LINE
  5
155
330
151
100
AcDbEntity
  8
0
  6
Continuous
 62
     0
370
     0
100
AcDbLine
 10
0.0
 20
0.0
 30
0.0
 11
-2.5
 21
0.0
 31
0.0
  0
LINE
  5
156
330
151
100
AcDbEntity
  8
0
  6
Continuous
 62
     0
370
     0
100
AcDbLine
 10
0.0
 20
0.0
 30
0.0
 11
0.0
 21
-2.5
 31
0.0
  0
LINE
  5
157
330
151
100
AcDbEntity
  8
0
  6
Continuous
 62
     0
370
     0
100
AcDbLine
 10
0.0
 20
0.0
 30
0.0
 11
2.5
 21
0.0
 31
0.0
  0
LINE
  5
158
330
151
100
AcDbEntity
  8
0
  6
Continuous
 62
     0
370
     0
100
AcDbLine
 10
0.0
 20
5.0
 30
0.0
 11
0.0
 21
6.1
 31
0.0
  0
LINE
  5
159
330
151
100
AcDbEntity
  8
0
  6
Continuous
 62
     0
370
     0
100
AcDbLine
 10
-5.0
 20
0.0
 30
0.0
 11
-6.1
 21
0.0
 31
0.0
  0
LINE
  5
15A
330
151
100
AcDbEntity
  8
0
  6
Continuous
 62
     0
370
     0
100
AcDbLine
 10
0.0
 20
-5.0
 30
0.0
 11
0.0
 21
-6.1
 31
0.0
  0
LINE
  5
15B
330
151
100
AcDbEntity
  8
0
  6
Continuous
 62
     0
370
     0
100
AcDbLine
 10
5.0
 20
0.0
 30
0.0
 11
6.1
 21
0.0
 31
0.0
  0
ENDBLK
  5
153
330
151
100
AcDbEntity
  8
0
100
AcDbBlockEnd
  0
BLOCK
  5
15E
330
15D
100
AcDbEntity
  8
0
100
AcDbBlockBegin
  2
SW_CENTERMARKSYMBOL_12
 70
     0
 10
0.0
 20
0.0
 30
0.0
  3
SW_CENTERMARKSYMBOL_12
  1

  0
LINE
  5
160
330
15D
100
AcDbEntity
  8
0
  6
Continuous
 62
     0
370
     0
100
AcDbLine
 10
0.0
 20
0.0
 30
0.0
 11
0.0
 21
2.5
 31
0.0
  0
LINE
  5
161
330
15D
100
AcDbEntity
  8
0
  6
Continuous
 62
     0
370
     0
100
AcDbLine
 10
0.0
 20
0.0
 30
0.0
 11
-2.5
 21
0.0
 31
0.0
  0
LINE
  5
162
330
15D
100
AcDbEntity
  8
0
  6
Continuous
 62
     0
370
     0
100
AcDbLine
 10
0.0
 20
0.0
 30
0.0
 11
0.0
 21
-2.5
 31
0.0
  0
LINE
  5
163
330
15D
100
AcDbEntity
  8
0
  6
Continuous
 62
     0
370
     0
100
AcDbLine
 10
0.0
 20
0.0
 30
0.0
 11
2.5
 21
0.0
 31
0.0
  0
LINE
  5
164
330
15D
100
AcDbEntity
  8
0
  6
Continuous
 62
     0
370
     0
100
AcDbLine
 10
0.0
 20
2.5
 30
0.0
 11
0.0
 21
3.0
 31
0.0
  0
LINE
  5
165
330
15D
100
AcDbEntity
  8
0
  6
Continuous
 62
     0
370
     0
100
AcDbLine
 10
-2.5
 20
0.0
 30
0.0
 11
-3.0
 21
0.0
 31
0.0
  0
LINE
  5
166
330
15D
100
AcDbEntity
  8
0
  6
Continuous
 62
     0
370
     0
100
AcDbLine
 10
0.0
 20
-2.5
 30
0.0
 11
0.0
 21
-3.0
 31
0.0
  0
LINE
  5
167
330
15D
100
AcDbEntity
  8
0
  6
Continuous
 62
     0
370
     0
100
AcDbLine
 10
2.5
 20
0.0
 30
0.0
 11
3.0
 21
0.0
 31
0.0
  0
ENDBLK
  5
15F
330
15D
100
AcDbEntity
  8
0
100
AcDbBlockEnd
  0
ENDSEC
  0
SECTION
  2
ENTITIES
  0
CIRCLE
  5
40
330
1F
100
AcDbEntity
  8
0
  6
Continuous
 62
     7
370
     0
100
AcDbCircle
 10
108.5031349824
 20
53.65
 30
0.0
 40
1.25
  0
CIRCLE
  5
41
330
1F
100
AcDbEntity
  8
0
  6
Continuous
 62
     7
370
     0
100
AcDbCircle
 10
108.5031349824
 20
53.65
 30
0.0
 40
1.549999999999997
  0
CIRCLE
  5
42
330
1F
100
AcDbEntity
  8
0
  6
Continuous
 62
     7
370
     0
100
AcDbCircle
 10
70.2031349824
 20
53.65
 30
0.0
 40
1.249999999999986
  0
CIRCLE
  5
43
330
1F
100
AcDbEntity
  8
0
  6
Continuous
 62
     7
370
     0
100
AcDbCircle
 10
70.2031349824
 20
53.65
 30
0.0
 40
1.549999999999983
  0
CIRCLE
  5
44
330
1F
100
AcDbEntity
  8
0
  6
Continuous
 62
     7
370
     0
100
AcDbCircle
 10
89.3531349824
 20
59.65
 30
0.0
 40
2.5
  0
CIRCLE
  5
45
330
1F
100
AcDbEntity
  8
0
  6
Continuous
 62
     7
370
     0
100
AcDbCircle
 10
89.3531349824
 20
59.65
 30
0.0
 40
3.09999999999998
  0
LINE
  5
46
330
1F
100
AcDbEntity
  8
0
  6
Continuous
 62
     7
370
     0
100
AcDbLine
 10
83.2031349824
 20
64.8
 30
0.0
 11
82.9531349824
 21
64.55
 31
0.0
  0
LINE
  5
47
330
1F
100
AcDbEntity
  8
0
  6
Continuous
 62
     7
370
     0
100
AcDbLine
 10
95.5031349824
 20
64.8
 30
0.0
 11
83.2031349824
 21
64.8
 31
0.0
  0
LINE
  5
48
330
1F
100
AcDbEntity
  8
0
  6
Continuous
 62
     7
370
     0
100
AcDbLine
 10
95.7531349824
 20
64.55
 30
0.0
 11
95.5031349824
 21
64.8
 31
0.0
  0
LINE
  5
49
330
1F
100
AcDbEntity
  8
0
  6
Continuous
 62
     7
370
     0
100
AcDbLine
 10
111.5531349824
 20
64.55
 30
0.0
 11
95.7531349824
 21
64.55
 31
0.0
  0
LINE
  5
4A
330
1F
100
AcDbEntity
  8
0
  6
Continuous
 62
     7
370
     0
100
AcDbLine
 10
99.2031349824
 20
35.3
 30
0.0
 11
110.8324243043
 21
35.3
 31
0.0
  0
LINE
  5
4B
330
1F
100
AcDbEntity
  8
0
  6
Continuous
 62
     7
370
     0
100
AcDbLine
 10
66.1531349824
 20
37.0207106781
 30
0.0
 11
67.8738456605
 21
35.3
 31
0.0
  0
LINE
  5
4C
330
1F
100
AcDbEntity
  8
0
  6
Continuous
 62
     7
370
     0
100
AcDbLine
 10
66.1531349824
 20
63.55
 30
0.0
 11
66.1531349824
 21
37.0207106781
 31
0.0
  0
ARC
  5
4D
330
1F
100
AcDbEntity
  8
0
  6
Continuous
 62
     7
370
     0
100
AcDbCircle
 10
67.1531349824
 20
63.55
 30
0.0
 40
1.0
100
AcDbArc
 50
90.0
 51
180.0
  0
LINE
  5
4E
330
1F
100
AcDbEntity
  8
0
  6
Continuous
 62
     7
370
     0
100
AcDbLine
 10
82.9531349824
 20
64.55
 30
0.0
 11
67.1531349824
 21
64.55
 31
0.0
  0
ARC
  5
4F
330
1F
100
AcDbEntity
  8
0
  6
Continuous
 62
     7
370
     0
100
AcDbCircle
 10
79.0531350933
 20
39.7999994064
 30
0.0
 40
2.449999478951622
100
AcDbArc
 50
280.5838022347
 51
348.8121579612
  0
LINE
  5
50
330
1F
100
AcDbEntity
  8
0
  6
Continuous
 62
     7
370
     0
100
AcDbLine
 10
82.4531356375
 20
39.899999338
 30
0.0
 11
81.4565756375
 21
39.324635338
 31
0.0
  0
LINE
  5
51
330
1F
100
AcDbEntity
  8
0
  6
Continuous
 62
     7
370
     0
100
AcDbLine
 10
82.4531356375
 20
47.599999338
 30
0.0
 11
82.4531356375
 21
39.899999338
 31
0.0
  0
ARC
  5
52
330
1F
100
AcDbEntity
  8
0
  6
Continuous
 62
     7
370
     0
100
AcDbCircle
 10
111.5531349824
 20
63.55
 30
0.0
 40
1.0
100
AcDbArc
 50
0.0
 51
90.0
  0
LINE
  5
53
330
1F
100
AcDbEntity
  8
0
  6
Continuous
 62
     7
370
     0
100
AcDbLine
 10
112.5531349824
 20
37.0207106781
 30
0.0
 11
112.5531349824
 21
63.55
 31
0.0
  0
LINE
  5
54
330
1F
100
AcDbEntity
  8
0
  6
Continuous
 62
     7
370
     0
100
AcDbLine
 10
110.8324243043
 20
35.3
 30
0.0
 11
112.5531349824
 21
37.0207106781
 31
0.0
  0
LINE
  5
55
330
1F
100
AcDbEntity
  8
0
  6
Continuous
 62
     7
370
     0
100
AcDbLine
 10
67.8738456605
 20
35.3
 30
0.0
 11
79.5031349824
 21
35.3
 31
0.0
  0
LINE
  5
56
330
1F
100
AcDbEntity
  8
0
  6
Continuous
 62
     7
370
     0
100
AcDbLine
 10
79.3120389824
 20
53.699998676
 30
0.0
 11
79.8331859824
 21
51.755049676
 31
0.0
  0
LINE
  5
57
330
1F
100
AcDbEntity
  8
0
  6
Continuous
 62
     7
370
     0
100
AcDbLine
 10
98.8730839824
 20
51.755049676
 30
0.0
 11
99.3942319824
 21
53.699998676
 31
0.0
  0
LINE
  5
58
330
1F
100
AcDbEntity
  8
0
  6
Continuous
 62
     7
370
     0
100
AcDbLine
 10
99.2031349654
 20
51.4249986929
 30
0.0
 11
98.8730839824
 21
51.755049676
 31
0.0
  0
LINE
  5
59
330
1F
100
AcDbEntity
  8
0
  6
Continuous
 62
     7
370
     0
100
AcDbLine
 10
99.2031349654
 20
50.1083175886
 30
0.0
 11
99.2031349654
 21
51.4249986929
 31
0.0
  0
ARC
  5
5A
330
1F
100
AcDbEntity
  8
0
  6
Continuous
 62
     7
370
     0
100
AcDbCircle
 10
99.6531349824
 20
47.699998676
 30
0.0
 40
2.449999999999988
100
AcDbArc
 50
100.583803
 51
168.812154
  0
LINE
  5
5B
330
1F
100
AcDbEntity
  8
0
  6
Continuous
 62
     7
370
     0
100
AcDbLine
 10
96.2531349824
 20
47.599998676
 30
0.0
 11
97.2496939599
 21
48.1753630117
 31
0.0
  0
LINE
  5
5C
330
1F
100
AcDbEntity
  8
0
  6
Continuous
 62
     7
370
     0
100
AcDbLine
 10
96.2531349824
 20
39.899998676
 30
0.0
 11
96.2531349824
 21
47.599998676
 31
0.0
  0
LINE
  5
5D
330
1F
100
AcDbEntity
  8
0
  6
Continuous
 62
     7
370
     0
100
AcDbLine
 10
97.2496939117
 20
39.3246342915
 30
0.0
 11
96.2531349824
 21
39.899998676
 31
0.0
  0
ARC
  5
5E
330
1F
100
AcDbEntity
  8
0
  6
Continuous
 62
     7
370
     0
100
AcDbCircle
 10
99.6531349748
 20
39.7999986353
 30
0.0
 40
2.45000004140425
100
AcDbArc
 50
191.187846
 51
259.4161977653
  0
LINE
  5
5F
330
1F
100
AcDbEntity
  8
0
  6
Continuous
 62
     7
370
     0
100
AcDbLine
 10
99.3942319824
 20
53.699998676
 30
0.0
 11
79.3120389824
 21
53.699998676
 31
0.0
  0
LINE
  5
60
330
1F
100
AcDbEntity
  8
0
  6
Continuous
 62
     7
370
     0
100
AcDbLine
 10
79.5031349824
 20
37.391681
 30
0.0
 11
79.5031349824
 21
35.3
 31
0.0
  0
LINE
  5
61
330
1F
100
AcDbEntity
  8
0
  6
Continuous
 62
     7
370
     0
100
AcDbLine
 10
99.2031349824
 20
35.3
 30
0.0
 11
99.2031349824
 21
37.391679676
 31
0.0
  0
LINE
  5
62
330
1F
100
AcDbEntity
  8
0
  6
Continuous
 62
     7
370
     0
100
AcDbLine
 10
81.4565756375
 20
48.175363338
 30
0.0
 11
82.4531356375
 21
47.599999338
 31
0.0
  0
ARC
  5
63
330
1F
100
AcDbEntity
  8
0
  6
Continuous
 62
     7
370
     0
100
AcDbCircle
 10
79.0531350933
 20
47.6999992696
 30
0.0
 40
2.449999478951641
100
AcDbArc
 50
11.1878420388
 51
79.4161977653
  0
LINE
  5
64
330
1F
100
AcDbEntity
  8
0
  6
Continuous
 62
     7
370
     0
100
AcDbLine
 10
79.5031349824
 20
51.424998676
 30
0.0
 11
79.5031349824
 21
50.108317676
 31
0.0
  0
LINE
  5
65
330
1F
100
AcDbEntity
  8
0
  6
Continuous
 62
     7
370
     0
100
AcDbLine
 10
79.8331859824
 20
51.755049676
 30
0.0
 11
79.5031349824
 21
51.424998676
 31
0.0
  0
LWPOLYLINE
  5
66
330
1F
100
AcDbEntity
  8
0
  6
Continuous
 62
     7
370
     0
100
AcDbPolyline
 90
       27
 70
   128
 43
0.0
 10
89.346093336
 20
58.231881673
 10
89.4248672055
 20
58.2422160939
 10
89.5102555043
 20
58.2829346973
 10
89.6144899422
 20
58.3811505229
 10
89.7437208795
 20
58.6156948873
 10
89.8491153104
 20
59.168321576
 10
89.8510130081
 20
59.5418207388
 10
89.8523711971
 20
59.8560881414
 10
89.8129747289
 20
60.4385523349
 10
89.7389198135
 20
60.6966023366
 10
89.6024998796
 20
60.9333394625
 10
89.5294206504
 20
61.0033493458
 10
89.4375424496
 20
61.0537398334
 10
89.3612661646
 20
61.0680849819
 10
89.2838961859
 20
61.0585003548
 10
89.199255688
 20
61.0192102354
 10
89.0958635208
 20
60.9238896769
 10
88.9673008066
 20
60.6964779699
 10
88.858676523
 20
60.1589993935
 10
88.8550156547
 20
59.7766669298
 10
88.8541829432
 20
59.4647540325
 10
88.8838462029
 20
58.9135981797
 10
88.9766299731
 20
58.5807150994
 10
89.0899102326
 20
58.3834954304
 10
89.178476731
 20
58.2954161662
 10
89.2647493947
 20
58.247668826
 10
89.346093336
 20
58.231881673
  0
LINE
  5
67
330
1F
100
AcDbEntity
  8
0
  6
Continuous
 62
     7
370
     0
100
AcDbLine
 10
79.5031349824
 20
35.3
 30
0.0
 11
79.5031349824
 21
35.25
 31
0.0
  0
LINE
  5
68
330
1F
100
AcDbEntity
  8
0
  6
Continuous
 62
     7
370
     0
100
AcDbLine
 10
65.6531349824
 20
57.35
 30
0.0
 11
65.6531349824
 21
37.45
 31
0.0
  0
LINE
  5
69
330
1F
100
AcDbEntity
  8
0
  6
Continuous
 62
     7
370
     0
100
AcDbLine
 10
65.3531349824
 20
57.65
 30
0.0
 11
65.6531349824
 21
57.35
 31
0.0
  0
LINE
  5
6A
330
1F
100
AcDbEntity
  8
0
  6
Continuous
 62
     7
370
     0
100
AcDbLine
 10
65.3531349824
 20
64.15
 30
0.0
 11
65.3531349824
 21
57.65
 31
0.0
  0
LINE
  5
6B
330
1F
100
AcDbEntity
  8
0
  6
Continuous
 62
     7
370
     0
100
AcDbLine
 10
66.3531349824
 20
65.15
 30
0.0
 11
65.3531349824
 21
64.15
 31
0.0
  0
LINE
  5
6C
330
1F
100
AcDbEntity
  8
0
  6
Continuous
 62
     7
370
     0
100
AcDbLine
 10
99.2031349824
 20
35.25
 30
0.0
 11
99.2031349824
 21
35.3
 31
0.0
  0
LINE
  5
6D
330
1F
100
AcDbEntity
  8
0
  6
Continuous
 62
     7
370
     0
100
AcDbLine
 10
113.3531349824
 20
37.75
 30
0.0
 11
113.3531349824
 21
64.15
 31
0.0
  0
LINE
  5
6E
330
1F
100
AcDbEntity
  8
0
  6
Continuous
 62
     7
370
     0
100
AcDbLine
 10
110.8531349824
 20
35.25
 30
0.0
 11
113.3531349824
 21
37.75
 31
0.0
  0
LINE
  5
6F
330
1F
100
AcDbEntity
  8
0
  6
Continuous
 62
     7
370
     0
100
AcDbLine
 10
67.8531349824
 20
35.25
 30
0.0
 11
79.5031349824
 21
35.25
 31
0.0
  0
LINE
  5
70
330
1F
100
AcDbEntity
  8
0
  6
Continuous
 62
     7
370
     0
100
AcDbLine
 10
65.6531349824
 20
37.45
 30
0.0
 11
67.8531349824
 21
35.25
 31
0.0
  0
LINE
  5
71
330
1F
100
AcDbEntity
  8
0
  6
Continuous
 62
     7
370
     0
100
AcDbLine
 10
113.3531349824
 20
64.15
 30
0.0
 11
112.3531349824
 21
65.15
 31
0.0
  0
LINE
  5
72
330
1F
100
AcDbEntity
  8
0
  6
Continuous
 62
     7
370
     0
100
AcDbLine
 10
99.2031349824
 20
35.25
 30
0.0
 11
110.8531349824
 21
35.25
 31
0.0
  0
LINE
  5
73
330
1F
100
AcDbEntity
  8
0
  6
Continuous
 62
     7
370
     0
100
AcDbLine
 10
112.3531349824
 20
65.15
 30
0.0
 11
66.3531349824
 21
65.15
 31
0.0
  0
INSERT
  5
7F
330
1F
100
AcDbEntity
  8
0
  6
Continuous
 62
     7
370
     0
100
AcDbBlockReference
  2
SW_CENTERMARKSYMBOL_0
 10
108.5031349824
 20
53.65
 30
0.0
  0
INSERT
  5
8B
330
1F
100
AcDbEntity
  8
0
  6
Continuous
 62
     7
370
     0
100
AcDbBlockReference
  2
SW_CENTERMARKSYMBOL_1
 10
70.2031349824
 20
53.65
 30
0.0
  0
INSERT
  5
97
330
1F
100
AcDbEntity
  8
0
  6
Continuous
 62
     7
370
     0
100
AcDbBlockReference
  2
SW_CENTERMARKSYMBOL_2
 10
89.3531349824
 20
59.65
 30
0.0
  0
ARC
  5
98
330
1F
100
AcDbEntity
  8
0
  6
Continuous
 62
     7
370
     0
100
AcDbCircle
 10
108.5031349824
 20
53.65
 30
0.0
 40
1.5
100
AcDbArc
 50
255.0
 51
195.0
  0
ARC
  5
99
330
1F
100
AcDbEntity
  8
0
  6
Continuous
 62
     7
370
     0
100
AcDbCircle
 10
70.2031349824
 20
53.65
 30
0.0
 40
1.500000000000011
100
AcDbArc
 50
255.0
 51
195.0
  0
ARC
  5
9A
330
1F
100
AcDbEntity
  8
0
  6
Continuous
 62
     7
370
     0
100
AcDbCircle
 10
89.3531349824
 20
59.65
 30
0.0
 40
3.000000000000004
100
AcDbArc
 50
255.0
 51
195.0
  0
LINE
  5
9B
330
1F
100
AcDbEntity
  8
0
  6
Continuous
 62
     7
370
     0
100
AcDbLine
 10
222.9531349824
 20
37.0207106781
 30
0.0
 11
208.7531349824
 21
37.0207106781
 31
0.0
  0
LINE
  5
9C
330
1F
100
AcDbEntity
  8
0
  6
Continuous
 62
     7
370
     0
100
AcDbLine
 10
222.9531349824
 20
37.0207106781
 30
0.0
 11
222.9531349824
 21
35.3
 31
0.0
  0
LINE
  5
9D
330
1F
100
AcDbEntity
  8
0
  6
Continuous
 62
     7
370
     0
100
AcDbLine
 10
222.9531349824
 20
35.3
 30
0.0
 11
208.7531349824
 21
35.3
 31
0.0
  0
LINE
  5
9E
330
1F
100
AcDbEntity
  8
0
  6
Continuous
 62
     7
370
     0
100
AcDbLine
 10
222.9531349824
 20
63.55
 30
0.0
 11
208.7531349824
 21
63.55
 31
0.0
  0
CIRCLE
  5
9F
330
1F
100
AcDbEntity
  8
0
  6
Continuous
 62
     7
370
     0
100
AcDbCircle
 10
215.9531349824
 20
59.65
 30
0.0
 40
3.100000000000023
  0
LINE
  5
A0
330
1F
100
AcDbEntity
  8
0
  6
Continuous
 62
     7
370
     0
100
AcDbLine
 10
222.9531349824
 20
63.55
 30
0.0
 11
222.9531349824
 21
37.0207106781
 31
0.0
  0
LINE
  5
A1
330
1F
100
AcDbEntity
  8
0
  6
Continuous
 62
     7
370
     0
100
AcDbLine
 10
222.9531349824
 20
64.55
 30
0.0
 11
208.7531349824
 21
64.55
 31
0.0
  0
LINE
  5
A2
330
1F
100
AcDbEntity
  8
0
  6
Continuous
 62
     7
370
     0
100
AcDbLine
 10
222.9531349824
 20
64.55
 30
0.0
 11
222.9531349824
 21
63.55
 31
0.0
  0
CIRCLE
  5
A3
330
1F
100
AcDbEntity
  8
0
  6
Continuous
 62
     7
370
     0
100
AcDbCircle
 10
215.9531349824
 20
59.65
 30
0.0
 40
2.5
  0
LINE
  5
A4
330
1F
100
AcDbEntity
  8
0
  6
Continuous
 62
     7
370
     0
100
AcDbLine
 10
222.9531349824
 20
64.8
 30
0.0
 11
208.7531349824
 21
64.8
 31
0.0
  0
LINE
  5
A5
330
1F
100
AcDbEntity
  8
0
  6
Continuous
 62
     7
370
     0
100
AcDbLine
 10
222.9531349824
 20
64.8
 30
0.0
 11
222.9531349824
 21
64.55
 31
0.0
  0
LINE
  5
A6
330
1F
100
AcDbEntity
  8
0
  6
Continuous
 62
     7
370
     0
100
AcDbLine
 10
136.7531349824
 20
37.0207106781
 30
0.0
 11
150.9531349824
 21
37.0207106781
 31
0.0
  0
LINE
  5
A7
330
1F
100
AcDbEntity
  8
0
  6
Continuous
 62
     7
370
     0
100
AcDbLine
 10
136.7531349824
 20
37.0207106781
 30
0.0
 11
136.7531349824
 21
63.55
 31
0.0
  0
LINE
  5
A8
330
1F
100
AcDbEntity
  8
0
  6
Continuous
 62
     7
370
     0
100
AcDbLine
 10
136.7531349824
 20
63.55
 30
0.0
 11
150.9531349824
 21
63.55
 31
0.0
  0
CIRCLE
  5
A9
330
1F
100
AcDbEntity
  8
0
  6
Continuous
 62
     7
370
     0
100
AcDbCircle
 10
143.7531349824
 20
59.65
 30
0.0
 40
3.100000000000023
  0
LINE
  5
AA
330
1F
100
AcDbEntity
  8
0
  6
Continuous
 62
     7
370
     0
100
AcDbLine
 10
136.7531349824
 20
35.3
 30
0.0
 11
150.9531349824
 21
35.3
 31
0.0
  0
LINE
  5
AB
330
1F
100
AcDbEntity
  8
0
  6
Continuous
 62
     7
370
     0
100
AcDbLine
 10
136.7531349824
 20
35.3
 30
0.0
 11
136.7531349824
 21
37.0207106781
 31
0.0
  0
LINE
  5
AC
330
1F
100
AcDbEntity
  8
0
  6
Continuous
 62
     7
370
     0
100
AcDbLine
 10
136.7531349824
 20
63.55
 30
0.0
 11
136.7531349824
 21
64.55
 31
0.0
  0
LINE
  5
AD
330
1F
100
AcDbEntity
  8
0
  6
Continuous
 62
     7
370
     0
100
AcDbLine
 10
136.7531349824
 20
64.55
 30
0.0
 11
150.9531349824
 21
64.55
 31
0.0
  0
CIRCLE
  5
AE
330
1F
100
AcDbEntity
  8
0
  6
Continuous
 62
     7
370
     0
100
AcDbCircle
 10
143.7531349824
 20
59.65
 30
0.0
 40
2.5
  0
LINE
  5
AF
330
1F
100
AcDbEntity
  8
0
  6
Continuous
 62
     7
370
     0
100
AcDbLine
 10
136.7531349824
 20
64.8
 30
0.0
 11
150.9531349824
 21
64.8
 31
0.0
  0
LINE
  5
B0
330
1F
100
AcDbEntity
  8
0
  6
Continuous
 62
     7
370
     0
100
AcDbLine
 10
136.7531349824
 20
64.55
 30
0.0
 11
136.7531349824
 21
64.8
 31
0.0
  0
LINE
  5
B1
330
1F
100
AcDbEntity
  8
0
  6
Continuous
 62
     7
370
     0
100
AcDbLine
 10
150.9531349824
 20
64.15
 30
0.0
 11
208.7531349824
 21
64.15
 31
0.0
  0
LINE
  5
B2
330
1F
100
AcDbEntity
  8
0
  6
Continuous
 62
     7
370
     0
100
AcDbLine
 10
150.9531349824
 20
64.15
 30
0.0
 11
150.9531349824
 21
65.15
 31
0.0
  0
LINE
  5
B3
330
1F
100
AcDbEntity
  8
0
  6
Continuous
 62
     7
370
     0
100
AcDbLine
 10
150.9531349824
 20
65.15
 30
0.0
 11
208.7531349824
 21
65.15
 31
0.0
  0
LINE
  5
B4
330
1F
100
AcDbEntity
  8
0
  6
Continuous
 62
     7
370
     0
100
AcDbLine
 10
208.7531349824
 20
64.15
 30
0.0
 11
208.7531349824
 21
65.15
 31
0.0
  0
LINE
  5
B5
330
1F
100
AcDbEntity
  8
0
  6
Continuous
 62
     7
370
     0
100
AcDbLine
 10
150.9531349824
 20
35.25
 30
0.0
 11
208.7531349824
 21
35.25
 31
0.0
  0
LINE
  5
B6
330
1F
100
AcDbEntity
  8
0
  6
Continuous
 62
     7
370
     0
100
AcDbLine
 10
150.9531349824
 20
35.25
 30
0.0
 11
150.9531349824
 21
37.75
 31
0.0
  0
LINE
  5
B7
330
1F
100
AcDbEntity
  8
0
  6
Continuous
 62
     7
370
     0
100
AcDbLine
 10
150.9531349824
 20
37.75
 30
0.0
 11
208.7531349824
 21
37.75
 31
0.0
  0
LINE
  5
B8
330
1F
100
AcDbEntity
  8
0
  6
Continuous
 62
     7
370
     0
100
AcDbLine
 10
208.7531349824
 20
35.25
 30
0.0
 11
208.7531349824
 21
37.75
 31
0.0
  0
LINE
  5
B9
330
1F
100
AcDbEntity
  8
0
  6
Continuous
 62
     7
370
     0
100
AcDbLine
 10
150.9531349824
 20
37.75
 30
0.0
 11
150.9531349824
 21
64.15
 31
0.0
  0
LINE
  5
BA
330
1F
100
AcDbEntity
  8
0
  6
Continuous
 62
     7
370
     0
100
AcDbLine
 10
208.7531349824
 20
37.75
 30
0.0
 11
208.7531349824
 21
64.15
 31
0.0
  0
INSERT
  5
C6
330
1F
100
AcDbEntity
  8
0
  6
Continuous
 62
     7
370
     0
100
AcDbBlockReference
  2
SW_CENTERMARKSYMBOL_3
 10
143.7531349824
 20
59.65
 30
0.0
  0
INSERT
  5
D2
330
1F
100
AcDbEntity
  8
0
  6
Continuous
 62
     7
370
     0
100
AcDbBlockReference
  2
SW_CENTERMARKSYMBOL_4
 10
215.9531349824
 20
59.65
 30
0.0
  0
ARC
  5
D3
330
1F
100
AcDbEntity
  8
0
  6
Continuous
 62
     7
370
     0
100
AcDbCircle
 10
215.9531349824
 20
59.65
 30
0.0
 40
2.999999999999994
100
AcDbArc
 50
255.0
 51
195.0
  0
ARC
  5
D4
330
1F
100
AcDbEntity
  8
0
  6
Continuous
 62
     7
370
     0
100
AcDbCircle
 10
143.7531349824
 20
59.65
 30
0.0
 40
2.999999999999994
100
AcDbArc
 50
255.0
 51
195.0
  0
LINE
  5
D5
330
1F
100
AcDbEntity
  8
0
  6
Continuous
 62
     7
370
     0
100
AcDbLine
 10
95.5031349824
 20
174.75
 30
0.0
 11
95.5031349824
 21
160.55
 31
0.0
  0
LINE
  5
D6
330
1F
100
AcDbEntity
  8
0
  6
Continuous
 62
     7
370
     0
100
AcDbLine
 10
95.5031349824
 20
174.75
 30
0.0
 11
95.7531349824
 21
174.75
 31
0.0
  0
LINE
  5
D7
330
1F
100
AcDbEntity
  8
0
  6
Continuous
 62
     7
370
     0
100
AcDbLine
 10
95.7531349824
 20
174.75
 30
0.0
 11
95.7531349824
 21
160.55
 31
0.0
  0
LINE
  5
D8
330
1F
100
AcDbEntity
  8
0
  6
Continuous
 62
     7
370
     0
100
AcDbLine
 10
83.2031349824
 20
174.75
 30
0.0
 11
83.2031349824
 21
160.55
 31
0.0
  0
CIRCLE
  5
D9
330
1F
100
AcDbEntity
  8
0
  6
Continuous
 62
     7
370
     0
100
AcDbCircle
 10
89.3531349824
 20
166.6
 30
0.0
 40
3.599999999999994
  0
LINE
  5
DA
330
1F
100
AcDbEntity
  8
0
  6
Continuous
 62
     7
370
     0
100
AcDbLine
 10
83.2031349824
 20
174.75
 30
0.0
 11
95.5031349824
 21
174.75
 31
0.0
  0
LINE
  5
DB
330
1F
100
AcDbEntity
  8
0
  6
Continuous
 62
     7
370
     0
100
AcDbLine
 10
82.9531349824
 20
174.75
 30
0.0
 11
82.9531349824
 21
160.55
 31
0.0
  0
LINE
  5
DC
330
1F
100
AcDbEntity
  8
0
  6
Continuous
 62
     7
370
     0
100
AcDbLine
 10
82.9531349824
 20
174.75
 30
0.0
 11
83.2031349824
 21
174.75
 31
0.0
  0
LINE
  5
DD
330
1F
100
AcDbEntity
  8
0
  6
Continuous
 62
     7
370
     0
100
AcDbLine
 10
111.5531349824
 20
174.75
 30
0.0
 11
111.5531349824
 21
160.55
 31
0.0
  0
LINE
  5
DE
330
1F
100
AcDbEntity
  8
0
  6
Continuous
 62
     7
370
     0
100
AcDbLine
 10
95.7531349824
 20
174.75
 30
0.0
 11
111.5531349824
 21
174.75
 31
0.0
  0
LINE
  5
DF
330
1F
100
AcDbEntity
  8
0
  6
Continuous
 62
     7
370
     0
100
AcDbLine
 10
112.5531349824
 20
174.75
 30
0.0
 11
112.5531349824
 21
160.55
 31
0.0
  0
LINE
  5
E0
330
1F
100
AcDbEntity
  8
0
  6
Continuous
 62
     7
370
     0
100
AcDbLine
 10
111.5531349824
 20
174.75
 30
0.0
 11
112.5531349824
 21
174.75
 31
0.0
  0
LINE
  5
E1
330
1F
100
AcDbEntity
  8
0
  6
Continuous
 62
     7
370
     0
100
AcDbLine
 10
67.1531349824
 20
174.75
 30
0.0
 11
67.1531349824
 21
160.55
 31
0.0
  0
LINE
  5
E2
330
1F
100
AcDbEntity
  8
0
  6
Continuous
 62
     7
370
     0
100
AcDbLine
 10
67.1531349824
 20
174.75
 30
0.0
 11
82.9531349824
 21
174.75
 31
0.0
  0
LINE
  5
E3
330
1F
100
AcDbEntity
  8
0
  6
Continuous
 62
     7
370
     0
100
AcDbLine
 10
66.1531349824
 20
174.75
 30
0.0
 11
66.1531349824
 21
160.55
 31
0.0
  0
LINE
  5
E4
330
1F
100
AcDbEntity
  8
0
  6
Continuous
 62
     7
370
     0
100
AcDbLine
 10
66.1531349824
 20
174.75
 30
0.0
 11
67.1531349824
 21
174.75
 31
0.0
  0
CIRCLE
  5
E5
330
1F
100
AcDbEntity
  8
0
  6
Continuous
 62
     7
370
     0
100
AcDbCircle
 10
89.3531349824
 20
165.4
 30
0.0
 40
0.5
  0
LINE
  5
E6
330
1F
100
AcDbEntity
  8
0
  6
Continuous
 62
     7
370
     0
100
AcDbLine
 10
95.5031349824
 20
88.55
 30
0.0
 11
95.5031349824
 21
102.75
 31
0.0
  0
LINE
  5
E7
330
1F
100
AcDbEntity
  8
0
  6
Continuous
 62
     7
370
     0
100
AcDbLine
 10
95.5031349824
 20
88.55
 30
0.0
 11
83.2031349824
 21
88.55
 31
0.0
  0
LINE
  5
E8
330
1F
100
AcDbEntity
  8
0
  6
Continuous
 62
     7
370
     0
100
AcDbLine
 10
83.2031349824
 20
88.55
 30
0.0
 11
83.2031349824
 21
102.75
 31
0.0
  0
CIRCLE
  5
E9
330
1F
100
AcDbEntity
  8
0
  6
Continuous
 62
     7
370
     0
100
AcDbCircle
 10
89.3531349824
 20
96.7
 30
0.0
 40
3.599999999999994
  0
LINE
  5
EA
330
1F
100
AcDbEntity
  8
0
  6
Continuous
 62
     7
370
     0
100
AcDbLine
 10
95.7531349824
 20
88.55
 30
0.0
 11
95.7531349824
 21
102.75
 31
0.0
  0
LINE
  5
EB
330
1F
100
AcDbEntity
  8
0
  6
Continuous
 62
     7
370
     0
100
AcDbLine
 10
95.7531349824
 20
88.55
 30
0.0
 11
95.5031349824
 21
88.55
 31
0.0
  0
LINE
  5
EC
330
1F
100
AcDbEntity
  8
0
  6
Continuous
 62
     7
370
     0
100
AcDbLine
 10
83.2031349824
 20
88.55
 30
0.0
 11
82.9531349824
 21
88.55
 31
0.0
  0
LINE
  5
ED
330
1F
100
AcDbEntity
  8
0
  6
Continuous
 62
     7
370
     0
100
AcDbLine
 10
82.9531349824
 20
88.55
 30
0.0
 11
82.9531349824
 21
102.75
 31
0.0
  0
LINE
  5
EE
330
1F
100
AcDbEntity
  8
0
  6
Continuous
 62
     7
370
     0
100
AcDbLine
 10
111.5531349824
 20
88.55
 30
0.0
 11
111.5531349824
 21
102.75
 31
0.0
  0
LINE
  5
EF
330
1F
100
AcDbEntity
  8
0
  6
Continuous
 62
     7
370
     0
100
AcDbLine
 10
111.5531349824
 20
88.55
 30
0.0
 11
95.7531349824
 21
88.55
 31
0.0
  0
LINE
  5
F0
330
1F
100
AcDbEntity
  8
0
  6
Continuous
 62
     7
370
     0
100
AcDbLine
 10
112.5531349824
 20
88.55
 30
0.0
 11
112.5531349824
 21
102.75
 31
0.0
  0
LINE
  5
F1
330
1F
100
AcDbEntity
  8
0
  6
Continuous
 62
     7
370
     0
100
AcDbLine
 10
112.5531349824
 20
88.55
 30
0.0
 11
111.5531349824
 21
88.55
 31
0.0
  0
LINE
  5
F2
330
1F
100
AcDbEntity
  8
0
  6
Continuous
 62
     7
370
     0
100
AcDbLine
 10
67.1531349824
 20
88.55
 30
0.0
 11
67.1531349824
 21
102.75
 31
0.0
  0
LINE
  5
F3
330
1F
100
AcDbEntity
  8
0
  6
Continuous
 62
     7
370
     0
100
AcDbLine
 10
82.9531349824
 20
88.55
 30
0.0
 11
67.1531349824
 21
88.55
 31
0.0
  0
LINE
  5
F4
330
1F
100
AcDbEntity
  8
0
  6
Continuous
 62
     7
370
     0
100
AcDbLine
 10
66.1531349824
 20
88.55
 30
0.0
 11
66.1531349824
 21
102.75
 31
0.0
  0
LINE
  5
F5
330
1F
100
AcDbEntity
  8
0
  6
Continuous
 62
     7
370
     0
100
AcDbLine
 10
67.1531349824
 20
88.55
 30
0.0
 11
66.1531349824
 21
88.55
 31
0.0
  0
CIRCLE
  5
F6
330
1F
100
AcDbEntity
  8
0
  6
Continuous
 62
     7
370
     0
100
AcDbCircle
 10
89.3531349824
 20
97.7
 30
0.0
 40
0.5
  0
LINE
  5
F7
330
1F
100
AcDbEntity
  8
0
  6
Continuous
 62
     7
370
     0
100
AcDbLine
 10
66.3531349824
 20
102.75
 30
0.0
 11
66.3531349824
 21
160.55
 31
0.0
  0
LINE
  5
F8
330
1F
100
AcDbEntity
  8
0
  6
Continuous
 62
     7
370
     0
100
AcDbLine
 10
66.3531349824
 20
102.75
 30
0.0
 11
65.3531349824
 21
102.75
 31
0.0
  0
LINE
  5
F9
330
1F
100
AcDbEntity
  8
0
  6
Continuous
 62
     7
370
     0
100
AcDbLine
 10
65.3531349824
 20
102.75
 30
0.0
 11
65.3531349824
 21
160.55
 31
0.0
  0
LINE
  5
FA
330
1F
100
AcDbEntity
  8
0
  6
Continuous
 62
     7
370
     0
100
AcDbLine
 10
66.3531349824
 20
160.55
 30
0.0
 11
65.3531349824
 21
160.55
 31
0.0
  0
LINE
  5
FB
330
1F
100
AcDbEntity
  8
0
  6
Continuous
 62
     7
370
     0
100
AcDbLine
 10
112.3531349824
 20
102.75
 30
0.0
 11
112.3531349824
 21
160.55
 31
0.0
  0
LINE
  5
FC
330
1F
100
AcDbEntity
  8
0
  6
Continuous
 62
     7
370
     0
100
AcDbLine
 10
112.3531349824
 20
102.75
 30
0.0
 11
66.3531349824
 21
102.75
 31
0.0
  0
CIRCLE
  5
FD
330
1F
100
AcDbEntity
  8
0
  6
Continuous
 62
     7
370
     0
100
AcDbCircle
 10
71.8531349824
 20
149.15
 30
0.0
 40
3.000000000000142
  0
CIRCLE
  5
FE
330
1F
100
AcDbEntity
  8
0
  6
Continuous
 62
     7
370
     0
100
AcDbCircle
 10
106.8531349824
 20
149.15
 30
0.0
 40
2.999999999999844
  0
CIRCLE
  5
FF
330
1F
100
AcDbEntity
  8
0
  6
Continuous
 62
     7
370
     0
100
AcDbCircle
 10
106.8531349824
 20
114.15
 30
0.0
 40
2.999999999999829
  0
CIRCLE
  5
100
330
1F
100
AcDbEntity
  8
0
  6
Continuous
 62
     7
370
     0
100
AcDbCircle
 10
71.8531349824
 20
114.15
 30
0.0
 40
3.000000000000142
  0
LINE
  5
101
330
1F
100
AcDbEntity
  8
0
  6
Continuous
 62
     7
370
     0
100
AcDbLine
 10
112.3531349824
 20
160.55
 30
0.0
 11
66.3531349824
 21
160.55
 31
0.0
  0
CIRCLE
  5
102
330
1F
100
AcDbEntity
  8
0
  6
Continuous
 62
     7
370
     0
100
AcDbCircle
 10
71.8531349824
 20
149.15
 30
0.0
 40
2.5
  0
CIRCLE
  5
103
330
1F
100
AcDbEntity
  8
0
  6
Continuous
 62
     7
370
     0
100
AcDbCircle
 10
71.8531349824
 20
114.15
 30
0.0
 40
2.5
  0
LINE
  5
104
330
1F
100
AcDbEntity
  8
0
  6
Continuous
 62
     7
370
     0
100
AcDbLine
 10
113.3531349824
 20
102.75
 30
0.0
 11
113.3531349824
 21
160.55
 31
0.0
  0
LINE
  5
105
330
1F
100
AcDbEntity
  8
0
  6
Continuous
 62
     7
370
     0
100
AcDbLine
 10
113.3531349824
 20
102.75
 30
0.0
 11
112.3531349824
 21
102.75
 31
0.0
  0
LINE
  5
106
330
1F
100
AcDbEntity
  8
0
  6
Continuous
 62
     7
370
     0
100
AcDbLine
 10
113.3531349824
 20
160.55
 30
0.0
 11
112.3531349824
 21
160.55
 31
0.0
  0
CIRCLE
  5
107
330
1F
100
AcDbEntity
  8
0
  6
Continuous
 62
     7
370
     0
100
AcDbCircle
 10
106.8531349824
 20
149.15
 30
0.0
 40
2.5
  0
CIRCLE
  5
108
330
1F
100
AcDbEntity
  8
0
  6
Continuous
 62
     7
370
     0
100
AcDbCircle
 10
106.8531349824
 20
114.15
 30
0.0
 40
2.5
  0
INSERT
  5
114
330
1F
100
AcDbEntity
  8
0
  6
Continuous
 62
     7
370
     0
100
AcDbBlockReference
  2
SW_CENTERMARKSYMBOL_5
 10
89.3531349824
 20
96.7
 30
0.0
  0
INSERT
  5
120
330
1F
100
AcDbEntity
  8
0
  6
Continuous
 62
     7
370
     0
100
AcDbBlockReference
  2
SW_CENTERMARKSYMBOL_6
 10
89.3531349824
 20
97.7
 30
0.0
  0
INSERT
  5
12C
330
1F
100
AcDbEntity
  8
0
  6
Continuous
 62
     7
370
     0
100
AcDbBlockReference
  2
SW_CENTERMARKSYMBOL_7
 10
106.8531349824
 20
114.15
 30
0.0
  0
INSERT
  5
138
330
1F
100
AcDbEntity
  8
0
  6
Continuous
 62
     7
370
     0
100
AcDbBlockReference
  2
SW_CENTERMARKSYMBOL_8
 10
71.8531349824
 20
114.15
 30
0.0
  0
INSERT
  5
144
330
1F
100
AcDbEntity
  8
0
  6
Continuous
 62
     7
370
     0
100
AcDbBlockReference
  2
SW_CENTERMARKSYMBOL_9
 10
106.8531349824
 20
149.15
 30
0.0
  0
INSERT
  5
150
330
1F
100
AcDbEntity
  8
0
  6
Continuous
 62
     7
370
     0
100
AcDbBlockReference
  2
SW_CENTERMARKSYMBOL_10
 10
71.8531349824
 20
149.15
 30
0.0
  0
INSERT
  5
15C
330
1F
100
AcDbEntity
  8
0
  6
Continuous
 62
     7
370
     0
100
AcDbBlockReference
  2
SW_CENTERMARKSYMBOL_11
 10
89.3531349824
 20
166.6
 30
0.0
  0
INSERT
  5
168
330
1F
100
AcDbEntity
  8
0
  6
Continuous
 62
     7
370
     0
100
AcDbBlockReference
  2
SW_CENTERMARKSYMBOL_12
 10
89.3531349824
 20
165.4
 30
0.0
  0
ARC
  5
169
330
1F
100
AcDbEntity
  8
0
  6
Continuous
 62
     7
370
     0
100
AcDbCircle
 10
106.8531349824
 20
114.15
 30
0.0
 40
3.000000000000001
100
AcDbArc
 50
255.0
 51
195.0
  0
ARC
  5
16A
330
1F
100
AcDbEntity
  8
0
  6
Continuous
 62
     7
370
     0
100
AcDbCircle
 10
71.8531349824
 20
114.15
 30
0.0
 40
2.999999999999987
100
AcDbArc
 50
255.0
 51
195.0
  0
ARC
  5
16B
330
1F
100
AcDbEntity
  8
0
  6
Continuous
 62
     7
370
     0
100
AcDbCircle
 10
106.8531349824
 20
149.15
 30
0.0
 40
3.000000000000022
100
AcDbArc
 50
255.0
 51
195.0
  0
ARC
  5
16C
330
1F
100
AcDbEntity
  8
0
  6
Continuous
 62
     7
370
     0
100
AcDbCircle
 10
71.8531349824
 20
149.15
 30
0.0
 40
3.000000000000022
100
AcDbArc
 50
255.0
 51
195.0
  0
LINE
  5
16D
330
1F
100
AcDbEntity
  8
0
  6
Continuous
 62
     7
370
     0
100
AcDbLine
 10
198.4785723605
 20
166.5703708414
 30
0.0
 11
189.0690889044
 21
161.1383916651
 31
0.0
  0
LINE
  5
16E
330
1F
100
AcDbEntity
  8
0
  6
Continuous
 62
     7
370
     0
100
AcDbLine
 10
160.6886995136
 20
106.9535754504
 30
0.0
 11
159.7819971296
 21
106.4301473057
 31
0.0
  0
LINE
  5
16F
330
1F
100
AcDbEntity
  8
0
  6
Continuous
 62
     7
370
     0
100
AcDbLine
 10
147.566884115
 20
137.1796788158
 30
0.0
 11
137.5259678222
 21
131.3831812219
 31
0.0
  0
LINE
  5
170
330
1F
100
AcDbEntity
  8
0
  6
Continuous
 62
     7
370
     0
100
AcDbLine
 10
147.66539815
 20
104.1448400203
 30
0.0
 11
157.7063144429
 21
109.9413376142
 31
0.0
  0
LINE
  5
171
330
1F
100
AcDbEntity
  8
0
  6
Continuous
 62
     7
370
     0
100
AcDbLine
 10
157.7063144429
 20
109.9413376142
 30
0.0
 11
158.7210778888
 21
110.5271480822
 31
0.0
  0
ARC
  5
172
330
1F
100
AcDbEntity
  8
0
  6
Continuous
 62
     7
370
     0
100
AcDbCircle
 10
229.5459634913
 20
147.1019969884
 30
0.0
 40
1.536804807572117
100
AcDbArc
 50
2.6054784857
 51
57.39452166
  0
LINE
  5
173
330
1F
100
AcDbEntity
  8
0
  6
Continuous
 62
     7
370
     0
100
AcDbLine
 10
231.0811795927
 20
147.1718578407
 30
0.0
 11
231.0811795927
 21
125.509610399
 31
0.0
  0
LINE
  5
174
330
1F
100
AcDbEntity
  8
0
  6
Continuous
 62
     7
370
     0
100
AcDbLine
 10
231.0811795927
 20
125.509610399
 30
0.0
 11
221.6059487248
 21
120.0396760498
 31
0.0
  0
LWPOLYLINE
  5
175
330
1F
100
AcDbEntity
  8
0
  6
Continuous
 62
     7
370
     0
100
AcDbPolyline
 90
       35
 70
   128
 43
0.0
 10
226.1314321244
 20
138.5986437661
 10
225.7286474811
 20
138.4092209338
 10
225.3395791858
 20
138.3124482548
 10
224.9774764925
 20
138.3116212065
 10
224.6546703743
 20
138.406767953
 10
224.3821536063
 20
138.5946483861
 10
224.1692064202
 20
138.868864463
 10
224.0230804771
 20
139.2200780839
 10
223.9487519206
 20
139.6363290903
 10
223.9487519206
 20
140.1034425534
 10
224.0230804771
 20
140.6055114845
 10
224.1692064202
 20
141.1254385282
 10
224.3821536063
 20
141.6455181928
 10
224.6546703743
 20
142.1480397888
 10
224.9774764925
 20
142.6158905463
 10
225.3395791858
 20
143.0331383686
 10
225.7286474811
 20
143.3855743817
 10
226.1314321244
 20
143.6611967998
 10
226.5342167676
 20
143.850619632
 10
226.923285063
 20
143.9473923111
 10
227.2853877562
 20
143.9482193594
 10
227.6081938744
 20
143.8530726128
 10
227.8807106424
 20
143.6651921797
 10
228.0936578285
 20
143.3909761029
 10
228.2397837716
 20
143.039762482
 10
228.3141123281
 20
142.6235114755
 10
228.3141123281
 20
142.1563980124
 10
228.2397837716
 20
141.6543290814
 10
228.0936578285
 20
141.1344020376
 10
227.8807106424
 20
140.6143223731
 10
227.6081938744
 20
140.111800777
 10
227.2853877562
 20
139.6439500196
 10
226.923285063
 20
139.2267021973
 10
226.5342167676
 20
138.8742661842
 10
226.1314321244
 20
138.5986437661
  0
LINE
  5
176
330
1F
100
AcDbEntity
  8
0
  6
Continuous
 62
     7
370
     0
100
AcDbLine
 10
219.2017856687
 20
154.8462267919
 30
0.0
 11
209.585202405
 21
149.2946914415
 31
0.0
  0
LINE
  5
177
330
1F
100
AcDbEntity
  8
0
  6
Continuous
 62
     7
370
     0
100
AcDbLine
 10
219.2017856687
 20
154.8462267919
 30
0.0
 11
230.3740728115
 21
148.3966027085
 31
0.0
  0
LWPOLYLINE
  5
178
330
1F
100
AcDbEntity
  8
0
  6
Continuous
 62
     7
370
     0
100
AcDbPolyline
 90
       23
 70
   128
 43
0.0
 10
223.9508275811
 20
140.129203529
 10
223.9780310519
 20
139.9522122197
 10
224.0922325856
 20
139.6122676419
 10
224.2770145486
 20
139.3493560527
 10
224.5243010825
 20
139.17496795
 10
224.8232845792
 20
139.0967249308
 10
225.1608980251
 20
139.1180465904
 10
225.5223860926
 20
139.2380010701
 10
225.8919500187
 20
139.4513457834
 10
226.2534380862
 20
139.7487565427
 10
226.5910515321
 20
140.1172350706
 10
226.8900350288
 20
140.5406770872
 10
227.1373215627
 20
141.0005761447
 10
227.3221035257
 20
141.4768324472
 10
227.4363050594
 20
141.9486313092
 10
227.4749350086
 20
142.3953528562
 10
227.4363050594
 20
142.7974732133
 10
227.3221035257
 20
143.137417791
 10
227.1373215627
 20
143.4003293803
 10
226.8900350288
 20
143.574717483
 10
226.5910515321
 20
143.6529605022
 10
226.2534380862
 20
143.6316388425
 10
225.9075518224
 20
143.518716592
  0
LINE
  5
179
330
1F
100
AcDbEntity
  8
0
  6
Continuous
 62
     7
370
     0
100
AcDbLine
 10
219.0250089734
 20
155.1524130088
 30
0.0
 11
209.2316202809
 21
149.4988100569
 31
0.0
  0
LINE
  5
17A
330
1F
100
AcDbEntity
  8
0
  6
Continuous
 62
     7
370
     0
100
AcDbLine
 10
219.0250089734
 20
155.1524130088
 30
0.0
 11
219.2017856687
 21
154.8462267919
 31
0.0
  0
LINE
  5
17B
330
1F
100
AcDbEntity
  8
0
  6
Continuous
 62
     7
370
     0
100
AcDbLine
 10
210.3275955648
 20
160.1733228965
 30
0.0
 11
200.5342068723
 21
154.5197199446
 31
0.0
  0
LWPOLYLINE
  5
17C
330
1F
100
AcDbEntity
  8
0
  6
Continuous
 62
     7
370
     0
100
AcDbPolyline
 90
       38
 70
   128
 43
0.0
 10
206.3677975902
 20
155.8055394983
 10
205.9742076507
 20
155.5360490277
 10
205.665172406
 20
155.2320354724
 10
205.4495822374
 20
154.9022447489
 10
205.3336392815
 20
154.5561643357
 10
205.3206790061
 20
154.2037503364
 10
205.4110742546
 20
153.85514106
 10
205.6022245204
 20
153.5203653606
 10
205.8886307584
 20
153.2090541257
 10
206.2620535825
 20
152.9301632127
 10
206.711750298
 20
152.6917158052
 10
207.2247839491
 20
152.5005716013
 10
207.7863954918
 20
152.3622294714
 10
208.3804283845
 20
152.2806692669
 10
208.9897933825
 20
152.2582373264
 10
209.5969601641
 20
152.2955789758
 10
210.1844616467
 20
152.3916199641
 10
210.7353964821
 20
152.5435973667
 10
211.2339152783
 20
152.7471390705
 10
211.6656765571
 20
152.9963895513
 10
212.0182593327
 20
153.2841783266
 10
212.2815204405
 20
153.6022262373
 10
212.4478863379
 20
153.941383624
 10
212.5125709807
 20
154.2918935462
 10
212.4737135097
 20
154.6436724717
 10
212.3324317834
 20
154.9866003613
 10
212.0927902201
 20
155.3108118038
 10
211.761682871
 20
155.6069798265
 10
211.3486350919
 20
155.8665842145
 10
210.8655295152
 20
156.0821566223
 10
210.3262642088
 20
156.2474954241
 10
209.7463528538
 20
156.3578441238
 10
209.142478444
 20
156.41002819
 10
208.5320133467
 20
156.4025463822
 10
207.9325195312
 20
156.3356139385
 10
207.3612433432
 20
156.2111563833
 10
206.8346193585
 20
156.0327541339
 10
206.3677975902
 20
155.8055394983
  0
LINE
  5
17D
330
1F
100
AcDbEntity
  8
0
  6
Continuous
 62
     7
370
     0
100
AcDbLine
 10
210.3275955648
 20
160.1733228965
 30
0.0
 11
219.0250089734
 21
155.1524130088
 31
0.0
  0
ARC
  5
17E
330
1F
100
AcDbEntity
  8
0
  6
Continuous
 62
     7
370
     0
100
AcDbCircle
 10
207.1214331784
 20
153.8072453006
 30
0.0
 40
1.833704859210083
100
AcDbArc
 50
114.2670823302
 51
168.5041616088
  0
LWPOLYLINE
  5
17F
330
1F
100
AcDbEntity
  8
0
  6
Continuous
 62
     7
370
     0
100
AcDbPolyline
 90
       15
 70
   128
 43
0.0
 10
212.5022500679
 20
154.1726967346
 10
212.4737135097
 20
154.317056147
 10
212.3324317834
 20
154.6599840365
 10
212.0927902201
 20
154.9841954791
 10
211.761682871
 20
155.2803635018
 10
211.3486350919
 20
155.5399678898
 10
210.8655295152
 20
155.7555402976
 10
210.3262642088
 20
155.9208790994
 10
209.7463528538
 20
156.031227799
 10
209.142478444
 20
156.0834118652
 10
208.5320133467
 20
156.0759300575
 10
207.9325195312
 20
156.0089976137
 10
207.3612433432
 20
155.8845400585
 10
206.8346193585
 20
155.7061378092
 10
206.3677975902
 20
155.4789231735
  0
LWPOLYLINE
  5
180
330
1F
100
AcDbEntity
  8
0
  6
Continuous
 62
     7
370
     0
100
AcDbPolyline
 90
       17
 70
   128
 43
0.0
 10
207.7113004745
 20
153.7236457331
 10
207.6029140988
 20
153.6300029267
 10
207.564853865
 20
153.5195437051
 10
207.6029140988
 20
153.4090844836
 10
207.7113004745
 20
153.3154416772
 10
207.8735121489
 20
153.2528715543
 10
208.064853865
 20
153.2308998491
 10
208.2561955812
 20
153.2528715543
 10
208.4184072556
 20
153.3154416772
 10
208.5267936313
 20
153.4090844836
 10
208.564853865
 20
153.5195437051
 10
208.5267936313
 20
153.6300029267
 10
208.4184072556
 20
153.7236457331
 10
208.2561955812
 20
153.7862158559
 10
208.064853865
 20
153.8081875612
 10
207.8735121489
 20
153.7862158559
 10
207.7113004745
 20
153.7236457331
  0
LINE
  5
181
330
1F
100
AcDbEntity
  8
0
  6
Continuous
 62
     7
370
     0
100
AcDbLine
 10
229.8644534037
 20
124.8069809827
 30
0.0
 11
221.6059487248
 21
120.0394477114
 31
0.0
  0
LINE
  5
182
330
1F
100
AcDbEntity
  8
0
  6
Continuous
 62
     7
370
     0
100
AcDbLine
 10
231.0811795927
 20
125.509610399
 30
0.0
 11
229.8644534037
 21
124.8069809827
 31
0.0
  0
LINE
  5
183
330
1F
100
AcDbEntity
  8
0
  6
Continuous
 62
     7
370
     0
100
AcDbLine
 10
198.9785317268
 20
166.5208627909
 30
0.0
 11
210.150790136
 21
160.071255295
 31
0.0
  0
ARC
  5
184
330
1F
100
AcDbEntity
  8
0
  6
Continuous
 62
     7
370
     0
100
AcDbCircle
 10
198.6856116719
 20
166.1119814618
 30
0.0
 40
0.5029772359018528
100
AcDbArc
 50
54.3824225248
 51
114.3071190461
  0
LINE
  5
185
330
1F
100
AcDbEntity
  8
0
  6
Continuous
 62
     7
370
     0
100
AcDbLine
 10
159.3074080978
 20
98.4505951517
 30
0.0
 11
158.602734521
 21
99.3272030502
 31
0.0
  0
LINE
  5
186
330
1F
100
AcDbEntity
  8
0
  6
Continuous
 62
     7
370
     0
100
AcDbLine
 10
158.602734521
 20
99.3272030502
 30
0.0
 11
158.602734521
 21
105.6145673018
 31
0.0
  0
LINE
  5
187
330
1F
100
AcDbEntity
  8
0
  6
Continuous
 62
     7
370
     0
100
AcDbLine
 10
158.602734521
 20
105.6145673018
 30
0.0
 11
159.3074081319
 21
105.677576347
 31
0.0
  0
ARC
  5
188
330
1F
100
AcDbEntity
  8
0
  6
Continuous
 62
     7
370
     0
100
AcDbCircle
 10
160.2735083934
 20
105.580827735
 30
0.0
 40
0.970932546119145
100
AcDbArc
 50
64.6833244075
 51
174.2812693477
  0
LINE
  5
189
330
1F
100
AcDbEntity
  8
0
  6
Continuous
 62
     7
370
     0
100
AcDbLine
 10
160.6886995136
 20
106.4585101051
 30
0.0
 11
160.6886995136
 21
107.533633963
 31
0.0
  0
LINE
  5
18A
330
1F
100
AcDbEntity
  8
0
  6
Continuous
 62
     7
370
     0
100
AcDbLine
 10
160.6886995136
 20
107.533633963
 30
0.0
 11
160.4553182253
 21
107.9378622106
 31
0.0
  0
LINE
  5
18B
330
1F
100
AcDbEntity
  8
0
  6
Continuous
 62
     7
370
     0
100
AcDbLine
 10
160.4553182253
 20
107.9378622106
 30
0.0
 11
160.8238255101
 21
109.3132577188
 31
0.0
  0
LINE
  5
18C
330
1F
100
AcDbEntity
  8
0
  6
Continuous
 62
     7
370
     0
100
AcDbLine
 10
160.8238255101
 20
109.3132577188
 30
0.0
 11
146.6235706587
 21
117.510890353
 31
0.0
  0
LINE
  5
18D
330
1F
100
AcDbEntity
  8
0
  6
Continuous
 62
     7
370
     0
100
AcDbLine
 10
146.6235706587
 20
117.510890353
 30
0.0
 11
146.9920772364
 21
115.7100257984
 31
0.0
  0
LINE
  5
18E
330
1F
100
AcDbEntity
  8
0
  6
Continuous
 62
     7
370
     0
100
AcDbLine
 10
146.9920772364
 20
115.7100257984
 30
0.0
 11
146.7586959362
 21
115.5752538437
 31
0.0
  0
LINE
  5
18F
330
1F
100
AcDbEntity
  8
0
  6
Continuous
 62
     7
370
     0
100
AcDbLine
 10
146.7586959362
 20
115.5752538437
 30
0.0
 11
146.7586959362
 21
114.500130071
 31
0.0
  0
ARC
  5
190
330
1F
100
AcDbEntity
  8
0
  6
Continuous
 62
     7
370
     0
100
AcDbCircle
 10
144.2378077904
 20
111.4450254155
 30
0.0
 40
3.960876355018201
100
AcDbArc
 50
9.8761575017
 51
50.4726063339
  0
LINE
  5
191
330
1F
100
AcDbEntity
  8
0
  6
Continuous
 62
     7
370
     0
100
AcDbLine
 10
148.13998707
 20
112.1243915681
 30
0.0
 11
148.8446614039
 21
111.2477835465
 31
0.0
  0
LINE
  5
192
330
1F
100
AcDbEntity
  8
0
  6
Continuous
 62
     7
370
     0
100
AcDbLine
 10
148.8446614039
 20
111.2477835465
 30
0.0
 11
148.8446614039
 21
104.960419295
 31
0.0
  0
LINE
  5
193
330
1F
100
AcDbEntity
  8
0
  6
Continuous
 62
     7
370
     0
100
AcDbLine
 10
148.8446614039
 20
104.960419295
 30
0.0
 11
148.13998707
 21
104.8974109412
 31
0.0
  0
ARC
  5
194
330
1F
100
AcDbEntity
  8
0
  6
Continuous
 62
     7
370
     0
100
AcDbCircle
 10
147.1738869848
 20
104.9941594318
 30
0.0
 40
0.9709323586736092
100
AcDbArc
 50
244.6833238463
 51
354.2812754438
  0
LINE
  5
195
330
1F
100
AcDbEntity
  8
0
  6
Continuous
 62
     7
370
     0
100
AcDbLine
 10
146.7586959362
 20
104.1164772351
 30
0.0
 11
146.7586959362
 21
102.4085343332
 31
0.0
  0
LINE
  5
196
330
1F
100
AcDbEntity
  8
0
  6
Continuous
 62
     7
370
     0
100
AcDbLine
 10
138.5355465963
 20
107.1556574018
 30
0.0
 11
146.7586959362
 21
102.4085343332
 31
0.0
  0
LINE
  5
197
330
1F
100
AcDbEntity
  8
0
  6
Continuous
 62
     7
370
     0
100
AcDbLine
 10
137.3188204073
 20
109.2630889737
 30
0.0
 11
138.5355465963
 21
107.1556574018
 31
0.0
  0
LINE
  5
198
330
1F
100
AcDbEntity
  8
0
  6
Continuous
 62
     7
370
     0
100
AcDbLine
 10
137.3188204073
 20
130.9253364154
 30
0.0
 11
137.3188204073
 21
109.2630889737
 31
0.0
  0
ARC
  5
199
330
1F
100
AcDbEntity
  8
0
  6
Continuous
 62
     7
370
     0
100
AcDbCircle
 10
137.7498947748
 20
130.9952636123
 30
0.0
 40
0.4367091974284661
100
AcDbArc
 50
50.7967147643
 51
189.2140369905
  0
LINE
  5
19A
330
1F
100
AcDbEntity
  8
0
  6
Continuous
 62
     7
370
     0
100
AcDbLine
 10
149.1982143313
 20
124.884049088
 30
0.0
 11
138.0259271885
 21
131.3336731714
 31
0.0
  0
LINE
  5
19B
330
1F
100
AcDbEntity
  8
0
  6
Continuous
 62
     7
370
     0
100
AcDbLine
 10
149.3749910266
 20
124.986133277
 30
0.0
 11
149.1982143313
 21
124.884049088
 31
0.0
  0
LINE
  5
19C
330
1F
100
AcDbEntity
  8
0
  6
Continuous
 62
     7
370
     0
100
AcDbLine
 10
158.0724044352
 20
119.9652233892
 30
0.0
 11
149.3749910266
 21
124.986133277
 31
0.0
  0
LINE
  5
19D
330
1F
100
AcDbEntity
  8
0
  6
Continuous
 62
     7
370
     0
100
AcDbLine
 10
158.2491811305
 20
119.6590371723
 30
0.0
 11
158.0724044352
 21
119.9652233892
 31
0.0
  0
LINE
  5
19E
330
1F
100
AcDbEntity
  8
0
  6
Continuous
 62
     7
370
     0
100
AcDbLine
 10
169.4214682732
 20
113.2094130889
 30
0.0
 11
158.2491811305
 21
119.6590371723
 31
0.0
  0
ARC
  5
19F
330
1F
100
AcDbEntity
  8
0
  6
Continuous
 62
     7
370
     0
100
AcDbCircle
 10
168.593358953
 20
111.9148073688
 30
0.0
 40
1.536804807572086
100
AcDbArc
 50
2.6054784857
 51
57.39452166
  0
LINE
  5
1A0
330
1F
100
AcDbEntity
  8
0
  6
Continuous
 62
     7
370
     0
100
AcDbLine
 10
170.1285750544
 20
90.3224207795
 30
0.0
 11
170.1285750544
 21
111.9846682211
 31
0.0
  0
LINE
  5
1A1
330
1F
100
AcDbEntity
  8
0
  6
Continuous
 62
     7
370
     0
100
AcDbLine
 10
168.9118488654
 20
89.6197913632
 30
0.0
 11
170.1285750544
 21
90.3224207795
 31
0.0
  0
LINE
  5
1A2
330
1F
100
AcDbEntity
  8
0
  6
Continuous
 62
     7
370
     0
100
AcDbLine
 10
160.6886995255
 20
94.3669144317
 30
0.0
 11
168.9118488654
 21
89.6197913632
 31
0.0
  0
LINE
  5
1A3
330
1F
100
AcDbEntity
  8
0
  6
Continuous
 62
     7
370
     0
100
AcDbLine
 10
160.6886995255
 20
94.3669144317
 30
0.0
 11
160.6886995255
 21
96.0748562526
 31
0.0
  0
ARC
  5
1A4
330
1F
100
AcDbEntity
  8
0
  6
Continuous
 62
     7
370
     0
100
AcDbCircle
 10
163.2095882747
 20
99.1299616282
 30
0.0
 40
3.960877294482881
100
AcDbArc
 50
189.8761598907
 51
230.4726062321
  0
LWPOLYLINE
  5
1A5
330
1F
100
AcDbEntity
  8
0
  6
Continuous
 62
     7
370
     0
100
AcDbPolyline
 90
       25
 70
   128
 43
0.0
 10
139.0865873603
 20
121.8210722379
 10
139.1239331832
 20
122.1270842388
 10
139.2334255958
 20
122.3691234581
 10
139.4076028711
 20
122.5306953232
 10
139.6345951157
 20
122.6007889784
 10
139.8989331832
 20
122.574627657
 10
140.1826028711
 20
122.4539942097
 10
140.4662725591
 20
122.2471096067
 10
140.7306106266
 20
121.9680726917
 10
140.9576028711
 20
121.6358993695
 10
141.1317801465
 20
121.2732267028
 10
141.2412725591
 20
120.9047702348
 10
141.278618382
 20
120.5556396646
 10
141.2412725591
 20
120.2496276638
 10
141.1317801465
 20
120.0075884444
 10
140.9576028711
 20
119.8460165793
 10
140.7306106266
 20
119.7759229241
 10
140.4662725591
 20
119.8020842456
 10
140.1826028711
 20
119.9227176929
 10
139.8989331832
 20
120.1296022959
 10
139.6345951157
 20
120.4086392108
 10
139.4076028711
 20
120.7408125331
 10
139.2334255958
 20
121.1034851997
 10
139.1239331832
 20
121.4719416678
 10
139.0865873603
 20
121.8210722379
  0
LWPOLYLINE
  5
1A6
330
1F
100
AcDbEntity
  8
0
  6
Continuous
 62
     7
370
     0
100
AcDbPolyline
 90
       25
 70
   128
 43
0.0
 10
166.1687770797
 20
106.1868568965
 10
166.2061229026
 20
106.4928688974
 10
166.3156153153
 20
106.7349081167
 10
166.4897925906
 20
106.8964799818
 10
166.7167848352
 20
106.966573637
 10
166.9811229026
 20
106.9404123156
 10
167.2647925906
 20
106.8197788683
 10
167.5484622785
 20
106.6128942653
 10
167.812800346
 20
106.3338573503
 10
168.0397925906
 20
106.0016840281
 10
168.2139698659
 20
105.6390113614
 10
168.3234622785
 20
105.2705548934
 10
168.3608081014
 20
104.9214243232
 10
168.3234622785
 20
104.6154123224
 10
168.2139698659
 20
104.373373103
 10
168.0397925906
 20
104.2118012379
 10
167.812800346
 20
104.1417075827
 10
167.5484622785
 20
104.1678689042
 10
167.2647925906
 20
104.2885023514
 10
166.9811229026
 20
104.4953869545
 10
166.7167848352
 20
104.7744238694
 10
166.4897925906
 20
105.1065971917
 10
166.3156153153
 20
105.4692698583
 10
166.2061229026
 20
105.8377263264
 10
166.1687770797
 20
106.1868568965
  0
LWPOLYLINE
  5
1A7
330
1F
100
AcDbEntity
  8
0
  6
Continuous
 62
     7
370
     0
100
AcDbPolyline
 90
       35
 70
   128
 43
0.0
 10
151.5316667092
 20
119.5359257252
 10
151.5689902029
 20
119.9795001704
 10
151.6796896772
 20
120.3648764312
 10
151.8599953942
 20
120.6789309814
 10
152.103767259
 20
120.91096907
 10
152.4027039132
 20
121.053088918
 10
152.7466254274
 20
121.1004508046
 10
153.1238199671
 20
121.0514418775
 10
153.5214426246
 20
120.9077310769
 10
153.9259528371
 20
120.6742123018
 10
154.3235754946
 20
120.358837754
 10
154.7007700343
 20
119.9723471355
 10
155.0446915485
 20
119.5279019206
 10
155.3436282027
 20
119.0406371583
 10
155.5874000675
 20
118.5271460655
 10
155.7677057846
 20
118.0049149656
 10
155.8784052588
 20
117.4917278123
 10
155.9157287525
 20
117.0050605786
 10
155.8784052588
 20
116.5614861334
 10
155.7677057846
 20
116.1761098725
 10
155.5874000675
 20
115.8620553223
 10
155.3436282027
 20
115.6300172338
 10
155.0446915485
 20
115.4878973857
 10
154.7007700343
 20
115.4405354992
 10
154.3235754946
 20
115.4895444263
 10
153.9259528371
 20
115.6332552269
 10
153.5214426246
 20
115.866774002
 10
153.1238199671
 20
116.1821485498
 10
152.7466254274
 20
116.5686391683
 10
152.4027039132
 20
117.0130843831
 10
152.103767259
 20
117.5003491455
 10
151.8599953942
 20
118.0138402382
 10
151.6796896772
 20
118.5360713382
 10
151.5689902029
 20
119.0492584915
 10
151.5316667092
 20
119.5359257252
  0
LINE
  5
1A8
330
1F
100
AcDbEntity
  8
0
  6
Continuous
 62
     7
370
     0
100
AcDbLine
 10
170.1285750544
 20
111.9846682211
 30
0.0
 11
180.1694913472
 21
117.781165815
 31
0.0
  0
LINE
  5
1A9
330
1F
100
AcDbEntity
  8
0
  6
Continuous
 62
     7
370
     0
100
AcDbLine
 10
169.4214682732
 20
113.2094130889
 30
0.0
 11
179.4623845661
 21
119.0059106828
 31
0.0
  0
ARC
  5
1AA
330
1F
100
AcDbEntity
  8
0
  6
Continuous
 62
     7
370
     0
100
AcDbCircle
 10
178.6342752459
 20
117.7113049628
 30
0.0
 40
1.536804807572231
100
AcDbArc
 50
2.6054784857
 51
57.39452166
  0
LINE
  5
1AB
330
1F
100
AcDbEntity
  8
0
  6
Continuous
 62
     7
370
     0
100
AcDbLine
 10
170.1285750544
 20
90.3224207795
 30
0.0
 11
180.1694913472
 21
96.1189183734
 31
0.0
  0
LINE
  5
1AC
330
1F
100
AcDbEntity
  8
0
  6
Continuous
 62
     7
370
     0
100
AcDbLine
 10
180.1694913472
 20
96.1189183734
 30
0.0
 11
180.1694913472
 21
117.781165815
 31
0.0
  0
LWPOLYLINE
  5
1AD
330
1F
100
AcDbEntity
  8
0
  6
Continuous
 62
     7
370
     0
100
AcDbPolyline
 90
       35
 70
   128
 43
0.0
 10
175.0783225227
 20
109.1263109293
 10
174.6755378794
 20
108.936888097
 10
174.2864695841
 20
108.840115418
 10
173.9243668909
 20
108.8392883697
 10
173.6015607727
 20
108.9344351162
 10
173.3290440047
 20
109.1223155493
 10
173.1160968186
 20
109.3965316262
 10
172.9699708754
 20
109.7477452471
 10
172.8956423189
 20
110.1639962535
 10
172.8956423189
 20
110.6311097166
 10
172.9699708754
 20
111.1331786477
 10
173.1160968186
 20
111.6531056914
 10
173.3290440047
 20
112.173185356
 10
173.6015607727
 20
112.675706952
 10
173.9243668909
 20
113.1435577095
 10
174.2864695841
 20
113.5608055318
 10
174.6755378794
 20
113.9132415449
 10
175.0783225227
 20
114.188863963
 10
175.481107166
 20
114.3782867952
 10
175.8701754613
 20
114.4750594743
 10
176.2322781545
 20
114.4758865226
 10
176.5550842727
 20
114.380739776
 10
176.8276010407
 20
114.1928593429
 10
177.0405482268
 20
113.9186432661
 10
177.18667417
 20
113.5674296452
 10
177.2610027265
 20
113.1511786387
 10
177.2610027265
 20
112.6840651756
 10
177.18667417
 20
112.1819962446
 10
177.0405482268
 20
111.6620692008
 10
176.8276010407
 20
111.1419895363
 10
176.5550842727
 20
110.6394679402
 10
176.2322781545
 20
110.1716171828
 10
175.8701754613
 20
109.7543693605
 10
175.481107166
 20
109.4019333474
 10
175.0783225227
 20
109.1263109293
  0
LINE
  5
1AE
330
1F
100
AcDbEntity
  8
0
  6
Continuous
 62
     7
370
     0
100
AcDbLine
 10
158.2491811305
 20
119.6590371723
 30
0.0
 11
168.2900974233
 21
125.4555347662
 31
0.0
  0
LINE
  5
1AF
330
1F
100
AcDbEntity
  8
0
  6
Continuous
 62
     7
370
     0
100
AcDbLine
 10
179.4623845661
 20
119.0059106828
 30
0.0
 11
168.2900974233
 21
125.4555347662
 31
0.0
  0
LWPOLYLINE
  5
1B0
330
1F
100
AcDbEntity
  8
0
  6
Continuous
 62
     7
370
     0
100
AcDbPolyline
 90
       23
 70
   128
 43
0.0
 10
172.8977179794
 20
110.6568706922
 10
172.9249214503
 20
110.4798793829
 10
173.0391229839
 20
110.1399348051
 10
173.2239049469
 20
109.8770232159
 10
173.4711914808
 20
109.7026351132
 10
173.7701749775
 20
109.624392094
 10
174.1077884234
 20
109.6457137536
 10
174.469276491
 20
109.7656682333
 10
174.838840417
 20
109.9790129466
 10
175.2003284845
 20
110.2764237059
 10
175.5379419305
 20
110.6449022338
 10
175.8369254271
 20
111.0683442504
 10
176.084211961
 20
111.5282433079
 10
176.268993924
 20
112.0044996104
 10
176.3831954577
 20
112.4762984724
 10
176.4218254069
 20
112.9230200194
 10
176.3831954577
 20
113.3251403765
 10
176.268993924
 20
113.6650849542
 10
176.084211961
 20
113.9279965435
 10
175.8369254271
 20
114.1023846462
 10
175.5379419305
 20
114.1806276654
 10
175.2003284845
 20
114.1593060057
 10
174.8544422206
 20
114.0463837551
  0
LWPOLYLINE
  5
1B1
330
1F
100
AcDbEntity
  8
0
  6
Continuous
 62
     7
370
     0
100
AcDbPolyline
 90
       12
 70
   128
 43
0.0
 10
166.5930411485
 20
106.1868568965
 10
166.6323096113
 20
105.8633381587
 10
166.7466258247
 20
105.5232270782
 10
166.9258322913
 20
105.1967440172
 10
167.1540057302
 20
104.9128984285
 10
167.41087193
 20
104.6969112381
 10
167.6736072016
 20
104.5679738558
 10
167.9188663632
 20
104.5375429338
 10
168.1248570619
 20
104.6083223931
 10
168.2732761201
 20
104.7740231682
 10
168.3509358533
 20
105.019922018
 10
168.355094862
 20
105.0537822312
  0
LWPOLYLINE
  5
1B2
330
1F
100
AcDbEntity
  8
0
  6
Continuous
 62
     7
370
     0
100
AcDbPolyline
 90
        6
 70
   128
 43
0.0
 10
167.3767327402
 20
106.748538765
 10
167.1540057302
 20
106.8131394447
 10
166.9258322913
 20
106.7927373009
 10
166.7466258247
 20
106.6731616221
 10
166.6323096113
 20
106.4650372322
 10
166.5930411485
 20
106.1868568965
  0
LINE
  5
1B3
330
1F
100
AcDbEntity
  8
0
  6
Continuous
 62
     7
370
     0
100
AcDbLine
 10
158.0724044352
 20
119.9652233892
 30
0.0
 11
168.113320728
 21
125.7617209832
 31
0.0
  0
LINE
  5
1B4
330
1F
100
AcDbEntity
  8
0
  6
Continuous
 62
     7
370
     0
100
AcDbLine
 10
168.2900974233
 20
125.4555347662
 30
0.0
 11
168.113320728
 21
125.7617209832
 31
0.0
  0
LINE
  5
1B5
330
1F
100
AcDbEntity
  8
0
  6
Continuous
 62
     7
370
     0
100
AcDbLine
 10
149.3749910266
 20
124.986133277
 30
0.0
 11
159.4159073194
 21
130.7826308709
 31
0.0
  0
LWPOLYLINE
  5
1B6
330
1F
100
AcDbEntity
  8
0
  6
Continuous
 62
     7
370
     0
100
AcDbPolyline
 90
       38
 70
   128
 43
0.0
 10
156.9410335853
 20
127.2720759901
 10
156.5474436458
 20
127.0025855195
 10
156.2384084011
 20
126.6985719642
 10
156.0228182325
 20
126.3687812407
 10
155.9068752766
 20
126.0227008275
 10
155.8939150011
 20
125.6702868282
 10
155.9843102497
 20
125.3216775518
 10
156.1754605155
 20
124.9869018524
 10
156.4618667534
 20
124.6755906175
 10
156.8352895775
 20
124.3966997044
 10
157.284986293
 20
124.158252297
 10
157.7980199442
 20
123.967108093
 10
158.3596314869
 20
123.8287659632
 10
158.9536643796
 20
123.7472057587
 10
159.5630293775
 20
123.7247738182
 10
160.1701961592
 20
123.7621154676
 10
160.7576976418
 20
123.8581564559
 10
161.3086324772
 20
124.0101338585
 10
161.8071512734
 20
124.2136755623
 10
162.2389125522
 20
124.4629260431
 10
162.5914953278
 20
124.7507148184
 10
162.8547564356
 20
125.0687627291
 10
163.0211223329
 20
125.4079201158
 10
163.0858069758
 20
125.758430038
 10
163.0469495047
 20
126.1102089635
 10
162.9056677785
 20
126.4531368531
 10
162.6660262151
 20
126.7773482956
 10
162.3349188661
 20
127.0735163183
 10
161.9218710869
 20
127.3331207063
 10
161.4387655102
 20
127.5486931141
 10
160.8995002039
 20
127.7140319159
 10
160.3195888489
 20
127.8243806156
 10
159.7157144391
 20
127.8765646818
 10
159.1052493417
 20
127.869082874
 10
158.5057555263
 20
127.8021504303
 10
157.9344793383
 20
127.6776928751
 10
157.4078553535
 20
127.4992906257
 10
156.9410335853
 20
127.2720759901
  0
LINE
  5
1B7
330
1F
100
AcDbEntity
  8
0
  6
Continuous
 62
     7
370
     0
100
AcDbLine
 10
168.113320728
 20
125.7617209832
 30
0.0
 11
159.4159073194
 21
130.7826308709
 31
0.0
  0
LWPOLYLINE
  5
1B8
330
1F
100
AcDbEntity
  8
0
  6
Continuous
 62
     7
370
     0
100
AcDbPolyline
 90
       16
 70
   128
 43
0.0
 10
152.3801948466
 20
119.5359257252
 10
152.4188247959
 20
119.0892041781
 10
152.5330263295
 20
118.6174053162
 10
152.7178082925
 20
118.1411490136
 10
152.9650948264
 20
117.6812499562
 10
153.2640783231
 20
117.2578079395
 10
153.601691769
 20
116.8893294116
 10
153.9631798366
 20
116.5919186524
 10
154.3327437626
 20
116.3785739391
 10
154.6942318301
 20
116.2586194594
 10
155.0318452761
 20
116.2372977997
 10
155.3308287727
 20
116.3155408189
 10
155.5781153066
 20
116.4899289216
 10
155.7628972696
 20
116.7528405109
 10
155.8770988033
 20
117.0927850886
 10
155.9043022742
 20
117.2697763983
  0
LWPOLYLINE
  5
1B9
330
1F
100
AcDbEntity
  8
0
  6
Continuous
 62
     7
370
     0
100
AcDbPolyline
 90
        8
 70
   128
 43
0.0
 10
153.9475780332
 20
120.6592894608
 10
153.601691769
 20
120.7722117115
 10
153.2640783231
 20
120.7935333711
 10
152.9650948264
 20
120.7152903519
 10
152.7178082925
 20
120.5409022492
 10
152.5330263295
 20
120.27799066
 10
152.4188247959
 20
119.9380460822
 10
152.3801948466
 20
119.5359257252
  0
ARC
  5
1BA
330
1F
100
AcDbEntity
  8
0
  6
Continuous
 62
     7
370
     0
100
AcDbCircle
 10
157.6946691735
 20
125.2737817924
 30
0.0
 40
1.833704859208572
100
AcDbArc
 50
114.2670823302
 51
168.504161609
  0
LWPOLYLINE
  5
1BB
330
1F
100
AcDbEntity
  8
0
  6
Continuous
 62
     7
370
     0
100
AcDbPolyline
 90
       15
 70
   128
 43
0.0
 10
163.075486063
 20
125.6392332264
 10
163.0469495047
 20
125.7835926388
 10
162.9056677785
 20
126.1265205283
 10
162.6660262151
 20
126.4507319709
 10
162.3349188661
 20
126.7468999936
 10
161.9218710869
 20
127.0065043816
 10
161.4387655102
 20
127.2220767893
 10
160.8995002039
 20
127.3874155912
 10
160.3195888489
 20
127.4977642908
 10
159.7157144391
 20
127.549948357
 10
159.1052493417
 20
127.5424665493
 10
158.5057555263
 20
127.4755341055
 10
157.9344793383
 20
127.3510765503
 10
157.4078553535
 20
127.172674301
 10
156.9410335853
 20
126.9454596653
  0
LWPOLYLINE
  5
1BC
330
1F
100
AcDbEntity
  8
0
  6
Continuous
 62
     7
370
     0
100
AcDbPolyline
 90
       17
 70
   128
 43
0.0
 10
159.8401713881
 20
126.0882311479
 10
159.7317850125
 20
125.9945883415
 10
159.6937247787
 20
125.8841291199
 10
159.7317850125
 20
125.7736698984
 10
159.8401713881
 20
125.680027092
 10
160.0023830625
 20
125.6174569691
 10
160.1937247787
 20
125.5954852639
 10
160.3850664949
 20
125.6174569691
 10
160.5472781693
 20
125.680027092
 10
160.655664545
 20
125.7736698984
 10
160.6937247787
 20
125.8841291199
 10
160.655664545
 20
125.9945883415
 10
160.5472781693
 20
126.0882311479
 10
160.3850664949
 20
126.1508012707
 10
160.1937247787
 20
126.172772976
 10
160.0023830625
 20
126.1508012707
 10
159.8401713881
 20
126.0882311479
  0
LINE
  5
1BD
330
1F
100
AcDbEntity
  8
0
  6
Continuous
 62
     7
370
     0
100
AcDbLine
 10
168.9118488654
 20
89.6197913632
 30
0.0
 11
178.9527651583
 21
95.4162889571
 31
0.0
  0
LINE
  5
1BE
330
1F
100
AcDbEntity
  8
0
  6
Continuous
 62
     7
370
     0
100
AcDbLine
 10
178.9527651583
 20
95.4162889571
 30
0.0
 11
180.1694913472
 21
96.1189183734
 31
0.0
  0
LINE
  5
1BF
330
1F
100
AcDbEntity
  8
0
  6
Continuous
 62
     7
370
     0
100
AcDbLine
 10
138.0259271885
 20
131.3336731714
 30
0.0
 11
148.0668434814
 21
137.1301707653
 31
0.0
  0
LINE
  5
1C0
330
1F
100
AcDbEntity
  8
0
  6
Continuous
 62
     7
370
     0
100
AcDbLine
 10
159.2391018906
 20
130.6805632694
 30
0.0
 11
148.0668434814
 21
137.1301707653
 31
0.0
  0
LINE
  5
1C1
330
1F
100
AcDbEntity
  8
0
  6
Continuous
 62
     7
370
     0
100
AcDbLine
 10
159.4666926512
 20
106.1133197141
 30
0.0
 11
158.602734521
 21
105.6145673018
 31
0.0
  0
LINE
  5
1C2
330
1F
100
AcDbEntity
  8
0
  6
Continuous
 62
     7
370
     0
100
AcDbLine
 10
148.3675874043
 20
116.5040909161
 30
0.0
 11
146.9920772364
 21
115.7100257984
 31
0.0
  0
ARC
  5
1C3
330
1F
100
AcDbEntity
  8
0
  6
Continuous
 62
     7
370
     0
100
AcDbCircle
 10
147.7739234265
 20
136.7212894362
 30
0.0
 40
0.5029772359018271
100
AcDbArc
 50
54.3824225248
 51
114.3071190461
  0
LINE
  5
1C4
330
1F
100
AcDbEntity
  8
0
  6
Continuous
 62
     7
370
     0
100
AcDbLine
 10
148.3676253384
 20
116.5040690172
 30
0.0
 11
146.7586959362
 21
115.5752538437
 31
0.0
  0
LINE
  5
1C5
330
1F
100
AcDbEntity
  8
0
  6
Continuous
 62
     7
370
     0
100
AcDbLine
 10
152.04712915
 20
114.3799366803
 30
0.0
 11
148.13998707
 21
112.1243915681
 31
0.0
  0
LINE
  5
1C6
330
1F
100
AcDbEntity
  8
0
  6
Continuous
 62
     7
370
     0
100
AcDbLine
 10
149.2988107337
 20
115.9665071309
 30
0.0
 11
146.7586959362
 21
114.500130071
 31
0.0
  0
LINE
  5
1C7
330
1F
100
AcDbEntity
  8
0
  6
Continuous
 62
     7
370
     0
100
AcDbLine
 10
153.1587133988
 20
113.7382327525
 30
0.0
 11
148.8446614039
 21
111.2477835465
 31
0.0
  0
LINE
  5
1C8
330
1F
100
AcDbEntity
  8
0
  6
Continuous
 62
     7
370
     0
100
AcDbLine
 10
158.6043206064
 20
110.5945506267
 30
0.0
 11
148.8446614039
 21
104.960419295
 31
0.0
  0
LWPOLYLINE
  5
1C9
330
1F
100
AcDbEntity
  8
0
  6
Continuous
 62
     7
370
     0
100
AcDbPolyline
 90
       12
 70
   128
 43
0.0
 10
139.510851429
 20
121.8210722379
 10
139.5501198919
 20
121.4975535001
 10
139.6644361052
 20
121.1574424196
 10
139.8436425719
 20
120.8309593587
 10
140.0718160108
 20
120.5471137699
 10
140.3286822106
 20
120.3311265795
 10
140.5914174822
 20
120.2021891972
 10
140.8366766437
 20
120.1717582752
 10
141.0426673424
 20
120.2425377346
 10
141.1910864007
 20
120.4082385096
 10
141.2687461338
 20
120.6541373594
 10
141.2729051428
 20
120.6879975746
  0
LWPOLYLINE
  5
1CA
330
1F
100
AcDbEntity
  8
0
  6
Continuous
 62
     7
370
     0
100
AcDbPolyline
 90
        6
 70
   128
 43
0.0
 10
140.2945430224
 20
122.3827541057
 10
140.0718160108
 20
122.4473547861
 10
139.8436425719
 20
122.4269526423
 10
139.6644361052
 20
122.3073769635
 10
139.5501198919
 20
122.0992525736
 10
139.510851429
 20
121.8210722379
  0
ARC
  5
1CB
330
1F
100
AcDbEntity
  8
0
  6
Continuous
 62
     7
370
     0
100
AcDbCircle
 10
157.243336015
 20
110.7173983553
 30
0.0
 40
0.903669905694606
100
AcDbArc
 50
300.8192453223
 51
329.4567430772
  0
LINE
  5
1CC
330
1F
100
AcDbEntity
  8
0
  6
Continuous
 62
     7
370
     0
100
AcDbLine
 10
156.799612229
 20
108.2050319271
 30
0.0
 11
146.7586959362
 21
102.4085343332
 31
0.0
  0
LINE
  5
1CD
330
1F
100
AcDbEntity
  8
0
  6
Continuous
 62
     7
370
     0
100
AcDbLine
 10
156.799612229
 20
108.2050319271
 30
0.0
 11
156.799612229
 21
109.4179095677
 31
0.0
  0
ARC
  5
1CE
330
1F
100
AcDbEntity
  8
0
  6
Continuous
 62
     7
370
     0
100
AcDbCircle
 10
157.243336015
 20
110.7173983553
 30
0.0
 40
0.903669905694606
100
AcDbArc
 50
300.8192453223
 51
329.4567430772
  0
LINE
  5
1CF
330
1F
100
AcDbEntity
  8
0
  6
Continuous
 62
     7
370
     0
100
AcDbLine
 10
156.799612229
 20
109.4179095677
 30
0.0
 11
156.799612229
 21
108.1642048865
 31
0.0
  0
LINE
  5
1D0
330
1F
100
AcDbEntity
  8
0
  6
Continuous
 62
     7
370
     0
100
AcDbLine
 10
156.7642511433
 20
108.1846184068
 30
0.0
 11
156.799612229
 21
108.1642048865
 31
0.0
  0
LINE
  5
1D1
330
1F
100
AcDbEntity
  8
0
  6
Continuous
 62
     7
370
     0
100
AcDbLine
 10
146.7940512752
 20
137.5383217412
 30
0.0
 11
146.7940512752
 21
136.7335319139
 31
0.0
  0
LINE
  5
1D2
330
1F
100
AcDbEntity
  8
0
  6
Continuous
 62
     7
370
     0
100
AcDbLine
 10
147.5011580564
 20
137.9466584972
 30
0.0
 11
146.7940512752
 21
137.5383217412
 31
0.0
  0
LINE
  5
1D3
330
1F
100
AcDbEntity
  8
0
  6
Continuous
 62
     7
370
     0
100
AcDbLine
 10
180.028069991
 20
119.1692719252
 30
0.0
 11
147.5011580564
 21
137.9466584972
 31
0.0
  0
LINE
  5
1D4
330
1F
100
AcDbEntity
  8
0
  6
Continuous
 62
     7
370
     0
100
AcDbLine
 10
180.7351767722
 20
117.9445270574
 30
0.0
 11
180.028069991
 21
119.1692719252
 31
0.0
  0
LINE
  5
1D5
330
1F
100
AcDbEntity
  8
0
  6
Continuous
 62
     7
370
     0
100
AcDbLine
 10
180.7351767722
 20
96.3878496237
 30
0.0
 11
180.7351767722
 21
117.9445270574
 31
0.0
  0
LINE
  5
1D6
330
1F
100
AcDbEntity
  8
0
  6
Continuous
 62
     7
370
     0
100
AcDbLine
 10
178.9674098192
 20
95.3670077337
 30
0.0
 11
180.7351767722
 21
96.3878496237
 31
0.0
  0
LINE
  5
1D7
330
1F
100
AcDbEntity
  8
0
  6
Continuous
 62
     7
370
     0
100
AcDbLine
 10
178.9174040725
 20
95.3958754368
 30
0.0
 11
178.9674098192
 21
95.3670077337
 31
0.0
  0
LINE
  5
1D8
330
1F
100
AcDbEntity
  8
0
  6
Continuous
 62
     7
370
     0
100
AcDbLine
 10
180.7351767722
 20
117.9445270574
 30
0.0
 11
221.6059487248
 21
141.5387214891
 31
0.0
  0
LINE
  5
1D9
330
1F
100
AcDbEntity
  8
0
  6
Continuous
 62
     7
370
     0
100
AcDbLine
 10
180.028069991
 20
119.1692719252
 30
0.0
 11
220.8988419436
 21
142.7634663569
 31
0.0
  0
LINE
  5
1DA
330
1F
100
AcDbEntity
  8
0
  6
Continuous
 62
     7
370
     0
100
AcDbLine
 10
221.6059487248
 20
141.5387214891
 30
0.0
 11
220.8988419436
 21
142.7634663569
 31
0.0
  0
LINE
  5
1DB
330
1F
100
AcDbEntity
  8
0
  6
Continuous
 62
     7
370
     0
100
AcDbLine
 10
180.7351767722
 20
96.3878496237
 30
0.0
 11
221.6059487248
 21
119.9820440553
 31
0.0
  0
LINE
  5
1DC
330
1F
100
AcDbEntity
  8
0
  6
Continuous
 62
     7
370
     0
100
AcDbLine
 10
221.6059487248
 20
119.9820440553
 30
0.0
 11
221.6059487248
 21
141.5387214891
 31
0.0
  0
LINE
  5
1DD
330
1F
100
AcDbEntity
  8
0
  6
Continuous
 62
     7
370
     0
100
AcDbLine
 10
147.5011580564
 20
137.9466584972
 30
0.0
 11
188.371930009
 21
161.5408529288
 31
0.0
  0
LINE
  5
1DE
330
1F
100
AcDbEntity
  8
0
  6
Continuous
 62
     7
370
     0
100
AcDbLine
 10
220.8988419436
 20
142.7634663569
 30
0.0
 11
188.371930009
 21
161.5408529288
 31
0.0
  0
LWPOLYLINE
  5
1DF
330
1F
100
AcDbEntity
  8
0
  6
Continuous
 62
     7
370
     0
100
AcDbPolyline
 90
       34
 70
   128
 43
0.0
 10
186.3213203436
 20
153.4175922162
 10
185.8815228067
 20
153.2079631768
 10
185.3809506545
 20
153.0501713515
 10
184.8376958687
 20
152.949919748
 10
184.2713930926
 20
152.9108317205
 10
183.7025099842
 20
152.9343200121
 10
183.1516074612
 20
153.0195356947
 10
182.6385965761
 20
153.1633988515
 10
182.1820188789
 20
153.3607098933
 10
181.7983762772
 20
153.6043374849
 10
181.5015346143
 20
153.8854762904
 10
181.3022225211
 20
154.1939652208
 10
181.2076436562
 20
154.5186546824
 10
181.221216346
 20
154.8478095521
 10
181.3424500382
 20
155.1695333154
 10
181.5669630313
 20
155.4721980371
 10
181.8866408408
 20
155.7448646257
 10
182.2899294776
 20
155.9776782002
 10
182.7622530398
 20
156.1622242714
 10
183.2865405232
 20
156.2918328636
 10
183.843842812
 20
156.3618195844
 10
184.4140175496
 20
156.3696549314
 10
184.9764571353
 20
156.3150557148
 10
185.5108335371
 20
156.1999952926
 10
185.9978329995
 20
156.0286322481
 10
186.4198540931
 20
155.8071600884
 10
186.7616438761
 20
155.5435833942
 10
187.010849175
 20
155.247428514
 10
187.1584630612
 20
154.9293992569
 10
187.1991503841
 20
154.6009900288
 10
187.1314405979
 20
154.2740703949
 10
186.9577809107
 20
153.9604560825
 10
186.6844478361
 20
153.67148193
 10
186.3213203436
 20
153.4175922162
  0
LWPOLYLINE
  5
1E0
330
1F
100
AcDbEntity
  8
0
  6
Continuous
 62
     7
370
     0
100
AcDbPolyline
 90
       34
 70
   128
 43
0.0
 10
211.0700576851
 20
139.1304502593
 10
210.6302601483
 20
138.9208212199
 10
210.129687996
 20
138.7630293946
 10
209.5864332102
 20
138.6627777912
 10
209.0201304342
 20
138.6236897636
 10
208.4512473258
 20
138.6471780552
 10
207.9003448027
 20
138.7323937378
 10
207.3873339176
 20
138.8762568946
 10
206.9307562204
 20
139.0735679364
 10
206.5471136188
 20
139.317195528
 10
206.2502719558
 20
139.5983343335
 10
206.0509598627
 20
139.9068232639
 10
205.9563809977
 20
140.2315127255
 10
205.9699536875
 20
140.5606675952
 10
206.0911873797
 20
140.8823913585
 10
206.3157003728
 20
141.1850560802
 10
206.6353781823
 20
141.4577226688
 10
207.0386668192
 20
141.6905362433
 10
207.5109903814
 20
141.8750823145
 10
208.0352778647
 20
142.0046909067
 10
208.5925801536
 20
142.0746776275
 10
209.1627548911
 20
142.0825129745
 10
209.7251944768
 20
142.0279137579
 10
210.2595708786
 20
141.9128533357
 10
210.7465703411
 20
141.7414902912
 10
211.1685914347
 20
141.5200181315
 10
211.5103812176
 20
141.2564414373
 10
211.7595865165
 20
140.9602865571
 10
211.9072004027
 20
140.6422573
 10
211.9478877256
 20
140.3138480719
 10
211.8801779394
 20
139.986928438
 10
211.7065182523
 20
139.6733141256
 10
211.4331851777
 20
139.3843399731
 10
211.0700576851
 20
139.1304502593
  0
LWPOLYLINE
  5
1E1
330
1F
100
AcDbEntity
  8
0
  6
Continuous
 62
     7
370
     0
100
AcDbPolyline
 90
       34
 70
   128
 43
0.0
 10
186.3213203436
 20
124.8433083024
 10
185.8815228067
 20
124.633679263
 10
185.3809506545
 20
124.4758874377
 10
184.8376958687
 20
124.3756358343
 10
184.2713930926
 20
124.3365478067
 10
183.7025099842
 20
124.3600360983
 10
183.1516074612
 20
124.4452517809
 10
182.6385965761
 20
124.5891149377
 10
182.1820188789
 20
124.7864259795
 10
181.7983762772
 20
125.0300535711
 10
181.5015346143
 20
125.3111923766
 10
181.3022225211
 20
125.619681307
 10
181.2076436562
 20
125.9443707686
 10
181.221216346
 20
126.2735256383
 10
181.3424500382
 20
126.5952494016
 10
181.5669630313
 20
126.8979141233
 10
181.8866408408
 20
127.1705807119
 10
182.2899294776
 20
127.4033942864
 10
182.7622530398
 20
127.5879403576
 10
183.2865405232
 20
127.7175489498
 10
183.843842812
 20
127.7875356706
 10
184.4140175496
 20
127.7953710176
 10
184.9764571353
 20
127.740771801
 10
185.5108335371
 20
127.6257113788
 10
185.9978329995
 20
127.4543483343
 10
186.4198540931
 20
127.2328761746
 10
186.7616438761
 20
126.9692994804
 10
187.010849175
 20
126.6731446002
 10
187.1584630612
 20
126.3551153431
 10
187.1991503841
 20
126.026706115
 10
187.1314405979
 20
125.6997864811
 10
186.9577809107
 20
125.3861721687
 10
186.6844478361
 20
125.0971980162
 10
186.3213203436
 20
124.8433083024
  0
LWPOLYLINE
  5
1E2
330
1F
100
AcDbEntity
  8
0
  6
Continuous
 62
     7
370
     0
100
AcDbPolyline
 90
       34
 70
   128
 43
0.0
 10
161.572583002
 20
139.1304502593
 10
161.1327854652
 20
138.9208212199
 10
160.632213313
 20
138.7630293946
 10
160.0889585271
 20
138.6627777912
 10
159.5226557511
 20
138.6236897636
 10
158.9537726427
 20
138.6471780552
 10
158.4028701197
 20
138.7323937378
 10
157.8898592346
 20
138.8762568946
 10
157.4332815374
 20
139.0735679364
 10
157.0496389357
 20
139.317195528
 10
156.7527972727
 20
139.5983343335
 10
156.5534851796
 20
139.9068232639
 10
156.4589063146
 20
140.2315127255
 10
156.4724790045
 20
140.5606675952
 10
156.5937126967
 20
140.8823913585
 10
156.8182256898
 20
141.1850560802
 10
157.1379034992
 20
141.4577226688
 10
157.5411921361
 20
141.6905362433
 10
158.0135156983
 20
141.8750823145
 10
158.5378031817
 20
142.0046909067
 10
159.0951054705
 20
142.0746776275
 10
159.6652802081
 20
142.0825129745
 10
160.2277197938
 20
142.0279137579
 10
160.7620961956
 20
141.9128533357
 10
161.249095658
 20
141.7414902912
 10
161.6711167516
 20
141.5200181315
 10
162.0129065345
 20
141.2564414373
 10
162.2621118335
 20
140.9602865571
 10
162.4097257196
 20
140.6422573
 10
162.4504130426
 20
140.3138480719
 10
162.3827032564
 20
139.986928438
 10
162.2090435692
 20
139.6733141256
 10
161.9357104946
 20
139.3843399731
 10
161.572583002
 20
139.1304502593
  0
LWPOLYLINE
  5
1E3
330
1F
100
AcDbEntity
  8
0
  6
Continuous
 62
     7
370
     0
100
AcDbPolyline
 90
       16
 70
   128
 43
0.0
 10
185.967766953
 20
126.680160204
 10
185.5615975875
 20
126.8700355976
 10
185.0959198739
 20
127.0070113353
 10
184.5910861626
 20
127.0851009202
 10
184.0691601094
 20
127.1008914625
 10
183.5529523872
 20
127.05369284
 10
183.0650237507
 20
126.9455678587
 10
182.6266990224
 20
126.7812420993
 10
182.2571350964
 20
126.567897386
 10
181.9724836895
 20
126.3148579065
 10
181.7851854343
 20
126.0331827002
 10
181.7034261631
 20
125.7351823253
 10
181.7307791485
 20
125.4338808282
 10
181.8660489338
 20
125.14244653
 10
182.1033235801
 20
124.8736165081
 10
182.2712858479
 20
124.7414065463
  0
ARC
  5
1E4
330
1F
100
AcDbEntity
  8
0
  6
Continuous
 62
     7
370
     0
100
AcDbCircle
 10
185.6006268507
 20
125.6736243625
 30
0.0
 40
1.071403870985774
100
AcDbArc
 50
299.530897839
 51
69.9602496748
  0
LINE
  5
1E5
330
1F
100
AcDbEntity
  8
0
  6
Continuous
 62
     7
370
     0
100
AcDbLine
 10
178.9674098192
 20
95.3670077337
 30
0.0
 11
219.8381817718
 21
118.9612021654
 31
0.0
  0
LINE
  5
1E6
330
1F
100
AcDbEntity
  8
0
  6
Continuous
 62
     7
370
     0
100
AcDbLine
 10
219.8381817718
 20
118.9612021654
 30
0.0
 11
221.6059487248
 21
119.9820440553
 31
0.0
  0
LWPOLYLINE
  5
1E7
330
1F
100
AcDbEntity
  8
0
  6
Continuous
 62
     7
370
     0
100
AcDbPolyline
 90
       16
 70
   128
 43
0.0
 10
161.2190296114
 20
140.9673021609
 10
160.812860246
 20
141.1571775545
 10
160.3471825323
 20
141.2941532922
 10
159.8423488211
 20
141.3722428771
 10
159.3204227679
 20
141.3880334194
 10
158.8042150457
 20
141.3408347969
 10
158.3162864091
 20
141.2327098156
 10
157.8779616808
 20
141.0683840562
 10
157.5083977548
 20
140.8550393429
 10
157.223746348
 20
140.6019998634
 10
157.0364480927
 20
140.3203246571
 10
156.9546888216
 20
140.0223242822
 10
156.982041807
 20
139.7210227851
 10
157.1173115922
 20
139.4295884869
 10
157.3545862386
 20
139.160758465
 10
157.5225485066
 20
139.0285485031
  0
ARC
  5
1E8
330
1F
100
AcDbEntity
  8
0
  6
Continuous
 62
     7
370
     0
100
AcDbCircle
 10
160.8518895091
 20
139.9607663194
 30
0.0
 40
1.071403871005103
100
AcDbArc
 50
299.5308978305
 51
69.9602496738
  0
LWPOLYLINE
  5
1E9
330
1F
100
AcDbEntity
  8
0
  6
Continuous
 62
     7
370
     0
100
AcDbPolyline
 90
       16
 70
   128
 43
0.0
 10
210.7165042945
 20
140.9673021609
 10
210.3103349291
 20
141.1571775545
 10
209.8446572154
 20
141.2941532922
 10
209.3398235041
 20
141.3722428771
 10
208.8178974509
 20
141.3880334194
 10
208.3016897288
 20
141.3408347969
 10
207.8137610922
 20
141.2327098156
 10
207.3754363639
 20
141.0683840562
 10
207.0058724379
 20
140.8550393429
 10
206.7212210311
 20
140.6019998634
 10
206.5339227758
 20
140.3203246571
 10
206.4521635046
 20
140.0223242822
 10
206.47951649
 20
139.7210227851
 10
206.6147862753
 20
139.4295884869
 10
206.8520609217
 20
139.160758465
 10
207.0200231894
 20
139.0285485033
  0
ARC
  5
1EA
330
1F
100
AcDbEntity
  8
0
  6
Continuous
 62
     7
370
     0
100
AcDbCircle
 10
210.3493641922
 20
139.9607663195
 30
0.0
 40
1.071403870978175
100
AcDbArc
 50
299.5308978424
 51
69.9602496752
  0
LINE
  5
1EB
330
1F
100
AcDbEntity
  8
0
  6
Continuous
 62
     7
370
     0
100
AcDbLine
 10
159.8069356464
 20
109.9002957417
 30
0.0
 11
156.799612229
 21
108.1642048865
 31
0.0
  0
LWPOLYLINE
  5
1EC
330
1F
100
AcDbEntity
  8
0
  6
Continuous
 62
     7
370
     0
100
AcDbPolyline
 90
       16
 70
   128
 43
0.0
 10
185.967766953
 20
155.2544441178
 10
185.5615975875
 20
155.4443195114
 10
185.0959198739
 20
155.5812952491
 10
184.5910861626
 20
155.659384834
 10
184.0691601094
 20
155.6751753763
 10
183.5529523872
 20
155.6279767537
 10
183.0650237507
 20
155.5198517725
 10
182.6266990224
 20
155.3555260131
 10
182.2571350964
 20
155.1421812998
 10
181.9724836895
 20
154.8891418202
 10
181.7851854343
 20
154.607466614
 10
181.7034261631
 20
154.3094662391
 10
181.7307791485
 20
154.008164742
 10
181.8660489338
 20
153.7167304438
 10
182.1033235801
 20
153.4479004219
 10
182.2712858479
 20
153.3156904601
  0
ARC
  5
1ED
330
1F
100
AcDbEntity
  8
0
  6
Continuous
 62
     7
370
     0
100
AcDbCircle
 10
185.6006268507
 20
154.2479082763
 30
0.0
 40
1.071403870985878
100
AcDbArc
 50
299.530897839
 51
69.9602496748
  0
LINE
  5
1EE
330
1F
100
AcDbEntity
  8
0
  6
Continuous
 62
     7
370
     0
100
AcDbLine
 10
230.3740728115
 20
148.3966027085
 30
0.0
 11
220.7574895478
 21
142.8450673581
 31
0.0
  0
LINE
  5
1EF
330
1F
100
AcDbEntity
  8
0
  6
Continuous
 62
     7
370
     0
100
AcDbLine
 10
231.0811795927
 20
147.1718578407
 30
0.0
 11
221.5352782703
 21
141.6611263065
 31
0.0
  0
LINE
  5
1F0
330
1F
100
AcDbEntity
  8
0
  6
Continuous
 62
     7
370
     0
100
AcDbLine
 10
198.9785317268
 20
166.5208627909
 30
0.0
 11
189.3619484631
 21
160.9693274405
 31
0.0
  0
LWPOLYLINE
  5
1F1
330
1F
100
AcDbEntity
  8
0
  6
Continuous
 62
     7
370
     0
100
AcDbPolyline
 90
       17
 70
   128
 43
0.0
 10
182.0786796564
 20
124.4350378965
 10
181.4283614025
 20
124.9968947348
 10
181.2
 20
125.6596500642
 10
181.4283614025
 20
126.3224053936
 10
182.0786796564
 20
126.8842622319
 10
183.0519497029
 20
127.2596829689
 10
184.2
 20
127.3915132005
 10
185.3480502971
 20
127.2596829689
 10
186.3213203436
 20
126.8842622319
 10
186.9716385975
 20
126.3224053936
 10
187.2
 20
125.6596500642
 10
186.9716385975
 20
124.9968947348
 10
186.3213203436
 20
124.4350378965
 10
185.3480502971
 20
124.0596171595
 10
184.2
 20
123.9277869279
 10
183.0519497029
 20
124.0596171595
 10
182.0786796564
 20
124.4350378965
  0
LWPOLYLINE
  5
1F2
330
1F
100
AcDbEntity
  8
0
  6
Continuous
 62
     7
370
     0
100
AcDbPolyline
 90
       17
 70
   128
 43
0.0
 10
157.3299423149
 20
138.7221798534
 10
156.6796240609
 20
139.2840366917
 10
156.4512626585
 20
139.9467920211
 10
156.6796240609
 20
140.6095473505
 10
157.3299423149
 20
141.1714041888
 10
158.3032123614
 20
141.5468249258
 10
159.4512626585
 20
141.6786551573
 10
160.5993129556
 20
141.5468249258
 10
161.572583002
 20
141.1714041888
 10
162.222901256
 20
140.6095473505
 10
162.4512626585
 20
139.9467920211
 10
162.222901256
 20
139.2840366917
 10
161.572583002
 20
138.7221798534
 10
160.5993129556
 20
138.3467591164
 10
159.4512626585
 20
138.2149288848
 10
158.3032123614
 20
138.3467591164
 10
157.3299423149
 20
138.7221798534
  0
LWPOLYLINE
  5
1F3
330
1F
100
AcDbEntity
  8
0
  6
Continuous
 62
     7
370
     0
100
AcDbPolyline
 90
       17
 70
   128
 43
0.0
 10
206.827416998
 20
138.7221798534
 10
206.177098744
 20
139.2840366917
 10
205.9487373415
 20
139.9467920211
 10
206.177098744
 20
140.6095473505
 10
206.827416998
 20
141.1714041888
 10
207.8006870444
 20
141.5468249258
 10
208.9487373415
 20
141.6786551573
 10
210.0967876386
 20
141.5468249258
 10
211.0700576851
 20
141.1714041888
 10
211.7203759391
 20
140.6095473505
 10
211.9487373415
 20
139.9467920211
 10
211.7203759391
 20
139.2840366917
 10
211.0700576851
 20
138.7221798534
 10
210.0967876386
 20
138.3467591164
 10
208.9487373415
 20
138.2149288848
 10
207.8006870444
 20
138.3467591164
 10
206.827416998
 20
138.7221798534
  0
LWPOLYLINE
  5
1F4
330
1F
100
AcDbEntity
  8
0
  6
Continuous
 62
     7
370
     0
100
AcDbPolyline
 90
       17
 70
   128
 43
0.0
 10
182.0786796564
 20
153.0093218103
 10
181.4283614025
 20
153.5711786486
 10
181.2
 20
154.233933978
 10
181.4283614025
 20
154.8966893074
 10
182.0786796564
 20
155.4585461457
 10
183.0519497029
 20
155.8339668827
 10
184.2
 20
155.9657971142
 10
185.3480502971
 20
155.8339668827
 10
186.3213203436
 20
155.4585461457
 10
186.9716385975
 20
154.8966893074
 10
187.2
 20
154.233933978
 10
186.9716385975
 20
153.5711786486
 10
186.3213203436
 20
153.0093218103
 10
185.3480502971
 20
152.6339010733
 10
184.2
 20
152.5020708417
 10
183.0519497029
 20
152.6339010733
 10
182.0786796564
 20
153.0093218103
  0
LWPOLYLINE
  5
1F5
330
1F
100
AcDbEntity
  8
0
  6
Continuous
 62
     7
370
     0
100
AcDbPolyline
 90
       17
 70
   128
 43
0.0
 10
167.4769246249
 20
104.4517906088
 10
167.0710275498
 20
104.7793432051
 10
166.7269246249
 20
105.2434952929
 10
166.4970024013
 20
105.7735839243
 10
166.4162644532
 20
106.2889079105
 10
166.4970024013
 20
106.711013846
 10
166.7269246249
 20
106.9756399285
 10
167.0710275498
 20
107.0424992358
 10
167.4769246249
 20
106.9014130445
 10
167.8828217
 20
106.5738604482
 10
168.2269246249
 20
106.1097083604
 10
168.4568468486
 20
105.579619729
 10
168.5375847967
 20
105.0642957428
 10
168.4568468486
 20
104.6421898073
 10
168.2269246249
 20
104.3775637248
 10
167.8828217
 20
104.3107044175
 10
167.4769246249
 20
104.4517906088
  0
LWPOLYLINE
  5
1F6
330
1F
100
AcDbEntity
  8
0
  6
Continuous
 62
     7
370
     0
100
AcDbPolyline
 90
       17
 70
   128
 43
0.0
 10
140.3947349055
 20
120.0860059502
 10
139.9888378304
 20
120.4135585465
 10
139.6447349055
 20
120.8777106343
 10
139.4148126818
 20
121.4077992657
 10
139.3340747337
 20
121.9231232519
 10
139.4148126818
 20
122.3452291874
 10
139.6447349055
 20
122.6098552699
 10
139.9888378304
 20
122.6767145772
 10
140.3947349055
 20
122.5356283859
 10
140.8006319806
 20
122.2080757896
 10
141.1447349055
 20
121.7439237018
 10
141.3746571292
 20
121.2138350704
 10
141.4553950773
 20
120.6985110842
 10
141.3746571292
 20
120.2764051487
 10
141.1447349055
 20
120.0117790662
 10
140.8006319806
 20
119.9449197589
 10
140.3947349055
 20
120.0860059502
  0
LWPOLYLINE
  5
1F7
330
1F
100
AcDbEntity
  8
0
  6
Continuous
 62
     7
370
     0
100
AcDbPolyline
 90
       17
 70
   128
 43
0.0
 10
227.8284883992
 20
142.5994548842
 10
227.667012503
 20
141.5688069118
 10
227.2071680557
 20
140.508629649
 10
226.5189622059
 20
139.5803254734
 10
225.7071680557
 20
138.9252202808
 10
224.8953739054
 20
138.6430478981
 10
224.2071680557
 20
138.7767665127
 10
223.7473236083
 20
139.3060186778
 10
223.5858477121
 20
140.1502305487
 10
223.7473236083
 20
141.1808785211
 10
224.2071680557
 20
142.2410557839
 10
224.8953739054
 20
143.1693599595
 10
225.7071680557
 20
143.8244651521
 10
226.5189622059
 20
144.1066375348
 10
227.2071680557
 20
143.9729189202
 10
227.667012503
 20
143.4436667552
 10
227.8284883992
 20
142.5994548842
  0
LWPOLYLINE
  5
1F8
330
1F
100
AcDbEntity
  8
0
  6
Continuous
 62
     7
370
     0
100
AcDbPolyline
 90
       17
 70
   128
 43
0.0
 10
176.7753787975
 20
113.1271220474
 10
176.6139029013
 20
112.096474075
 10
176.154058454
 20
111.0362968122
 10
175.4658526042
 20
110.1079926366
 10
174.654058454
 20
109.452887444
 10
173.8422643038
 20
109.1707150613
 10
173.154058454
 20
109.3044336759
 10
172.6942140067
 20
109.833685841
 10
172.5327381104
 20
110.6778977119
 10
172.6942140067
 20
111.7085456843
 10
173.154058454
 20
112.7687229471
 10
173.8422643038
 20
113.6970271227
 10
174.654058454
 20
114.3521323153
 10
175.4658526042
 20
114.634304698
 10
176.154058454
 20
114.5005860834
 10
176.6139029013
 20
113.9713339184
 10
176.7753787975
 20
113.1271220474
  0
LWPOLYLINE
  5
1F9
330
1F
100
AcDbEntity
  8
0
  6
Continuous
 62
     7
370
     0
100
AcDbPolyline
 90
       17
 70
   128
 43
0.0
 10
154.1479617996
 20
116.0657931498
 10
153.3361676494
 20
116.7208983424
 10
152.6479617996
 20
117.649202518
 10
152.1881173523
 20
118.7093797808
 10
152.026641456
 20
119.7400277532
 10
152.1881173523
 20
120.5842396241
 10
152.6479617996
 20
121.1134917892
 10
153.3361676494
 20
121.2472104038
 10
154.1479617996
 20
120.9650380211
 10
154.9597559498
 20
120.3099328285
 10
155.6479617996
 20
119.3816286529
 10
156.1078062469
 20
118.3214513901
 10
156.2692821431
 20
117.2908034177
 10
156.1078062469
 20
116.4465915467
 10
155.6479617996
 20
115.9173393817
 10
154.9597559498
 20
115.7836207671
 10
154.1479617996
 20
116.0657931498
  0
ENDSEC
  0
SECTION
  2
OBJECTS
  0
DICTIONARY
  5
C
330
0
100
AcDbDictionary
281
     1
  3
ACAD_GROUP
350
D
  3
ACAD_LAYOUT
350
1A
  3
ACAD_MLEADERSTYLE
350
1FB
  3
ACAD_MLINESTYLE
350
17
  3
ACAD_PLOTSETTINGS
350
19
  3
ACAD_PLOTSTYLENAME
350
E
  3
ACAD_TABLESTYLE
350
1FA
  3
ACAD_VISUALSTYLE
350
2A
  3
AcDbVariableDictionary
350
1FC
  0
DICTIONARY
  5
D
102
{ACAD_REACTORS
330
C
102
}
330
C
100
AcDbDictionary
281
     1
  0
DICTIONARY
  5
1A
102
{ACAD_REACTORS
330
C
102
}
330
C
100
AcDbDictionary
281
     1
  3
Layout1
350
1E
  3
Layout2
350
26
  3
Model
350
22
  0
DICTIONARY
  5
1FB
102
{ACAD_REACTORS
330
C
102
}
330
C
100
AcDbDictionary
281
     1
  0
DICTIONARY
  5
17
102
{ACAD_REACTORS
330
C
102
}
330
C
100
AcDbDictionary
281
     1
  3
Standard
350
18
  0
DICTIONARY
  5
19
102
{ACAD_REACTORS
330
C
102
}
330
C
100
AcDbDictionary
281
     1
  0
ACDBDICTIONARYWDFLT
  5
E
102
{ACAD_REACTORS
330
C
102
}
330
C
100
AcDbDictionary
281
     1
  3
Normal
350
F
100
AcDbDictionaryWithDefault
340
F
  0
DICTIONARY
  5
1FA
102
{ACAD_REACTORS
330
C
102
}
330
C
100
AcDbDictionary
281
     1
  0
DICTIONARY
  5
2A
102
{ACAD_REACTORS
330
C
102
}
330
C
100
AcDbDictionary
281
     1
  3
2dWireframe
350
2F
  3
3D Hidden
350
31
  3
3dWireframe
350
30
  3
Basic
350
32
  3
Brighten
350
36
  3
ColorChange
350
3A
  3
Conceptual
350
34
  3
Dim
350
35
  3
Facepattern
350
39
  3
Flat
350
2B
  3
FlatWithEdges
350
2C
  3
Gouraud
350
2D
  3
GouraudWithEdges
350
2E
  3
Linepattern
350
38
  3
Realistic
350
33
  3
Thicken
350
37
  0
DICTIONARY
  5
1FC
102
{ACAD_REACTORS
330
C
102
}
330
C
100
AcDbDictionary
281
     1
  3
PSOLHEIGHT
350
1FE
  3
PSOLWIDTH
350
1FD
  0
LAYOUT
  5
1E
102
{ACAD_REACTORS
330
1A
102
}
330
1A
100
AcDbPlotSettings
  1

  2
none_device
  4

  6

 40
0.0
 41
0.0
 42
0.0
 43
0.0
 44
0.0
 45
0.0
 46
0.0
 47
0.0
 48
0.0
 49
0.0
140
0.0
141
0.0
142
1.0
143
1.0
 70
   688
 72
     0
 73
     0
 74
     5
  7

 75
    16
147
1.0
148
0.0
149
0.0
100
AcDbLayout
  1
Layout1
 70
     1
 71
     1
 10
0.0
 20
0.0
 11
420.0
 21
297.0
 12
0.0
 22
0.0
 32
0.0
 14
1.0000000000E+20
 24
1.0000000000E+20
 34
1.0000000000E+20
 15
-1.0000000000E+20
 25
-1.0000000000E+20
 35
-1.0000000000E+20
146
0.0
 13
0.0
 23
0.0
 33
0.0
 16
1.0
 26
0.0
 36
0.0
 17
0.0
 27
1.0
 37
0.0
 76
     0
330
1B
  0
LAYOUT
  5
26
102
{ACAD_REACTORS
330
1A
102
}
330
1A
100
AcDbPlotSettings
  1

  2
none_device
  4

  6

 40
0.0
 41
0.0
 42
0.0
 43
0.0
 44
0.0
 45
0.0
 46
0.0
 47
0.0
 48
0.0
 49
0.0
140
0.0
141
0.0
142
1.0
143
1.0
 70
   688
 72
     0
 73
     0
 74
     5
  7

 75
    16
147
1.0
148
0.0
149
0.0
100
AcDbLayout
  1
Layout2
 70
     1
 71
     2
 10
0.0
 20
0.0
 11
0.0
 21
0.0
 12
0.0
 22
0.0
 32
0.0
 14
0.0
 24
0.0
 34
0.0
 15
0.0
 25
0.0
 35
0.0
146
0.0
 13
0.0
 23
0.0
 33
0.0
 16
1.0
 26
0.0
 36
0.0
 17
0.0
 27
1.0
 37
0.0
 76
     0
330
23
  0
LAYOUT
  5
22
102
{ACAD_REACTORS
330
1A
102
}
330
1A
100
AcDbPlotSettings
  1

  2
none_device
  4

  6

 40
0.0
 41
0.0
 42
0.0
 43
0.0
 44
0.0
 45
0.0
 46
0.0
 47
0.0
 48
0.0
 49
0.0
140
0.0
141
0.0
142
1.0
143
1.0
 70
  1712
 72
     0
 73
     0
 74
     0
  7

 75
     0
147
1.0
148
0.0
149
0.0
100
AcDbLayout
  1
Model
 70
     1
 71
     0
 10
0.0
 20
0.0
 11
297.0
 21
210.0
 12
0.0
 22
0.0
 32
0.0
 14
0.0
 24
0.0
 34
0.0
 15
297.0
 25
210.0
 35
0.0
146
0.0
 13
0.0
 23
0.0
 33
0.0
 16
1.0
 26
0.0
 36
0.0
 17
0.0
 27
1.0
 37
0.0
 76
     0
330
1F
331
29
  0
MLINESTYLE
  5
18
102
{ACAD_REACTORS
330
17
102
}
330
17
100
AcDbMlineStyle
  2
Standard
 70
     0
  3

 62
   256
 51
90.0
 52
90.0
 71
     2
 49
0.5
 62
   256
  6
BYLAYER
 49
-0.5
 62
   256
  6
BYLAYER
  0
ACDBPLACEHOLDER
  5
F
102
{ACAD_REACTORS
330
E
102
}
330
E
  0
VISUALSTYLE
  5
2F
102
{ACAD_REACTORS
330
2A
102
}
330
2A
100
AcDbVisualStyle
  2
2dWireframe
 70
     4
 71
     0
 72
     2
 73
     0
 90
        0
 40
-0.6
 41
-30.0
 62
     5
 63
     7
 74
     1
 91
        4
 64
     7
 65
   257
 75
     1
175
     1
 42
1.0
 92
        0
 66
   257
 43
1.0
 76
     1
 77
     6
 78
     2
 67
     7
 79
     5
170
     0
171
     0
290
     0
174
     0
 93
        1
 44
0.0
173
     0
291
     0
 45
0.0
1001
ACAD
1000
AcDbSavedByObjectVersion
1070
     0
  0
VISUALSTYLE
  5
31
102
{ACAD_REACTORS
330
2A
102
}
330
2A
100
AcDbVisualStyle
  2
3D Hidden
 70
     6
 71
     1
 72
     2
 73
     2
 90
        0
 40
-0.6
 41
-30.0
 62
     5
 63
     7
 74
     2
 91
        2
 64
     7
 65
   257
 75
     2
175
     1
 42
40.0
 92
        0
 66
   257
 43
1.0
 76
     1
 77
     6
 78
     2
 67
     7
 79
     3
170
     0
171
     0
290
     0
174
     0
 93
        1
 44
0.0
173
     0
291
     0
 45
0.0
1001
ACAD
1000
AcDbSavedByObjectVersion
1070
     0
  0
VISUALSTYLE
  5
30
102
{ACAD_REACTORS
330
2A
102
}
330
2A
100
AcDbVisualStyle
  2
3dWireframe
 70
     5
 71
     0
 72
     2
 73
     0
 90
        0
 40
-0.6
 41
-30.0
 62
     5
 63
     7
 74
     1
 91
        4
 64
     7
 65
   257
 75
     1
175
     1
 42
1.0
 92
        0
 66
   257
 43
1.0
 76
     1
 77
     6
 78
     2
 67
     7
 79
     5
170
     0
171
     0
290
     0
174
     0
 93
        1
 44
0.0
173
     0
291
     0
 45
0.0
1001
ACAD
1000
AcDbSavedByObjectVersion
1070
     0
  0
VISUALSTYLE
  5
32
102
{ACAD_REACTORS
330
2A
102
}
330
2A
100
AcDbVisualStyle
  2
Basic
 70
     7
 71
     1
 72
     0
 73
     1
 90
        0
 40
-0.6
 41
-30.0
 62
     5
 63
     7
 74
     0
 91
        4
 64
     7
 65
   257
 75
     1
175
     1
 42
1.0
 92
        8
 66
     7
 43
1.0
 76
     1
 77
     6
 78
     2
 67
     7
 79
     5
170
     0
171
     0
290
     0
174
     0
 93
        1
 44
0.0
173
     0
291
     1
 45
0.0
1001
ACAD
1000
AcDbSavedByObjectVersion
1070
     0
  0
VISUALSTYLE
  5
36
102
{ACAD_REACTORS
330
2A
102
}
330
2A
100
AcDbVisualStyle
  2
Brighten
 70
    12
 71
     2
 72
     2
 73
     0
 90
        0
 40
-0.6
 41
-30.0
 62
     5
 63
     7
 74
     1
 91
        4
 64
     7
 65
   257
 75
     1
175
     1
 42
1.0
 92
        8
 66
     7
 43
1.0
 76
     1
 77
     6
 78
     2
 67
     7
 79
     5
170
     0
171
     0
290
     0
174
     0
 93
        1
 44
50.0
173
     0
291
     1
 45
0.0
1001
ACAD
1000
AcDbSavedByObjectVersion
1070
     0
  0
VISUALSTYLE
  5
3A
102
{ACAD_REACTORS
330
2A
102
}
330
2A
100
AcDbVisualStyle
  2
ColorChange
 70
    16
 71
     2
 72
     2
 73
     3
 90
        0
 40
-0.6
 41
-30.0
 62
     5
 63
     8
 74
     1
 91
        4
 64
     7
 65
   257
 75
     1
175
     1
 42
1.0
 92
        8
 66
     8
 43
1.0
 76
     1
 77
     6
 78
     2
 67
     7
 79
     5
170
     0
171
     0
290
     0
174
     0
 93
        1
 44
0.0
173
     0
291
     1
 45
0.0
1001
ACAD
1000
AcDbSavedByObjectVersion
1070
     0
  0
VISUALSTYLE
  5
34
102
{ACAD_REACTORS
330
2A
102
}
330
2A
100
AcDbVisualStyle
  2
Conceptual
 70
     9
 71
     3
 72
     2
 73
     0
 90
        0
 40
-0.6
 41
-30.0
 62
     5
 63
     7
 74
     2
 91
        2
 64
     7
 65
   257
 75
     1
175
     1
 42
40.0
 92
        8
 66
     7
 43
1.0
 76
     1
 77
     6
 78
     2
 67
     7
 79
     3
170
     0
171
     0
290
     0
174
     0
 93
        1
 44
0.0
173
     0
291
     0
 45
0.0
1001
ACAD
1000
AcDbSavedByObjectVersion
1070
     0
  0
VISUALSTYLE
  5
35
102
{ACAD_REACTORS
330
2A
102
}
330
2A
100
AcDbVisualStyle
  2
Dim
 70
    11
 71
     2
 72
     2
 73
     0
 90
        0
 40
-0.6
 41
-30.0
 62
     5
 63
     7
 74
     1
 91
        4
 64
     7
 65
   257
 75
     1
175
     1
 42
1.0
 92
        8
 66
     7
 43
1.0
 76
     1
 77
     6
 78
     2
 67
     7
 79
     5
170
     0
171
     0
290
     0
174
     0
 93
        1
 44
-50.0
173
     0
291
     1
 45
0.0
1001
ACAD
1000
AcDbSavedByObjectVersion
1070
     0
  0
VISUALSTYLE
  5
39
102
{ACAD_REACTORS
330
2A
102
}
330
2A
100
AcDbVisualStyle
  2
Facepattern
 70
    15
 71
     2
 72
     2
 73
     0
 90
        0
 40
-0.6
 41
-30.0
 62
     5
 63
     7
 74
     1
 91
        4
 64
     7
 65
   257
 75
     1
175
     1
 42
1.0
 92
        8
 66
     7
 43
1.0
 76
     1
 77
     6
 78
     2
 67
     7
 79
     5
170
     0
171
     0
290
     0
174
     0
 93
        1
 44
0.0
173
     0
291
     1
 45
0.0
1001
ACAD
1000
AcDbSavedByObjectVersion
1070
     0
  0
VISUALSTYLE
  5
2B
102
{ACAD_REACTORS
330
2A
102
}
330
2A
100
AcDbVisualStyle
  2
Flat
 70
     0
 71
     2
 72
     1
 73
     1
 90
        2
 40
-0.6
 41
30.0
 62
     5
 63
     7
 74
     0
 91
        4
 64
     7
 65
   257
 75
     1
175
     1
 42
1.0
 92
        8
 66
     7
 43
1.0
 76
     1
 77
     6
 78
     2
 67
     7
 79
     5
170
     0
171
     0
290
     0
174
     0
 93
       13
 44
0.0
173
     0
291
     1
 45
0.0
1001
ACAD
1000
AcDbSavedByObjectVersion
1070
     0
  0
VISUALSTYLE
  5
2C
102
{ACAD_REACTORS
330
2A
102
}
330
2A
100
AcDbVisualStyle
  2
FlatWithEdges
 70
     1
 71
     2
 72
     1
 73
     1
 90
        2
 40
-0.6
 41
30.0
 62
     5
 63
     7
 74
     1
 91
        4
 64
     7
 65
   257
 75
     1
175
     1
 42
1.0
 92
        0
 66
   257
 43
1.0
 76
     1
 77
     6
 78
     2
 67
     7
 79
     5
170
     0
171
     0
290
     0
174
     0
 93
       13
 44
0.0
173
     0
291
     1
 45
0.0
1001
ACAD
1000
AcDbSavedByObjectVersion
1070
     0
  0
VISUALSTYLE
  5
2D
102
{ACAD_REACTORS
330
2A
102
}
330
2A
100
AcDbVisualStyle
  2
Gouraud
 70
     2
 71
     2
 72
     2
 73
     1
 90
        2
 40
-0.6
 41
30.0
 62
     5
 63
     7
 74
     0
 91
        4
 64
     7
 65
   257
 75
     1
175
     1
 42
1.0
 92
        0
 66
     7
 43
1.0
 76
     1
 77
     6
 78
     2
 67
     7
 79
     5
170
     0
171
     0
290
     0
174
     0
 93
       13
 44
0.0
173
     0
291
     1
 45
0.0
1001
ACAD
1000
AcDbSavedByObjectVersion
1070
     0
  0
VISUALSTYLE
  5
2E
102
{ACAD_REACTORS
330
2A
102
}
330
2A
100
AcDbVisualStyle
  2
GouraudWithEdges
 70
     3
 71
     2
 72
     2
 73
     1
 90
        2
 40
-0.6
 41
30.0
 62
     5
 63
     7
 74
     1
 91
        4
 64
     7
 65
   257
 75
     1
175
     1
 42
1.0
 92
        0
 66
   257
 43
1.0
 76
     1
 77
     6
 78
     2
 67
     7
 79
     5
170
     0
171
     0
290
     0
174
     0
 93
       13
 44
0.0
173
     0
291
     1
 45
0.0
1001
ACAD
1000
AcDbSavedByObjectVersion
1070
     0
  0
VISUALSTYLE
  5
38
102
{ACAD_REACTORS
330
2A
102
}
330
2A
100
AcDbVisualStyle
  2
Linepattern
 70
    14
 71
     2
 72
     2
 73
     0
 90
        0
 40
-0.6
 41
-30.0
 62
     5
 63
     7
 74
     1
 91
        4
 64
     7
 65
   257
 75
     7
175
     7
 42
1.0
 92
        8
 66
     7
 43
1.0
 76
     1
 77
     6
 78
     2
 67
     7
 79
     5
170
     0
171
     0
290
     0
174
     0
 93
        1
 44
0.0
173
     0
291
     1
 45
0.0
1001
ACAD
1000
AcDbSavedByObjectVersion
1070
     0
  0
VISUALSTYLE
  5
33
102
{ACAD_REACTORS
330
2A
102
}
330
2A
100
AcDbVisualStyle
  2
Realistic
 70
     8
 71
     2
 72
     2
 73
     0
 90
        0
 40
-0.6
 41
-30.0
 62
     5
 63
     7
 74
     1
 91
        0
 64
     7
 65
   257
 75
     1
175
     1
 42
1.0
 92
        8
 66
     8
 43
1.0
 76
     1
 77
     6
 78
     2
 67
     7
 79
     5
170
     0
171
     0
290
     0
174
     0
 93
       13
 44
0.0
173
     0
291
     0
 45
0.0
1001
ACAD
1000
AcDbSavedByObjectVersion
1070
     0
  0
VISUALSTYLE
  5
37
102
{ACAD_REACTORS
330
2A
102
}
330
2A
100
AcDbVisualStyle
  2
Thicken
 70
    13
 71
     2
 72
     2
 73
     0
 90
        0
 40
-0.6
 41
-30.0
 62
     5
 63
     7
 74
     1
 91
        4
 64
     7
 65
   257
 75
     1
175
     1
 42
1.0
 92
       12
 66
     7
 43
1.0
 76
     1
 77
     6
 78
     2
 67
     7
 79
     5
170
     0
171
     0
290
     0
174
     0
 93
        1
 44
0.0
173
     0
291
     1
 45
0.0
1001
ACAD
1000
AcDbSavedByObjectVersion
1070
     0
  0
DICTIONARYVAR
  5
1FE
102
{ACAD_REACTORS
330
1FC
102
}
330
1FC
100
DictionaryVariables
280
     0
  1
80.000000
  0
DICTIONARYVAR
  5
1FD
102
{ACAD_REACTORS
330
1FC
102
}
330
1FC
100
DictionaryVariables
280
     0
  1
5.000000
  0
ENDSEC
  0
EOF
