  0
SECTION
  2
HEADER
  9
$ACADVER
  1
AC1015
  9
$ACADMAINTVER
 70
     6
  9
$DWGCODEPAGE
  3
ANSI_1252
  9
$INSBASE
 10
0.0
 20
0.0
 30
0.0
  9
$EXTMIN
 10
0.0
 20
0.0
 30
0.0
  9
$EXTMAX
 10
297.0
 20
210.0
 30
0.0
  9
$LIMMIN
 10
0.0
 20
0.0
  9
$LIMMAX
 10
297.0
 20
210.0
  9
$ORTHOMODE
 70
     0
  9
$REGENMODE
 70
     1
  9
$FILLMODE
 70
     1
  9
$QTEXTMODE
 70
     0
  9
$MIRRTEXT
 70
     1
  9
$LTSCALE
 40
1.0
  9
$ATTMODE
 70
     1
  9
$TEXTSIZE
 40
3.5
  9
$TRACEWID
 40
1.0
  9
$TEXTSTYLE
  7
Standard
  9
$CLAYER
  8
0
  9
$CELTYPE
  6
ByLayer
  9
$CECOLOR
 62
   256
  9
$CELTSCALE
 40
1.0
  9
$DISPSILH
 70
     0
  9
$DIMSCALE
 40
1.0
  9
$DIMASZ
 40
6.0
  9
$DIMEXO
 40
1.0
  9
$DIMDLI
 40
3.75
  9
$DIMRND
 40
0.0
  9
$DIMDLE
 40
0.0
  9
$DIMEXE
 40
1.0
  9
$DIMTP
 40
0.0
  9
$DIMTM
 40
0.0
  9
$DIMTXT
 40
3.5
  9
$DIMCEN
 40
2.5
  9
$DIMTSZ
 40
0.0
  9
$DIMTOL
 70
     0
  9
$DIMLIM
 70
     0
  9
$DIMTIH
 70
     1
  9
$DIMTOH
 70
     1
  9
$DIMSE1
 70
     0
  9
$DIMSE2
 70
     0
  9
$DIMTAD
 70
     1
  9
$DIMZIN
 70
     0
  9
$DIMBLK
  1

  9
$DIMASO
 70
     1
  9
$DIMSHO
 70
     1
  9
$DIMPOST
  1

  9
$DIMAPOST
  1

  9
$DIMALT
 70
     0
  9
$DIMALTD
 70
     3
  9
$DIMALTF
 40
0.0393700787
  9
$DIMLFAC
 40
1.0
  9
$DIMTOFL
 70
     1
  9
$DIMTVP
 40
0.0
  9
$DIMTIX
 70
     0
  9
$DIMSOXD
 70
     0
  9
$DIMSAH
 70
     0
  9
$DIMBLK1
  1

  9
$DIMBLK2
  1

  9
$DIMSTYLE
  2
ISO-25
  9
$DIMCLRD
 70
     0
  9
$DIMCLRE
 70
     0
  9
$DIMCLRT
 70
     0
  9
$DIMTFAC
 40
1.0
  9
$DIMGAP
 40
1.524
  9
$DIMJUST
 70
     0
  9
$DIMSD1
 70
     0
  9
$DIMSD2
 70
     0
  9
$DIMTOLJ
 70
     0
  9
$DIMTZIN
 70
     0
  9
$DIMALTZ
 70
     0
  9
$DIMALTTZ
 70
     0
  9
$DIMUPT
 70
     0
  9
$DIMDEC
 70
     2
  9
$DIMTDEC
 70
     2
  9
$DIMALTU
 70
     2
  9
$DIMALTTD
 70
     3
  9
$DIMTXSTY
  7
Standard
  9
$DIMAUNIT
 70
     0
  9
$DIMADEC
 70
     0
  9
$DIMALTRND
 40
0.0
  9
$DIMAZIN
 70
     0
  9
$DIMDSEP
 70
    44
  9
$DIMATFIT
 70
     3
  9
$DIMFRAC
 70
     0
  9
$DIMLDRBLK
  1

  9
$DIMLUNIT
 70
     2
  9
$DIMLWD
 70
    -2
  9
$DIMLWE
 70
    -2
  9
$DIMTMOVE
 70
     0
  9
$LUNITS
 70
     2
  9
$LUPREC
 70
     2
  9
$SKETCHINC
 40
1.0
  9
$FILLETRAD
 40
10.0
  9
$AUNITS
 70
     0
  9
$AUPREC
 70
     0
  9
$MENU
  1
.
  9
$ELEVATION
 40
0.0
  9
$PELEVATION
 40
0.0
  9
$THICKNESS
 40
0.0
  9
$LIMCHECK
 70
     0
  9
$CHAMFERA
 40
10.0
  9
$CHAMFERB
 40
10.0
  9
$CHAMFERC
 40
20.0
  9
$CHAMFERD
 40
0.0
  9
$SKPOLY
 70
     0
  9
$TDCREATE
 40
2454558.6259375
  9
$TDUCREATE
 40
2454558.792604167
  9
$TDUPDATE
 40
2454558.625937512
  9
$TDUUPDATE
 40
2454558.792604178
  9
$TDINDWG
 40
0.0000000116
  9
$TDUSRTIMER
 40
0.0000000116
  9
$USRTIMER
 70
     1
  9
$ANGBASE
 50
0.0
  9
$ANGDIR
 70
     0
  9
$PDMODE
 70
     0
  9
$PDSIZE
 40
-1.0
  9
$PLINEWID
 40
0.0
  9
$SPLFRAME
 70
     0
  9
$SPLINETYPE
 70
     6
  9
$SPLINESEGS
 70
     8
  9
$HANDSEED
  5
243
  9
$SURFTAB1
 70
     6
  9
$SURFTAB2
 70
     6
  9
$SURFTYPE
 70
     6
  9
$SURFU
 70
     6
  9
$SURFV
 70
     6
  9
$UCSBASE
  2

  9
$UCSNAME
  2

  9
$UCSORG
 10
0.0
 20
0.0
 30
0.0
  9
$UCSXDIR
 10
1.0
 20
0.0
 30
0.0
  9
$UCSYDIR
 10
0.0
 20
1.0
 30
0.0
  9
$UCSORTHOREF
  2

  9
$UCSORTHOVIEW
 70
     0
  9
$UCSORGTOP
 10
0.0
 20
0.0
 30
0.0
  9
$UCSORGBOTTOM
 10
0.0
 20
0.0
 30
0.0
  9
$UCSORGLEFT
 10
0.0
 20
0.0
 30
0.0
  9
$UCSORGRIGHT
 10
0.0
 20
0.0
 30
0.0
  9
$UCSORGFRONT
 10
0.0
 20
0.0
 30
0.0
  9
$UCSORGBACK
 10
0.0
 20
0.0
 30
0.0
  9
$PUCSBASE
  2

  9
$PUCSNAME
  2

  9
$PUCSORG
 10
0.0
 20
0.0
 30
0.0
  9
$PUCSXDIR
 10
1.0
 20
0.0
 30
0.0
  9
$PUCSYDIR
 10
0.0
 20
1.0
 30
0.0
  9
$PUCSORTHOREF
  2

  9
$PUCSORTHOVIEW
 70
     0
  9
$PUCSORGTOP
 10
0.0
 20
0.0
 30
0.0
  9
$PUCSORGBOTTOM
 10
0.0
 20
0.0
 30
0.0
  9
$PUCSORGLEFT
 10
0.0
 20
0.0
 30
0.0
  9
$PUCSORGRIGHT
 10
0.0
 20
0.0
 30
0.0
  9
$PUCSORGFRONT
 10
0.0
 20
0.0
 30
0.0
  9
$PUCSORGBACK
 10
0.0
 20
0.0
 30
0.0
  9
$USERI1
 70
     0
  9
$USERI2
 70
     0
  9
$USERI3
 70
     0
  9
$USERI4
 70
     0
  9
$USERI5
 70
     0
  9
$USERR1
 40
0.0
  9
$USERR2
 40
0.0
  9
$USERR3
 40
0.0
  9
$USERR4
 40
0.0
  9
$USERR5
 40
0.0
  9
$WORLDVIEW
 70
     1
  9
$SHADEDGE
 70
     3
  9
$SHADEDIF
 70
    70
  9
$TILEMODE
 70
     1
  9
$MAXACTVP
 70
    64
  9
$PINSBASE
 10
0.0
 20
0.0
 30
0.0
  9
$PLIMCHECK
 70
     0
  9
$PEXTMIN
 10
1.0000000000E+20
 20
1.0000000000E+20
 30
1.0000000000E+20
  9
$PEXTMAX
 10
-1.0000000000E+20
 20
-1.0000000000E+20
 30
-1.0000000000E+20
  9
$PLIMMIN
 10
0.0
 20
0.0
  9
$PLIMMAX
 10
420.0
 20
297.0
  9
$UNITMODE
 70
     0
  9
$VISRETAIN
 70
     1
  9
$PLINEGEN
 70
     0
  9
$PSLTSCALE
 70
     1
  9
$TREEDEPTH
 70
  3020
  9
$CMLSTYLE
  2
Standard
  9
$CMLJUST
 70
     0
  9
$CMLSCALE
 40
20.0
  9
$PROXYGRAPHICS
 70
     1
  9
$MEASUREMENT
 70
     1
  9
$CELWEIGHT
370
    -1
  9
$ENDCAPS
280
     0
  9
$JOINSTYLE
280
     0
  9
$LWDISPLAY
290
     1
  9
$INSUNITS
 70
     4
  9
$HYPERLINKBASE
  1

  9
$STYLESHEET
  1

  9
$XEDIT
290
     1
  9
$CEPSNTYPE
380
     0
  9
$PSTYLEMODE
290
     1
  9
$FINGERPRINTGUID
  2
{86FCECE0-C0ED-41EC-BFF1-D4A8845B5194}
  9
$VERSIONGUID
  2
{FAEB1C32-E019-11D5-929B-00C0DF256EC4}
  9
$EXTNAMES
290
     1
  9
$PSVPSCALE
 40
0.0
  9
$OLESTARTUP
290
     0
  0
ENDSEC
  0
SECTION
  2
CLASSES
  0
CLASS
  1
ACDBDICTIONARYWDFLT
  2
AcDbDictionaryWithDefault
  3
ObjectDBX Classes
 90
        0
280
     0
281
     0
  0
CLASS
  1
VISUALSTYLE
  2
AcDbVisualStyle
  3
ObjectDBX Classes
 90
     4095
280
     0
281
     0
  0
CLASS
  1
SCALE
  2
AcDbScale
  3
ObjectDBX Classes
 90
     1153
280
     0
281
     0
  0
CLASS
  1
DICTIONARYVAR
  2
AcDbDictionaryVar
  3
ObjectDBX Classes
 90
        0
280
     0
281
     0
  0
CLASS
  1
ACDBPLACEHOLDER
  2
AcDbPlaceHolder
  3
ObjectDBX Classes
 90
        0
280
     0
281
     0
  0
CLASS
  1
LAYOUT
  2
AcDbLayout
  3
ObjectDBX Classes
 90
        0
280
     0
281
     0
  0
ENDSEC
  0
SECTION
  2
TABLES
  0
TABLE
  2
VPORT
  5
8
330
0
100
AcDbSymbolTable
 70
     1
  0
VPORT
  5
29
330
8
100
AcDbSymbolTableRecord
100
AcDbViewportTableRecord
  2
*Active
 70
     0
 10
0.0
 20
0.0
 11
1.0
 21
1.0
 12
148.5
 22
105.0
 13
0.0
 23
0.0
 14
10.0
 24
10.0
 15
10.0
 25
10.0
 16
0.0
 26
0.0
 36
1.0
 17
0.0
 27
0.0
 37
0.0
 40
210.0
 41
1.4142857143
 42
50.0
 43
0.0
 44
0.0
 50
0.0
 51
0.0
 71
     0
 72
  2000
 73
     1
 74
     3
 75
     0
 76
     0
 77
     0
 78
     0
281
     0
 65
     1
110
0.0
120
0.0
130
0.0
111
1.0
121
0.0
131
0.0
112
0.0
122
1.0
132
0.0
 79
     0
146
0.0
  0
ENDTAB
  0
TABLE
  2
LTYPE
  5
5
330
0
100
AcDbSymbolTable
 70
     6
  0
LTYPE
  5
14
330
5
100
AcDbSymbolTableRecord
100
AcDbLinetypeTableRecord
  2
ByBlock
 70
     0
  3

 72
    65
 73
     0
 40
0.0
  0
LTYPE
  5
15
330
5
100
AcDbSymbolTableRecord
100
AcDbLinetypeTableRecord
  2
ByLayer
 70
     0
  3

 72
    65
 73
     0
 40
0.0
  0
LTYPE
  5
16
330
5
100
AcDbSymbolTableRecord
100
AcDbLinetypeTableRecord
  2
Continuous
 70
     0
  3
Solid line
 72
    65
 73
     0
 40
0.0
  0
LTYPE
  5
5D
330
5
100
AcDbSymbolTableRecord
100
AcDbLinetypeTableRecord
  2
HIDDEN
 70
     0
  3
Hidden __ __ __ __ __ __ __ __ __ __ __ __ __ __
 72
    65
 73
     2
 40
1.905
 49
1.27
 74
     0
 49
-0.635
 74
     0
  0
LTYPE
  5
5E
330
5
100
AcDbSymbolTableRecord
100
AcDbLinetypeTableRecord
  2
PHANTOM
 70
     0
  3
Phantom ______  __  __  ______  __  __  ______
 72
    65
 73
     6
 40
12.7
 49
6.35
 74
     0
 49
-1.27
 74
     0
 49
1.27
 74
     0
 49
-1.27
 74
     0
 49
1.27
 74
     0
 49
-1.27
 74
     0
  0
LTYPE
  5
5F
330
5
100
AcDbSymbolTableRecord
100
AcDbLinetypeTableRecord
  2
CENTER
 70
     0
  3
Center ____ _ ____ _ ____ _ ____ _ ____ _ ____
 72
    65
 73
     4
 40
10.16
 49
6.35
 74
     0
 49
-1.27
 74
     0
 49
1.27
 74
     0
 49
-1.27
 74
     0
  0
LTYPE
  5
60
330
5
100
AcDbSymbolTableRecord
100
AcDbLinetypeTableRecord
  2
CENTERX2
 70
     0
  3
Center (2x) ________  __  ________  __  _____
 72
    65
 73
     4
 40
20.32
 49
12.7
 74
     0
 49
-2.54
 74
     0
 49
2.54
 74
     0
 49
-2.54
 74
     0
  0
LTYPE
  5
61
330
5
100
AcDbSymbolTableRecord
100
AcDbLinetypeTableRecord
  2
DOT2
 70
     0
  3
Dot (.5x) ........................................
 72
    65
 73
     2
 40
0.635
 49
0.0
 74
     0
 49
-0.635
 74
     0
  0
ENDTAB
  0
TABLE
  2
LAYER
  5
2
330
0
100
AcDbSymbolTable
 70
     1
  0
LAYER
  5
10
330
2
100
AcDbSymbolTableRecord
100
AcDbLayerTableRecord
  2
0
 70
     0
 62
     7
  6
Continuous
370
    -3
390
F
  0
ENDTAB
  0
TABLE
  2
STYLE
  5
3
330
0
100
AcDbSymbolTable
 70
     1
  0
STYLE
  5
11
330
3
100
AcDbSymbolTableRecord
100
AcDbTextStyleTableRecord
  2
Standard
 70
     0
 40
0.0
 41
1.0
 50
0.0
 71
     0
 42
2.5
  3
txt
  4

  0
ENDTAB
  0
TABLE
  2
VIEW
  5
6
330
0
100
AcDbSymbolTable
 70
     0
  0
ENDTAB
  0
TABLE
  2
UCS
  5
7
330
0
100
AcDbSymbolTable
 70
     0
  0
ENDTAB
  0
TABLE
  2
APPID
  5
9
330
0
100
AcDbSymbolTable
 70
     1
  0
APPID
  5
12
330
9
100
AcDbSymbolTableRecord
100
AcDbRegAppTableRecord
  2
ACAD
 70
     0
  0
ENDTAB
  0
TABLE
  2
DIMSTYLE
  5
A
330
0
100
AcDbSymbolTable
 70
     1
100
AcDbDimStyleTable
  0
DIMSTYLE
105
27
330
A
100
AcDbSymbolTableRecord
100
AcDbDimStyleTableRecord
  2
ISO-25
 70
     0
 41
2.5
 42
0.625
 43
3.75
 44
1.25
 73
     0
 74
     0
 77
     1
 78
     8
140
2.5
141
2.5
143
0.0393700787
147
0.625
171
     3
172
     1
271
     2
272
     2
274
     3
278
    44
283
     0
284
     8
340
11
  0
ENDTAB
  0
TABLE
  2
BLOCK_RECORD
  5
1
330
0
100
AcDbSymbolTable
 70
    14
  0
BLOCK_RECORD
  5
1F
330
1
100
AcDbSymbolTableRecord
100
AcDbBlockTableRecord
  2
*Model_Space
340
22
  0
BLOCK_RECORD
  5
1B
330
1
100
AcDbSymbolTableRecord
100
AcDbBlockTableRecord
  2
*Paper_Space
340
1E
  0
BLOCK_RECORD
  5
23
330
1
100
AcDbSymbolTableRecord
100
AcDbBlockTableRecord
  2
*Paper_Space0
340
26
  0
BLOCK_RECORD
  5
96
330
1
100
AcDbSymbolTableRecord
100
AcDbBlockTableRecord
  2
SW_CENTERMARKSYMBOL_0
340
0
102
{BLKREFS
331
A1
102
}
  0
BLOCK_RECORD
  5
A2
330
1
100
AcDbSymbolTableRecord
100
AcDbBlockTableRecord
  2
SW_CENTERMARKSYMBOL_1
340
0
102
{BLKREFS
331
AD
102
}
  0
BLOCK_RECORD
  5
AE
330
1
100
AcDbSymbolTableRecord
100
AcDbBlockTableRecord
  2
SW_CENTERMARKSYMBOL_2
340
0
102
{BLKREFS
331
B9
102
}
  0
BLOCK_RECORD
  5
EF
330
1
100
AcDbSymbolTableRecord
100
AcDbBlockTableRecord
  2
SW_CENTERMARKSYMBOL_3
340
0
102
{BLKREFS
331
FA
102
}
  0
BLOCK_RECORD
  5
FB
330
1
100
AcDbSymbolTableRecord
100
AcDbBlockTableRecord
  2
SW_CENTERMARKSYMBOL_4
340
0
102
{BLKREFS
331
106
102
}
  0
BLOCK_RECORD
  5
149
330
1
100
AcDbSymbolTableRecord
100
AcDbBlockTableRecord
  2
SW_CENTERMARKSYMBOL_5
340
0
102
{BLKREFS
331
154
102
}
  0
BLOCK_RECORD
  5
155
330
1
100
AcDbSymbolTableRecord
100
AcDbBlockTableRecord
  2
SW_CENTERMARKSYMBOL_6
340
0
102
{BLKREFS
331
160
102
}
  0
BLOCK_RECORD
  5
161
330
1
100
AcDbSymbolTableRecord
100
AcDbBlockTableRecord
  2
SW_CENTERMARKSYMBOL_7
340
0
102
{BLKREFS
331
16C
102
}
  0
BLOCK_RECORD
  5
16D
330
1
100
AcDbSymbolTableRecord
100
AcDbBlockTableRecord
  2
SW_CENTERMARKSYMBOL_8
340
0
102
{BLKREFS
331
178
102
}
  0
BLOCK_RECORD
  5
179
330
1
100
AcDbSymbolTableRecord
100
AcDbBlockTableRecord
  2
SW_CENTERMARKSYMBOL_9
340
0
102
{BLKREFS
331
184
102
}
  0
BLOCK_RECORD
  5
185
330
1
100
AcDbSymbolTableRecord
100
AcDbBlockTableRecord
  2
SW_CENTERMARKSYMBOL_10
340
0
102
{BLKREFS
331
190
102
}
  0
BLOCK_RECORD
  5
191
330
1
100
AcDbSymbolTableRecord
100
AcDbBlockTableRecord
  2
SW_CENTERMARKSYMBOL_11
340
0
102
{BLKREFS
331
19C
102
}
  0
BLOCK_RECORD
  5
19D
330
1
100
AcDbSymbolTableRecord
100
AcDbBlockTableRecord
  2
SW_CENTERMARKSYMBOL_12
340
0
102
{BLKREFS
331
1A8
102
}
  0
ENDTAB
  0
ENDSEC
  0
SECTION
  2
BLOCKS
  0
BLOCK
  5
20
330
1F
100
AcDbEntity
  8
0
100
AcDbBlockBegin
  2
*Model_Space
 70
     0
 10
0.0
 20
0.0
 30
0.0
  3
*Model_Space
  1

  0
ENDBLK
  5
21
330
1F
100
AcDbEntity
  8
0
100
AcDbBlockEnd
  0
BLOCK
  5
1C
330
1B
100
AcDbEntity
 67
     1
  8
0
100
AcDbBlockBegin
  2
*Paper_Space
 70
     0
 10
0.0
 20
0.0
 30
0.0
  3
*Paper_Space
  1

  0
ENDBLK
  5
1D
330
1B
100
AcDbEntity
 67
     1
  8
0
100
AcDbBlockEnd
  0
BLOCK
  5
24
330
23
100
AcDbEntity
  8
0
100
AcDbBlockBegin
  2
*Paper_Space0
 70
     0
 10
0.0
 20
0.0
 30
0.0
  3
*Paper_Space0
  1

  0
ENDBLK
  5
25
330
23
100
AcDbEntity
  8
0
100
AcDbBlockEnd
  0
BLOCK
  5
97
330
96
100
AcDbEntity
  8
0
100
AcDbBlockBegin
  2
SW_CENTERMARKSYMBOL_0
 70
     0
 10
0.0
 20
0.0
 30
0.0
  3
SW_CENTERMARKSYMBOL_0
  1

  0
LINE
  5
99
330
96
100
AcDbEntity
  8
0
  6
Continuous
 62
     0
370
     0
100
AcDbLine
 10
0.0
 20
0.0
 30
0.0
 11
0.0
 21
2.5
 31
0.0
  0
LINE
  5
9A
330
96
100
AcDbEntity
  8
0
  6
Continuous
 62
     0
370
     0
100
AcDbLine
 10
0.0
 20
0.0
 30
0.0
 11
-2.5
 21
0.0
 31
0.0
  0
LINE
  5
9B
330
96
100
AcDbEntity
  8
0
  6
Continuous
 62
     0
370
     0
100
AcDbLine
 10
0.0
 20
0.0
 30
0.0
 11
0.0
 21
-2.5
 31
0.0
  0
LINE
  5
9C
330
96
100
AcDbEntity
  8
0
  6
Continuous
 62
     0
370
     0
100
AcDbLine
 10
0.0
 20
0.0
 30
0.0
 11
2.5
 21
0.0
 31
0.0
  0
LINE
  5
9D
330
96
100
AcDbEntity
  8
0
  6
Continuous
 62
     0
370
     0
100
AcDbLine
 10
0.0
 20
2.5
 30
0.0
 11
0.0
 21
3.75
 31
0.0
  0
LINE
  5
9E
330
96
100
AcDbEntity
  8
0
  6
Continuous
 62
     0
370
     0
100
AcDbLine
 10
-2.5
 20
0.0
 30
0.0
 11
-3.75
 21
0.0
 31
0.0
  0
LINE
  5
9F
330
96
100
AcDbEntity
  8
0
  6
Continuous
 62
     0
370
     0
100
AcDbLine
 10
0.0
 20
-2.5
 30
0.0
 11
0.0
 21
-3.75
 31
0.0
  0
LINE
  5
A0
330
96
100
AcDbEntity
  8
0
  6
Continuous
 62
     0
370
     0
100
AcDbLine
 10
2.5
 20
0.0
 30
0.0
 11
3.75
 21
0.0
 31
0.0
  0
ENDBLK
  5
98
330
96
100
AcDbEntity
  8
0
100
AcDbBlockEnd
  0
BLOCK
  5
A3
330
A2
100
AcDbEntity
  8
0
100
AcDbBlockBegin
  2
SW_CENTERMARKSYMBOL_1
 70
     0
 10
0.0
 20
0.0
 30
0.0
  3
SW_CENTERMARKSYMBOL_1
  1

  0
LINE
  5
A5
330
A2
100
AcDbEntity
  8
0
  6
Continuous
 62
     0
370
     0
100
AcDbLine
 10
0.0
 20
0.0
 30
0.0
 11
0.0
 21
2.5
 31
0.0
  0
LINE
  5
A6
330
A2
100
AcDbEntity
  8
0
  6
Continuous
 62
     0
370
     0
100
AcDbLine
 10
0.0
 20
0.0
 30
0.0
 11
-2.5
 21
0.0
 31
0.0
  0
LINE
  5
A7
330
A2
100
AcDbEntity
  8
0
  6
Continuous
 62
     0
370
     0
100
AcDbLine
 10
0.0
 20
0.0
 30
0.0
 11
0.0
 21
-2.5
 31
0.0
  0
LINE
  5
A8
330
A2
100
AcDbEntity
  8
0
  6
Continuous
 62
     0
370
     0
100
AcDbLine
 10
0.0
 20
0.0
 30
0.0
 11
2.5
 21
0.0
 31
0.0
  0
LINE
  5
A9
330
A2
100
AcDbEntity
  8
0
  6
Continuous
 62
     0
370
     0
100
AcDbLine
 10
0.0
 20
2.5
 30
0.0
 11
0.0
 21
3.75
 31
0.0
  0
LINE
  5
AA
330
A2
100
AcDbEntity
  8
0
  6
Continuous
 62
     0
370
     0
100
AcDbLine
 10
-2.5
 20
0.0
 30
0.0
 11
-3.75
 21
0.0
 31
0.0
  0
LINE
  5
AB
330
A2
100
AcDbEntity
  8
0
  6
Continuous
 62
     0
370
     0
100
AcDbLine
 10
0.0
 20
-2.5
 30
0.0
 11
0.0
 21
-3.75
 31
0.0
  0
LINE
  5
AC
330
A2
100
AcDbEntity
  8
0
  6
Continuous
 62
     0
370
     0
100
AcDbLine
 10
2.5
 20
0.0
 30
0.0
 11
3.75
 21
0.0
 31
0.0
  0
ENDBLK
  5
A4
330
A2
100
AcDbEntity
  8
0
100
AcDbBlockEnd
  0
BLOCK
  5
AF
330
AE
100
AcDbEntity
  8
0
100
AcDbBlockBegin
  2
SW_CENTERMARKSYMBOL_2
 70
     0
 10
0.0
 20
0.0
 30
0.0
  3
SW_CENTERMARKSYMBOL_2
  1

  0
LINE
  5
B1
330
AE
100
AcDbEntity
  8
0
  6
Continuous
 62
     0
370
     0
100
AcDbLine
 10
0.0
 20
0.0
 30
0.0
 11
0.0
 21
2.5
 31
0.0
  0
LINE
  5
B2
330
AE
100
AcDbEntity
  8
0
  6
Continuous
 62
     0
370
     0
100
AcDbLine
 10
0.0
 20
0.0
 30
0.0
 11
-2.5
 21
0.0
 31
0.0
  0
LINE
  5
B3
330
AE
100
AcDbEntity
  8
0
  6
Continuous
 62
     0
370
     0
100
AcDbLine
 10
0.0
 20
0.0
 30
0.0
 11
0.0
 21
-2.5
 31
0.0
  0
LINE
  5
B4
330
AE
100
AcDbEntity
  8
0
  6
Continuous
 62
     0
370
     0
100
AcDbLine
 10
0.0
 20
0.0
 30
0.0
 11
2.5
 21
0.0
 31
0.0
  0
LINE
  5
B5
330
AE
100
AcDbEntity
  8
0
  6
Continuous
 62
     0
370
     0
100
AcDbLine
 10
0.0
 20
2.5
 30
0.0
 11
0.0
 21
5.0
 31
0.0
  0
LINE
  5
B6
330
AE
100
AcDbEntity
  8
0
  6
Continuous
 62
     0
370
     0
100
AcDbLine
 10
-2.5
 20
0.0
 30
0.0
 11
-5.0
 21
0.0
 31
0.0
  0
LINE
  5
B7
330
AE
100
AcDbEntity
  8
0
  6
Continuous
 62
     0
370
     0
100
AcDbLine
 10
0.0
 20
-2.5
 30
0.0
 11
0.0
 21
-5.0
 31
0.0
  0
LINE
  5
B8
330
AE
100
AcDbEntity
  8
0
  6
Continuous
 62
     0
370
     0
100
AcDbLine
 10
2.5
 20
0.0
 30
0.0
 11
5.0
 21
0.0
 31
0.0
  0
ENDBLK
  5
B0
330
AE
100
AcDbEntity
  8
0
100
AcDbBlockEnd
  0
BLOCK
  5
F0
330
EF
100
AcDbEntity
  8
0
100
AcDbBlockBegin
  2
SW_CENTERMARKSYMBOL_3
 70
     0
 10
0.0
 20
0.0
 30
0.0
  3
SW_CENTERMARKSYMBOL_3
  1

  0
LINE
  5
F2
330
EF
100
AcDbEntity
  8
0
  6
Continuous
 62
     0
370
     0
100
AcDbLine
 10
0.0
 20
0.0
 30
0.0
 11
0.0
 21
2.5
 31
0.0
  0
LINE
  5
F3
330
EF
100
AcDbEntity
  8
0
  6
Continuous
 62
     0
370
     0
100
AcDbLine
 10
0.0
 20
0.0
 30
0.0
 11
-2.5
 21
0.0
 31
0.0
  0
LINE
  5
F4
330
EF
100
AcDbEntity
  8
0
  6
Continuous
 62
     0
370
     0
100
AcDbLine
 10
0.0
 20
0.0
 30
0.0
 11
0.0
 21
-2.5
 31
0.0
  0
LINE
  5
F5
330
EF
100
AcDbEntity
  8
0
  6
Continuous
 62
     0
370
     0
100
AcDbLine
 10
0.0
 20
0.0
 30
0.0
 11
2.5
 21
0.0
 31
0.0
  0
LINE
  5
F6
330
EF
100
AcDbEntity
  8
0
  6
Continuous
 62
     0
370
     0
100
AcDbLine
 10
0.0
 20
2.5
 30
0.0
 11
0.0
 21
5.0
 31
0.0
  0
LINE
  5
F7
330
EF
100
AcDbEntity
  8
0
  6
Continuous
 62
     0
370
     0
100
AcDbLine
 10
-2.5
 20
0.0
 30
0.0
 11
-5.0
 21
0.0
 31
0.0
  0
LINE
  5
F8
330
EF
100
AcDbEntity
  8
0
  6
Continuous
 62
     0
370
     0
100
AcDbLine
 10
0.0
 20
-2.5
 30
0.0
 11
0.0
 21
-5.0
 31
0.0
  0
LINE
  5
F9
330
EF
100
AcDbEntity
  8
0
  6
Continuous
 62
     0
370
     0
100
AcDbLine
 10
2.5
 20
0.0
 30
0.0
 11
5.0
 21
0.0
 31
0.0
  0
ENDBLK
  5
F1
330
EF
100
AcDbEntity
  8
0
100
AcDbBlockEnd
  0
BLOCK
  5
FC
330
FB
100
AcDbEntity
  8
0
100
AcDbBlockBegin
  2
SW_CENTERMARKSYMBOL_4
 70
     0
 10
0.0
 20
0.0
 30
0.0
  3
SW_CENTERMARKSYMBOL_4
  1

  0
LINE
  5
FE
330
FB
100
AcDbEntity
  8
0
  6
Continuous
 62
     0
370
     0
100
AcDbLine
 10
0.0
 20
0.0
 30
0.0
 11
0.0
 21
2.5
 31
0.0
  0
LINE
  5
FF
330
FB
100
AcDbEntity
  8
0
  6
Continuous
 62
     0
370
     0
100
AcDbLine
 10
0.0
 20
0.0
 30
0.0
 11
-2.5
 21
0.0
 31
0.0
  0
LINE
  5
100
330
FB
100
AcDbEntity
  8
0
  6
Continuous
 62
     0
370
     0
100
AcDbLine
 10
0.0
 20
0.0
 30
0.0
 11
0.0
 21
-2.5
 31
0.0
  0
LINE
  5
101
330
FB
100
AcDbEntity
  8
0
  6
Continuous
 62
     0
370
     0
100
AcDbLine
 10
0.0
 20
0.0
 30
0.0
 11
2.5
 21
0.0
 31
0.0
  0
LINE
  5
102
330
FB
100
AcDbEntity
  8
0
  6
Continuous
 62
     0
370
     0
100
AcDbLine
 10
0.0
 20
2.5
 30
0.0
 11
0.0
 21
5.0
 31
0.0
  0
LINE
  5
103
330
FB
100
AcDbEntity
  8
0
  6
Continuous
 62
     0
370
     0
100
AcDbLine
 10
-2.5
 20
0.0
 30
0.0
 11
-5.0
 21
0.0
 31
0.0
  0
LINE
  5
104
330
FB
100
AcDbEntity
  8
0
  6
Continuous
 62
     0
370
     0
100
AcDbLine
 10
0.0
 20
-2.5
 30
0.0
 11
0.0
 21
-5.0
 31
0.0
  0
LINE
  5
105
330
FB
100
AcDbEntity
  8
0
  6
Continuous
 62
     0
370
     0
100
AcDbLine
 10
2.5
 20
0.0
 30
0.0
 11
5.0
 21
0.0
 31
0.0
  0
ENDBLK
  5
FD
330
FB
100
AcDbEntity
  8
0
100
AcDbBlockEnd
  0
BLOCK
  5
14A
330
149
100
AcDbEntity
  8
0
100
AcDbBlockBegin
  2
SW_CENTERMARKSYMBOL_5
 70
     0
 10
0.0
 20
0.0
 30
0.0
  3
SW_CENTERMARKSYMBOL_5
  1

  0
LINE
  5
14C
330
149
100
AcDbEntity
  8
0
  6
Continuous
 62
     0
370
     0
100
AcDbLine
 10
0.0
 20
0.0
 30
0.0
 11
0.0
 21
2.5
 31
0.0
  0
LINE
  5
14D
330
149
100
AcDbEntity
  8
0
  6
Continuous
 62
     0
370
     0
100
AcDbLine
 10
0.0
 20
0.0
 30
0.0
 11
-2.5
 21
0.0
 31
0.0
  0
LINE
  5
14E
330
149
100
AcDbEntity
  8
0
  6
Continuous
 62
     0
370
     0
100
AcDbLine
 10
0.0
 20
0.0
 30
0.0
 11
0.0
 21
-2.5
 31
0.0
  0
LINE
  5
14F
330
149
100
AcDbEntity
  8
0
  6
Continuous
 62
     0
370
     0
100
AcDbLine
 10
0.0
 20
0.0
 30
0.0
 11
2.5
 21
0.0
 31
0.0
  0
LINE
  5
150
330
149
100
AcDbEntity
  8
0
  6
Continuous
 62
     0
370
     0
100
AcDbLine
 10
0.0
 20
5.0
 30
0.0
 11
0.0
 21
6.1
 31
0.0
  0
LINE
  5
151
330
149
100
AcDbEntity
  8
0
  6
Continuous
 62
     0
370
     0
100
AcDbLine
 10
-5.0
 20
0.0
 30
0.0
 11
-6.1
 21
0.0
 31
0.0
  0
LINE
  5
152
330
149
100
AcDbEntity
  8
0
  6
Continuous
 62
     0
370
     0
100
AcDbLine
 10
0.0
 20
-5.0
 30
0.0
 11
0.0
 21
-6.1
 31
0.0
  0
LINE
  5
153
330
149
100
AcDbEntity
  8
0
  6
Continuous
 62
     0
370
     0
100
AcDbLine
 10
5.0
 20
0.0
 30
0.0
 11
6.1
 21
0.0
 31
0.0
  0
ENDBLK
  5
14B
330
149
100
AcDbEntity
  8
0
100
AcDbBlockEnd
  0
BLOCK
  5
156
330
155
100
AcDbEntity
  8
0
100
AcDbBlockBegin
  2
SW_CENTERMARKSYMBOL_6
 70
     0
 10
0.0
 20
0.0
 30
0.0
  3
SW_CENTERMARKSYMBOL_6
  1

  0
LINE
  5
158
330
155
100
AcDbEntity
  8
0
  6
Continuous
 62
     0
370
     0
100
AcDbLine
 10
0.0
 20
0.0
 30
0.0
 11
0.0
 21
2.5
 31
0.0
  0
LINE
  5
159
330
155
100
AcDbEntity
  8
0
  6
Continuous
 62
     0
370
     0
100
AcDbLine
 10
0.0
 20
0.0
 30
0.0
 11
-2.5
 21
0.0
 31
0.0
  0
LINE
  5
15A
330
155
100
AcDbEntity
  8
0
  6
Continuous
 62
     0
370
     0
100
AcDbLine
 10
0.0
 20
0.0
 30
0.0
 11
0.0
 21
-2.5
 31
0.0
  0
LINE
  5
15B
330
155
100
AcDbEntity
  8
0
  6
Continuous
 62
     0
370
     0
100
AcDbLine
 10
0.0
 20
0.0
 30
0.0
 11
2.5
 21
0.0
 31
0.0
  0
LINE
  5
15C
330
155
100
AcDbEntity
  8
0
  6
Continuous
 62
     0
370
     0
100
AcDbLine
 10
0.0
 20
2.5
 30
0.0
 11
0.0
 21
3.0
 31
0.0
  0
LINE
  5
15D
330
155
100
AcDbEntity
  8
0
  6
Continuous
 62
     0
370
     0
100
AcDbLine
 10
-2.5
 20
0.0
 30
0.0
 11
-3.0
 21
0.0
 31
0.0
  0
LINE
  5
15E
330
155
100
AcDbEntity
  8
0
  6
Continuous
 62
     0
370
     0
100
AcDbLine
 10
0.0
 20
-2.5
 30
0.0
 11
0.0
 21
-3.0
 31
0.0
  0
LINE
  5
15F
330
155
100
AcDbEntity
  8
0
  6
Continuous
 62
     0
370
     0
100
AcDbLine
 10
2.5
 20
0.0
 30
0.0
 11
3.0
 21
0.0
 31
0.0
  0
ENDBLK
  5
157
330
155
100
AcDbEntity
  8
0
100
AcDbBlockEnd
  0
BLOCK
  5
162
330
161
100
AcDbEntity
  8
0
100
AcDbBlockBegin
  2
SW_CENTERMARKSYMBOL_7
 70
     0
 10
0.0
 20
0.0
 30
0.0
  3
SW_CENTERMARKSYMBOL_7
  1

  0
LINE
  5
164
330
161
100
AcDbEntity
  8
0
  6
Continuous
 62
     0
370
     0
100
AcDbLine
 10
0.0
 20
0.0
 30
0.0
 11
0.0
 21
2.5
 31
0.0
  0
LINE
  5
165
330
161
100
AcDbEntity
  8
0
  6
Continuous
 62
     0
370
     0
100
AcDbLine
 10
0.0
 20
0.0
 30
0.0
 11
-2.5
 21
0.0
 31
0.0
  0
LINE
  5
166
330
161
100
AcDbEntity
  8
0
  6
Continuous
 62
     0
370
     0
100
AcDbLine
 10
0.0
 20
0.0
 30
0.0
 11
0.0
 21
-2.5
 31
0.0
  0
LINE
  5
167
330
161
100
AcDbEntity
  8
0
  6
Continuous
 62
     0
370
     0
100
AcDbLine
 10
0.0
 20
0.0
 30
0.0
 11
2.5
 21
0.0
 31
0.0
  0
LINE
  5
168
330
161
100
AcDbEntity
  8
0
  6
Continuous
 62
     0
370
     0
100
AcDbLine
 10
0.0
 20
5.0
 30
0.0
 11
0.0
 21
6.0
 31
0.0
  0
LINE
  5
169
330
161
100
AcDbEntity
  8
0
  6
Continuous
 62
     0
370
     0
100
AcDbLine
 10
-5.0
 20
0.0
 30
0.0
 11
-6.0
 21
0.0
 31
0.0
  0
LINE
  5
16A
330
161
100
AcDbEntity
  8
0
  6
Continuous
 62
     0
370
     0
100
AcDbLine
 10
0.0
 20
-5.0
 30
0.0
 11
0.0
 21
-6.0
 31
0.0
  0
LINE
  5
16B
330
161
100
AcDbEntity
  8
0
  6
Continuous
 62
     0
370
     0
100
AcDbLine
 10
5.0
 20
0.0
 30
0.0
 11
6.0
 21
0.0
 31
0.0
  0
ENDBLK
  5
163
330
161
100
AcDbEntity
  8
0
100
AcDbBlockEnd
  0
BLOCK
  5
16E
330
16D
100
AcDbEntity
  8
0
100
AcDbBlockBegin
  2
SW_CENTERMARKSYMBOL_8
 70
     0
 10
0.0
 20
0.0
 30
0.0
  3
SW_CENTERMARKSYMBOL_8
  1

  0
LINE
  5
170
330
16D
100
AcDbEntity
  8
0
  6
Continuous
 62
     0
370
     0
100
AcDbLine
 10
0.0
 20
0.0
 30
0.0
 11
0.0
 21
2.5
 31
0.0
  0
LINE
  5
171
330
16D
100
AcDbEntity
  8
0
  6
Continuous
 62
     0
370
     0
100
AcDbLine
 10
0.0
 20
0.0
 30
0.0
 11
-2.5
 21
0.0
 31
0.0
  0
LINE
  5
172
330
16D
100
AcDbEntity
  8
0
  6
Continuous
 62
     0
370
     0
100
AcDbLine
 10
0.0
 20
0.0
 30
0.0
 11
0.0
 21
-2.5
 31
0.0
  0
LINE
  5
173
330
16D
100
AcDbEntity
  8
0
  6
Continuous
 62
     0
370
     0
100
AcDbLine
 10
0.0
 20
0.0
 30
0.0
 11
2.5
 21
0.0
 31
0.0
  0
LINE
  5
174
330
16D
100
AcDbEntity
  8
0
  6
Continuous
 62
     0
370
     0
100
AcDbLine
 10
0.0
 20
5.0
 30
0.0
 11
0.0
 21
6.0
 31
0.0
  0
LINE
  5
175
330
16D
100
AcDbEntity
  8
0
  6
Continuous
 62
     0
370
     0
100
AcDbLine
 10
-5.0
 20
0.0
 30
0.0
 11
-6.0
 21
0.0
 31
0.0
  0
LINE
  5
176
330
16D
100
AcDbEntity
  8
0
  6
Continuous
 62
     0
370
     0
100
AcDbLine
 10
0.0
 20
-5.0
 30
0.0
 11
0.0
 21
-6.0
 31
0.0
  0
LINE
  5
177
330
16D
100
AcDbEntity
  8
0
  6
Continuous
 62
     0
370
     0
100
AcDbLine
 10
5.0
 20
0.0
 30
0.0
 11
6.0
 21
0.0
 31
0.0
  0
ENDBLK
  5
16F
330
16D
100
AcDbEntity
  8
0
100
AcDbBlockEnd
  0
BLOCK
  5
17A
330
179
100
AcDbEntity
  8
0
100
AcDbBlockBegin
  2
SW_CENTERMARKSYMBOL_9
 70
     0
 10
0.0
 20
0.0
 30
0.0
  3
SW_CENTERMARKSYMBOL_9
  1

  0
LINE
  5
17C
330
179
100
AcDbEntity
  8
0
  6
Continuous
 62
     0
370
     0
100
AcDbLine
 10
0.0
 20
0.0
 30
0.0
 11
0.0
 21
2.5
 31
0.0
  0
LINE
  5
17D
330
179
100
AcDbEntity
  8
0
  6
Continuous
 62
     0
370
     0
100
AcDbLine
 10
0.0
 20
0.0
 30
0.0
 11
-2.5
 21
0.0
 31
0.0
  0
LINE
  5
17E
330
179
100
AcDbEntity
  8
0
  6
Continuous
 62
     0
370
     0
100
AcDbLine
 10
0.0
 20
0.0
 30
0.0
 11
0.0
 21
-2.5
 31
0.0
  0
LINE
  5
17F
330
179
100
AcDbEntity
  8
0
  6
Continuous
 62
     0
370
     0
100
AcDbLine
 10
0.0
 20
0.0
 30
0.0
 11
2.5
 21
0.0
 31
0.0
  0
LINE
  5
180
330
179
100
AcDbEntity
  8
0
  6
Continuous
 62
     0
370
     0
100
AcDbLine
 10
0.0
 20
5.0
 30
0.0
 11
0.0
 21
6.0
 31
0.0
  0
LINE
  5
181
330
179
100
AcDbEntity
  8
0
  6
Continuous
 62
     0
370
     0
100
AcDbLine
 10
-5.0
 20
0.0
 30
0.0
 11
-6.0
 21
0.0
 31
0.0
  0
LINE
  5
182
330
179
100
AcDbEntity
  8
0
  6
Continuous
 62
     0
370
     0
100
AcDbLine
 10
0.0
 20
-5.0
 30
0.0
 11
0.0
 21
-6.0
 31
0.0
  0
LINE
  5
183
330
179
100
AcDbEntity
  8
0
  6
Continuous
 62
     0
370
     0
100
AcDbLine
 10
5.0
 20
0.0
 30
0.0
 11
6.0
 21
0.0
 31
0.0
  0
ENDBLK
  5
17B
330
179
100
AcDbEntity
  8
0
100
AcDbBlockEnd
  0
BLOCK
  5
186
330
185
100
AcDbEntity
  8
0
100
AcDbBlockBegin
  2
SW_CENTERMARKSYMBOL_10
 70
     0
 10
0.0
 20
0.0
 30
0.0
  3
SW_CENTERMARKSYMBOL_10
  1

  0
LINE
  5
188
330
185
100
AcDbEntity
  8
0
  6
Continuous
 62
     0
370
     0
100
AcDbLine
 10
0.0
 20
0.0
 30
0.0
 11
0.0
 21
2.5
 31
0.0
  0
LINE
  5
189
330
185
100
AcDbEntity
  8
0
  6
Continuous
 62
     0
370
     0
100
AcDbLine
 10
0.0
 20
0.0
 30
0.0
 11
-2.5
 21
0.0
 31
0.0
  0
LINE
  5
18A
330
185
100
AcDbEntity
  8
0
  6
Continuous
 62
     0
370
     0
100
AcDbLine
 10
0.0
 20
0.0
 30
0.0
 11
0.0
 21
-2.5
 31
0.0
  0
LINE
  5
18B
330
185
100
AcDbEntity
  8
0
  6
Continuous
 62
     0
370
     0
100
AcDbLine
 10
0.0
 20
0.0
 30
0.0
 11
2.5
 21
0.0
 31
0.0
  0
LINE
  5
18C
330
185
100
AcDbEntity
  8
0
  6
Continuous
 62
     0
370
     0
100
AcDbLine
 10
0.0
 20
5.0
 30
0.0
 11
0.0
 21
6.0
 31
0.0
  0
LINE
  5
18D
330
185
100
AcDbEntity
  8
0
  6
Continuous
 62
     0
370
     0
100
AcDbLine
 10
-5.0
 20
0.0
 30
0.0
 11
-6.0
 21
0.0
 31
0.0
  0
LINE
  5
18E
330
185
100
AcDbEntity
  8
0
  6
Continuous
 62
     0
370
     0
100
AcDbLine
 10
0.0
 20
-5.0
 30
0.0
 11
0.0
 21
-6.0
 31
0.0
  0
LINE
  5
18F
330
185
100
AcDbEntity
  8
0
  6
Continuous
 62
     0
370
     0
100
AcDbLine
 10
5.0
 20
0.0
 30
0.0
 11
6.0
 21
0.0
 31
0.0
  0
ENDBLK
  5
187
330
185
100
AcDbEntity
  8
0
100
AcDbBlockEnd
  0
BLOCK
  5
192
330
191
100
AcDbEntity
  8
0
100
AcDbBlockBegin
  2
SW_CENTERMARKSYMBOL_11
 70
     0
 10
0.0
 20
0.0
 30
0.0
  3
SW_CENTERMARKSYMBOL_11
  1

  0
LINE
  5
194
330
191
100
AcDbEntity
  8
0
  6
Continuous
 62
     0
370
     0
100
AcDbLine
 10
0.0
 20
0.0
 30
0.0
 11
0.0
 21
2.5
 31
0.0
  0
LINE
  5
195
330
191
100
AcDbEntity
  8
0
  6
Continuous
 62
     0
370
     0
100
AcDbLine
 10
0.0
 20
0.0
 30
0.0
 11
-2.5
 21
0.0
 31
0.0
  0
LINE
  5
196
330
191
100
AcDbEntity
  8
0
  6
Continuous
 62
     0
370
     0
100
AcDbLine
 10
0.0
 20
0.0
 30
0.0
 11
0.0
 21
-2.5
 31
0.0
  0
LINE
  5
197
330
191
100
AcDbEntity
  8
0
  6
Continuous
 62
     0
370
     0
100
AcDbLine
 10
0.0
 20
0.0
 30
0.0
 11
2.5
 21
0.0
 31
0.0
  0
LINE
  5
198
330
191
100
AcDbEntity
  8
0
  6
Continuous
 62
     0
370
     0
100
AcDbLine
 10
0.0
 20
5.0
 30
0.0
 11
0.0
 21
6.1
 31
0.0
  0
LINE
  5
199
330
191
100
AcDbEntity
  8
0
  6
Continuous
 62
     0
370
     0
100
AcDbLine
 10
-5.0
 20
0.0
 30
0.0
 11
-6.1
 21
0.0
 31
0.0
  0
LINE
  5
19A
330
191
100
AcDbEntity
  8
0
  6
Continuous
 62
     0
370
     0
100
AcDbLine
 10
0.0
 20
-5.0
 30
0.0
 11
0.0
 21
-6.1
 31
0.0
  0
LINE
  5
19B
330
191
100
AcDbEntity
  8
0
  6
Continuous
 62
     0
370
     0
100
AcDbLine
 10
5.0
 20
0.0
 30
0.0
 11
6.1
 21
0.0
 31
0.0
  0
ENDBLK
  5
193
330
191
100
AcDbEntity
  8
0
100
AcDbBlockEnd
  0
BLOCK
  5
19E
330
19D
100
AcDbEntity
  8
0
100
AcDbBlockBegin
  2
SW_CENTERMARKSYMBOL_12
 70
     0
 10
0.0
 20
0.0
 30
0.0
  3
SW_CENTERMARKSYMBOL_12
  1

  0
LINE
  5
1A0
330
19D
100
AcDbEntity
  8
0
  6
Continuous
 62
     0
370
     0
100
AcDbLine
 10
0.0
 20
0.0
 30
0.0
 11
0.0
 21
2.5
 31
0.0
  0
LINE
  5
1A1
330
19D
100
AcDbEntity
  8
0
  6
Continuous
 62
     0
370
     0
100
AcDbLine
 10
0.0
 20
0.0
 30
0.0
 11
-2.5
 21
0.0
 31
0.0
  0
LINE
  5
1A2
330
19D
100
AcDbEntity
  8
0
  6
Continuous
 62
     0
370
     0
100
AcDbLine
 10
0.0
 20
0.0
 30
0.0
 11
0.0
 21
-2.5
 31
0.0
  0
LINE
  5
1A3
330
19D
100
AcDbEntity
  8
0
  6
Continuous
 62
     0
370
     0
100
AcDbLine
 10
0.0
 20
0.0
 30
0.0
 11
2.5
 21
0.0
 31
0.0
  0
LINE
  5
1A4
330
19D
100
AcDbEntity
  8
0
  6
Continuous
 62
     0
370
     0
100
AcDbLine
 10
0.0
 20
2.5
 30
0.0
 11
0.0
 21
3.0
 31
0.0
  0
LINE
  5
1A5
330
19D
100
AcDbEntity
  8
0
  6
Continuous
 62
     0
370
     0
100
AcDbLine
 10
-2.5
 20
0.0
 30
0.0
 11
-3.0
 21
0.0
 31
0.0
  0
LINE
  5
1A6
330
19D
100
AcDbEntity
  8
0
  6
Continuous
 62
     0
370
     0
100
AcDbLine
 10
0.0
 20
-2.5
 30
0.0
 11
0.0
 21
-3.0
 31
0.0
  0
LINE
  5
1A7
330
19D
100
AcDbEntity
  8
0
  6
Continuous
 62
     0
370
     0
100
AcDbLine
 10
2.5
 20
0.0
 30
0.0
 11
3.0
 21
0.0
 31
0.0
  0
ENDBLK
  5
19F
330
19D
100
AcDbEntity
  8
0
100
AcDbBlockEnd
  0
ENDSEC
  0
SECTION
  2
ENTITIES
  0
CIRCLE
  5
62
330
1F
100
AcDbEntity
  8
0
  6
Continuous
 62
     7
370
     0
100
AcDbCircle
 10
105.2446303034
 20
47.525
 30
0.0
 40
1.25
  0
CIRCLE
  5
63
330
1F
100
AcDbEntity
  8
0
  6
Continuous
 62
     7
370
     0
100
AcDbCircle
 10
105.2446303034
 20
47.525
 30
0.0
 40
1.549999999999997
  0
CIRCLE
  5
64
330
1F
100
AcDbEntity
  8
0
  6
Continuous
 62
     7
370
     0
100
AcDbCircle
 10
56.8446303034
 20
47.525
 30
0.0
 40
1.249999999999986
  0
CIRCLE
  5
65
330
1F
100
AcDbEntity
  8
0
  6
Continuous
 62
     7
370
     0
100
AcDbCircle
 10
56.8446303034
 20
47.525
 30
0.0
 40
1.549999999999997
  0
CIRCLE
  5
66
330
1F
100
AcDbEntity
  8
0
  6
Continuous
 62
     7
370
     0
100
AcDbCircle
 10
81.0446303034
 20
56.075
 30
0.0
 40
2.5
  0
CIRCLE
  5
67
330
1F
100
AcDbEntity
  8
0
  6
Continuous
 62
     7
370
     0
100
AcDbCircle
 10
81.0446303034
 20
56.075
 30
0.0
 40
3.100000000000023
  0
LINE
  5
68
330
1F
100
AcDbEntity
  8
0
  6
Continuous
 62
     7
370
     0
100
AcDbLine
 10
93.3446304888
 20
26.825
 30
0.0
 11
108.0239196253
 21
26.825
 31
0.0
  0
LINE
  5
69
330
1F
100
AcDbEntity
  8
0
  6
Continuous
 62
     7
370
     0
100
AcDbLine
 10
51.8446303034
 20
29.0457106781
 30
0.0
 11
54.0653409816
 21
26.825
 31
0.0
  0
LINE
  5
6A
330
1F
100
AcDbEntity
  8
0
  6
Continuous
 62
     7
370
     0
100
AcDbLine
 10
89.6946303034
 20
61.775
 30
0.0
 11
72.3946303034
 21
61.775
 31
0.0
  0
LINE
  5
6B
330
1F
100
AcDbEntity
  8
0
  6
Continuous
 62
     7
370
     0
100
AcDbLine
 10
89.9446303034
 20
61.525
 30
0.0
 11
89.6946303034
 21
61.775
 31
0.0
  0
LINE
  5
6C
330
1F
100
AcDbEntity
  8
0
  6
Continuous
 62
     7
370
     0
100
AcDbLine
 10
54.0653409816
 20
26.825
 30
0.0
 11
68.7446301184
 21
26.825
 31
0.0
  0
LINE
  5
6D
330
1F
100
AcDbEntity
  8
0
  6
Continuous
 62
     7
370
     0
100
AcDbLine
 10
93.0240793036
 20
46.5930508356
 30
0.0
 11
93.6087313036
 21
48.7749998356
 31
0.0
  0
LINE
  5
6E
330
1F
100
AcDbEntity
  8
0
  6
Continuous
 62
     7
370
     0
100
AcDbLine
 10
93.3446303036
 20
46.2724998356
 30
0.0
 11
93.0240793036
 21
46.5930508356
 31
0.0
  0
LINE
  5
6F
330
1F
100
AcDbEntity
  8
0
  6
Continuous
 62
     7
370
     0
100
AcDbLine
 10
51.8446303034
 20
60.525
 30
0.0
 11
51.8446303034
 21
29.0457106781
 31
0.0
  0
ARC
  5
70
330
1F
100
AcDbEntity
  8
0
  6
Continuous
 62
     7
370
     0
100
AcDbCircle
 10
52.8446303034
 20
60.525
 30
0.0
 40
1.0
100
AcDbArc
 50
90.0
 51
180.0
  0
LINE
  5
71
330
1F
100
AcDbEntity
  8
0
  6
Continuous
 62
     7
370
     0
100
AcDbLine
 10
72.1446303034
 20
61.525
 30
0.0
 11
52.8446303034
 21
61.525
 31
0.0
  0
LINE
  5
72
330
1F
100
AcDbEntity
  8
0
  6
Continuous
 62
     7
370
     0
100
AcDbLine
 10
72.3946303034
 20
61.775
 30
0.0
 11
72.1446303034
 21
61.525
 31
0.0
  0
LINE
  5
73
330
1F
100
AcDbEntity
  8
0
  6
Continuous
 62
     7
370
     0
100
AcDbLine
 10
90.8426923036
 20
31.9142388356
 30
0.0
 11
90.0446303036
 21
32.3749998356
 31
0.0
  0
ARC
  5
74
330
1F
100
AcDbEntity
  8
0
  6
Continuous
 62
     7
370
     0
100
AcDbCircle
 10
93.7026304833
 20
31.9329999559
 30
0.0
 40
2.859999715210258
100
AcDbArc
 50
180.3758534371
 51
262.8091475692
  0
LINE
  5
75
330
1F
100
AcDbEntity
  8
0
  6
Continuous
 62
     7
370
     0
100
AcDbLine
 10
109.2446303034
 20
61.525
 30
0.0
 11
89.9446303034
 21
61.525
 31
0.0
  0
ARC
  5
76
330
1F
100
AcDbEntity
  8
0
  6
Continuous
 62
     7
370
     0
100
AcDbCircle
 10
109.2446303034
 20
60.525
 30
0.0
 40
1.0
100
AcDbArc
 50
0.0
 51
90.0
  0
LINE
  5
77
330
1F
100
AcDbEntity
  8
0
  6
Continuous
 62
     7
370
     0
100
AcDbLine
 10
110.2446303034
 20
29.0457106781
 30
0.0
 11
110.2446303034
 21
60.525
 31
0.0
  0
LINE
  5
78
330
1F
100
AcDbEntity
  8
0
  6
Continuous
 62
     7
370
     0
100
AcDbLine
 10
108.0239196253
 20
26.825
 30
0.0
 11
110.2446303034
 21
29.0457106781
 31
0.0
  0
ARC
  5
79
330
1F
100
AcDbEntity
  8
0
  6
Continuous
 62
     7
370
     0
100
AcDbCircle
 10
68.3866302949
 20
41.3169998356
 30
0.0
 40
2.859999999999976
100
AcDbArc
 50
0.375855
 51
82.809148
  0
LINE
  5
7A
330
1F
100
AcDbEntity
  8
0
  6
Continuous
 62
     7
370
     0
100
AcDbLine
 10
68.7446303036
 20
46.2724998356
 30
0.0
 11
68.7446303036
 21
44.1545050768
 31
0.0
  0
LINE
  5
7B
330
1F
100
AcDbEntity
  8
0
  6
Continuous
 62
     7
370
     0
100
AcDbLine
 10
69.0651813036
 20
46.5930508356
 30
0.0
 11
68.7446303036
 21
46.2724998356
 31
0.0
  0
LINE
  5
7C
330
1F
100
AcDbEntity
  8
0
  6
Continuous
 62
     7
370
     0
100
AcDbLine
 10
68.4805303036
 20
48.7749998356
 30
0.0
 11
69.0651813036
 21
46.5930508356
 31
0.0
  0
LINE
  5
7D
330
1F
100
AcDbEntity
  8
0
  6
Continuous
 62
     7
370
     0
100
AcDbLine
 10
93.6087313036
 20
48.7749998356
 30
0.0
 11
68.4805303036
 21
48.7749998356
 31
0.0
  0
LINE
  5
7E
330
1F
100
AcDbEntity
  8
0
  6
Continuous
 62
     7
370
     0
100
AcDbLine
 10
93.3446304888
 20
26.825
 30
0.0
 11
93.3446304888
 21
29.095495
 31
0.0
  0
LINE
  5
7F
330
1F
100
AcDbEntity
  8
0
  6
Continuous
 62
     7
370
     0
100
AcDbLine
 10
68.7446301184
 20
29.095495
 30
0.0
 11
68.7446301184
 21
26.825
 31
0.0
  0
LINE
  5
80
330
1F
100
AcDbEntity
  8
0
  6
Continuous
 62
     7
370
     0
100
AcDbLine
 10
93.3446303036
 20
44.1545050768
 30
0.0
 11
93.3446303036
 21
46.2724998356
 31
0.0
  0
ARC
  5
81
330
1F
100
AcDbEntity
  8
0
  6
Continuous
 62
     7
370
     0
100
AcDbCircle
 10
93.7026303124
 20
41.3169998356
 30
0.0
 40
2.859999999999962
100
AcDbArc
 50
97.190852
 51
179.624145
  0
LINE
  5
82
330
1F
100
AcDbEntity
  8
0
  6
Continuous
 62
     7
370
     0
100
AcDbLine
 10
90.0446303036
 20
40.8749998356
 30
0.0
 11
90.8426918485
 21
41.3357610358
 31
0.0
  0
LINE
  5
83
330
1F
100
AcDbEntity
  8
0
  6
Continuous
 62
     7
370
     0
100
AcDbLine
 10
90.0446303036
 20
32.3749998356
 30
0.0
 11
90.0446303036
 21
40.8749998356
 31
0.0
  0
ARC
  5
84
330
1F
100
AcDbEntity
  8
0
  6
Continuous
 62
     7
370
     0
100
AcDbCircle
 10
68.386630124
 20
31.9329999559
 30
0.0
 40
2.859999715210258
100
AcDbArc
 50
277.1908524308
 51
359.6241465629
  0
LINE
  5
85
330
1F
100
AcDbEntity
  8
0
  6
Continuous
 62
     7
370
     0
100
AcDbLine
 10
72.0446303036
 20
32.3749998356
 30
0.0
 11
71.2465683036
 21
31.9142388356
 31
0.0
  0
LINE
  5
86
330
1F
100
AcDbEntity
  8
0
  6
Continuous
 62
     7
370
     0
100
AcDbLine
 10
72.0446303036
 20
40.8749998356
 30
0.0
 11
72.0446303036
 21
32.3749998356
 31
0.0
  0
LINE
  5
87
330
1F
100
AcDbEntity
  8
0
  6
Continuous
 62
     7
370
     0
100
AcDbLine
 10
71.2465687588
 20
41.3357610358
 30
0.0
 11
72.0446303036
 21
40.8749998356
 31
0.0
  0
SPLINE
  5
88
330
1F
100
AcDbEntity
  8
0
  6
Continuous
 62
     7
370
     0
100
AcDbSpline
210
0.0
220
0.0
230
1.0
 70
     8
 71
     3
 72
    26
 73
    22
 74
     0
 42
0.00000001
 43
0.00000001
 40
-0.1250000000000006
 40
-0.1250000000000006
 40
0.0
 40
0.0
 40
0.0624999999999998
 40
0.0624999999999998
 40
0.1249999999999997
 40
0.1249999999999997
 40
0.2499999999999993
 40
0.2499999999999993
 40
0.3749999999999989
 40
0.3749999999999989
 40
0.4999999999999986
 40
0.4999999999999986
 40
0.5624999999999984
 40
0.5624999999999984
 40
0.6249999999999982
 40
0.6249999999999982
 40
0.7499999999999988
 40
0.7499999999999988
 40
0.8749999999999994
 40
0.8749999999999994
 40
1.0
 40
1.0
 40
1.0625
 40
1.0625
 10
80.8832712462837
 20
55.92730008410621
 30
0.0
 10
80.9408683233191
 20
55.86144032060688
 30
0.0
 10
80.96432930880124
 20
55.84315869436727
 30
0.0
 10
81.01838937842152
 20
55.82142328492314
 30
0.0
 10
81.04927279798713
 20
55.81883739028098
 30
0.0
 10
81.13470566189775
 20
55.83971377705924
 30
0.0
 10
81.17791403311973
 20
55.88584157362948
 30
0.0
 10
81.22966344507232
 20
55.99035020352969
 30
0.0
 10
81.2394732308832
 20
56.04969670479343
 30
0.0
 10
81.22729620118855
 20
56.16667320003407
 30
0.0
 10
81.20579482816309
 20
56.22284134980166
 30
0.0
 10
81.14869547462992
 20
56.28825327868634
 30
0.0
 10
81.1250968636051
 20
56.30674837136966
 30
0.0
 10
81.07094487416694
 20
56.32857335578517
 30
0.0
 10
81.04027734602049
 20
56.33120487101316
 30
0.0
 10
80.9543686163365
 20
56.31029747678831
 30
0.0
 10
80.91134108439417
 20
56.26406851923099
 30
0.0
 10
80.85975245048324
 20
56.16004199665736
 30
0.0
 10
80.84984354466062
 20
56.10002628054004
 30
0.0
 10
80.86187754877834
 20
55.98389928315578
 30
0.0
 10
80.8832712462837
 20
55.92730008410621
 30
0.0
 10
80.9408683233191
 20
55.86144032060688
 30
0.0
  0
LINE
  5
89
330
1F
100
AcDbEntity
  8
0
  6
Continuous
 62
     7
370
     0
100
AcDbLine
 10
51.4446303034
 20
54.725
 30
0.0
 11
51.4446303034
 21
29.375
 31
0.0
  0
LINE
  5
8A
330
1F
100
AcDbEntity
  8
0
  6
Continuous
 62
     7
370
     0
100
AcDbLine
 10
51.0446303034
 20
55.125
 30
0.0
 11
51.4446303034
 21
54.725
 31
0.0
  0
LINE
  5
8B
330
1F
100
AcDbEntity
  8
0
  6
Continuous
 62
     7
370
     0
100
AcDbLine
 10
51.0446303034
 20
60.625
 30
0.0
 11
51.0446303034
 21
55.125
 31
0.0
  0
LINE
  5
8C
330
1F
100
AcDbEntity
  8
0
  6
Continuous
 62
     7
370
     0
100
AcDbLine
 10
52.5446303034
 20
62.125
 30
0.0
 11
51.0446303034
 21
60.625
 31
0.0
  0
LINE
  5
8D
330
1F
100
AcDbEntity
  8
0
  6
Continuous
 62
     7
370
     0
100
AcDbLine
 10
109.5446303034
 20
62.125
 30
0.0
 11
52.5446303034
 21
62.125
 31
0.0
  0
LINE
  5
8E
330
1F
100
AcDbEntity
  8
0
  6
Continuous
 62
     7
370
     0
100
AcDbLine
 10
111.0446303034
 20
29.775
 30
0.0
 11
111.0446303034
 21
60.625
 31
0.0
  0
LINE
  5
8F
330
1F
100
AcDbEntity
  8
0
  6
Continuous
 62
     7
370
     0
100
AcDbLine
 10
108.0446303034
 20
26.775
 30
0.0
 11
111.0446303034
 21
29.775
 31
0.0
  0
LINE
  5
90
330
1F
100
AcDbEntity
  8
0
  6
Continuous
 62
     7
370
     0
100
AcDbLine
 10
93.3446304888
 20
26.775
 30
0.0
 11
108.0446303034
 21
26.775
 31
0.0
  0
LINE
  5
91
330
1F
100
AcDbEntity
  8
0
  6
Continuous
 62
     7
370
     0
100
AcDbLine
 10
51.4446303034
 20
29.375
 30
0.0
 11
54.0446303034
 21
26.775
 31
0.0
  0
LINE
  5
92
330
1F
100
AcDbEntity
  8
0
  6
Continuous
 62
     7
370
     0
100
AcDbLine
 10
54.0446303034
 20
26.775
 30
0.0
 11
68.7446301184
 21
26.775
 31
0.0
  0
LINE
  5
93
330
1F
100
AcDbEntity
  8
0
  6
Continuous
 62
     7
370
     0
100
AcDbLine
 10
111.0446303034
 20
60.625
 30
0.0
 11
109.5446303034
 21
62.125
 31
0.0
  0
LINE
  5
94
330
1F
100
AcDbEntity
  8
0
  6
Continuous
 62
     7
370
     0
100
AcDbLine
 10
93.3446304888
 20
26.775
 30
0.0
 11
93.3446304888
 21
26.825
 31
0.0
  0
LINE
  5
95
330
1F
100
AcDbEntity
  8
0
  6
Continuous
 62
     7
370
     0
100
AcDbLine
 10
68.7446301184
 20
26.825
 30
0.0
 11
68.7446301184
 21
26.775
 31
0.0
  0
INSERT
  5
A1
330
1F
100
AcDbEntity
  8
0
  6
Continuous
 62
     7
370
     0
100
AcDbBlockReference
  2
SW_CENTERMARKSYMBOL_0
 10
105.2446303034
 20
47.525
 30
0.0
  0
INSERT
  5
AD
330
1F
100
AcDbEntity
  8
0
  6
Continuous
 62
     7
370
     0
100
AcDbBlockReference
  2
SW_CENTERMARKSYMBOL_1
 10
56.8446303034
 20
47.525
 30
0.0
  0
INSERT
  5
B9
330
1F
100
AcDbEntity
  8
0
  6
Continuous
 62
     7
370
     0
100
AcDbBlockReference
  2
SW_CENTERMARKSYMBOL_2
 10
81.0446303034
 20
56.075
 30
0.0
  0
ARC
  5
BA
330
1F
100
AcDbEntity
  8
0
  6
Continuous
 62
     7
370
     0
100
AcDbCircle
 10
105.2446303034
 20
47.525
 30
0.0
 40
1.500000000000011
100
AcDbArc
 50
255.0
 51
195.0
  0
ARC
  5
BB
330
1F
100
AcDbEntity
  8
0
  6
Continuous
 62
     7
370
     0
100
AcDbCircle
 10
56.8446303034
 20
47.525
 30
0.0
 40
1.499999999999997
100
AcDbArc
 50
255.0
 51
195.0
  0
ARC
  5
BC
330
1F
100
AcDbEntity
  8
0
  6
Continuous
 62
     7
370
     0
100
AcDbCircle
 10
81.0446303034
 20
56.075
 30
0.0
 40
3.000000000000001
100
AcDbArc
 50
255.0
 51
195.0
  0
LINE
  5
BD
330
1F
100
AcDbEntity
  8
0
  6
Continuous
 62
     7
370
     0
100
AcDbLine
 10
232.1446303034
 20
29.0457106781
 30
0.0
 11
216.9946303034
 21
29.0457106781
 31
0.0
  0
LINE
  5
BE
330
1F
100
AcDbEntity
  8
0
  6
Continuous
 62
     7
370
     0
100
AcDbLine
 10
232.1446303034
 20
29.0457106781
 30
0.0
 11
232.1446303034
 21
26.825
 31
0.0
  0
LINE
  5
BF
330
1F
100
AcDbEntity
  8
0
  6
Continuous
 62
     7
370
     0
100
AcDbLine
 10
232.1446303034
 20
26.825
 30
0.0
 11
216.9946303034
 21
26.825
 31
0.0
  0
LINE
  5
C0
330
1F
100
AcDbEntity
  8
0
  6
Continuous
 62
     7
370
     0
100
AcDbLine
 10
232.1446303034
 20
60.525
 30
0.0
 11
216.9946303034
 21
60.525
 31
0.0
  0
CIRCLE
  5
C1
330
1F
100
AcDbEntity
  8
0
  6
Continuous
 62
     7
370
     0
100
AcDbCircle
 10
224.9946303034
 20
56.075
 30
0.0
 40
3.099999999999994
  0
LINE
  5
C2
330
1F
100
AcDbEntity
  8
0
  6
Continuous
 62
     7
370
     0
100
AcDbLine
 10
232.1446303034
 20
60.525
 30
0.0
 11
232.1446303034
 21
29.0457106781
 31
0.0
  0
LINE
  5
C3
330
1F
100
AcDbEntity
  8
0
  6
Continuous
 62
     7
370
     0
100
AcDbLine
 10
232.1446303034
 20
61.525
 30
0.0
 11
216.9946303034
 21
61.525
 31
0.0
  0
LINE
  5
C4
330
1F
100
AcDbEntity
  8
0
  6
Continuous
 62
     7
370
     0
100
AcDbLine
 10
232.1446303034
 20
61.525
 30
0.0
 11
232.1446303034
 21
60.525
 31
0.0
  0
CIRCLE
  5
C5
330
1F
100
AcDbEntity
  8
0
  6
Continuous
 62
     7
370
     0
100
AcDbCircle
 10
224.9946303034
 20
56.075
 30
0.0
 40
2.5
  0
LINE
  5
C6
330
1F
100
AcDbEntity
  8
0
  6
Continuous
 62
     7
370
     0
100
AcDbLine
 10
232.1446303034
 20
61.775
 30
0.0
 11
216.9946303034
 21
61.775
 31
0.0
  0
LINE
  5
C7
330
1F
100
AcDbEntity
  8
0
  6
Continuous
 62
     7
370
     0
100
AcDbLine
 10
232.1446303034
 20
61.775
 30
0.0
 11
232.1446303034
 21
61.525
 31
0.0
  0
LINE
  5
C8
330
1F
100
AcDbEntity
  8
0
  6
Continuous
 62
     7
370
     0
100
AcDbLine
 10
232.1446303034
 20
40.8749998356
 30
0.0
 11
232.1446303034
 21
32.3749998356
 31
0.0
  0
LINE
  5
C9
330
1F
100
AcDbEntity
  8
0
  6
Continuous
 62
     7
370
     0
100
AcDbLine
 10
232.1446303034
 20
32.3749998356
 30
0.0
 11
232.1446303034
 21
31.9142388356
 31
0.0
  0
LINE
  5
CA
330
1F
100
AcDbEntity
  8
0
  6
Continuous
 62
     7
370
     0
100
AcDbLine
 10
232.1446303034
 20
41.3357610358
 30
0.0
 11
232.1446303034
 21
40.8749998356
 31
0.0
  0
LINE
  5
CB
330
1F
100
AcDbEntity
  8
0
  6
Continuous
 62
     7
370
     0
100
AcDbLine
 10
232.1446303034
 20
44.1545050768
 30
0.0
 11
232.1446303034
 21
41.3357610358
 31
0.0
  0
LINE
  5
CC
330
1F
100
AcDbEntity
  8
0
  6
Continuous
 62
     7
370
     0
100
AcDbLine
 10
232.1446303034
 20
31.9142388356
 30
0.0
 11
232.1446303034
 21
29.095495
 31
0.0
  0
LINE
  5
CD
330
1F
100
AcDbEntity
  8
0
  6
Continuous
 62
     7
370
     0
100
AcDbLine
 10
232.1446303034
 20
48.7749998356
 30
0.0
 11
232.1446303034
 21
46.5930508356
 31
0.0
  0
LINE
  5
CE
330
1F
100
AcDbEntity
  8
0
  6
Continuous
 62
     7
370
     0
100
AcDbLine
 10
232.1446303034
 20
46.5930508356
 30
0.0
 11
232.1446303034
 21
46.2724998356
 31
0.0
  0
LINE
  5
CF
330
1F
100
AcDbEntity
  8
0
  6
Continuous
 62
     7
370
     0
100
AcDbLine
 10
232.1446303034
 20
46.2724998356
 30
0.0
 11
232.1446303034
 21
44.1545050768
 31
0.0
  0
LINE
  5
D0
330
1F
100
AcDbEntity
  8
0
  6
Continuous
 62
     7
370
     0
100
AcDbLine
 10
232.1446303034
 20
29.095495
 30
0.0
 11
232.1446303034
 21
26.825
 31
0.0
  0
LINE
  5
D1
330
1F
100
AcDbEntity
  8
0
  6
Continuous
 62
     7
370
     0
100
AcDbLine
 10
134.4446303034
 20
29.0457106781
 30
0.0
 11
149.5946303034
 21
29.0457106781
 31
0.0
  0
LINE
  5
D2
330
1F
100
AcDbEntity
  8
0
  6
Continuous
 62
     7
370
     0
100
AcDbLine
 10
134.4446303034
 20
29.0457106781
 30
0.0
 11
134.4446303034
 21
60.525
 31
0.0
  0
LINE
  5
D3
330
1F
100
AcDbEntity
  8
0
  6
Continuous
 62
     7
370
     0
100
AcDbLine
 10
134.4446303034
 20
60.525
 30
0.0
 11
149.5946303034
 21
60.525
 31
0.0
  0
CIRCLE
  5
D4
330
1F
100
AcDbEntity
  8
0
  6
Continuous
 62
     7
370
     0
100
AcDbCircle
 10
141.5946303034
 20
56.075
 30
0.0
 40
3.099999999999994
  0
LINE
  5
D5
330
1F
100
AcDbEntity
  8
0
  6
Continuous
 62
     7
370
     0
100
AcDbLine
 10
134.4446303034
 20
26.825
 30
0.0
 11
149.5946303034
 21
26.825
 31
0.0
  0
LINE
  5
D6
330
1F
100
AcDbEntity
  8
0
  6
Continuous
 62
     7
370
     0
100
AcDbLine
 10
134.4446303034
 20
26.825
 30
0.0
 11
134.4446303034
 21
29.0457106781
 31
0.0
  0
LINE
  5
D7
330
1F
100
AcDbEntity
  8
0
  6
Continuous
 62
     7
370
     0
100
AcDbLine
 10
134.4446303034
 20
60.525
 30
0.0
 11
134.4446303034
 21
61.525
 31
0.0
  0
LINE
  5
D8
330
1F
100
AcDbEntity
  8
0
  6
Continuous
 62
     7
370
     0
100
AcDbLine
 10
134.4446303034
 20
61.525
 30
0.0
 11
149.5946303034
 21
61.525
 31
0.0
  0
CIRCLE
  5
D9
330
1F
100
AcDbEntity
  8
0
  6
Continuous
 62
     7
370
     0
100
AcDbCircle
 10
141.5946303034
 20
56.075
 30
0.0
 40
2.5
  0
LINE
  5
DA
330
1F
100
AcDbEntity
  8
0
  6
Continuous
 62
     7
370
     0
100
AcDbLine
 10
134.4446303034
 20
61.775
 30
0.0
 11
149.5946303034
 21
61.775
 31
0.0
  0
LINE
  5
DB
330
1F
100
AcDbEntity
  8
0
  6
Continuous
 62
     7
370
     0
100
AcDbLine
 10
134.4446303034
 20
61.525
 30
0.0
 11
134.4446303034
 21
61.775
 31
0.0
  0
LINE
  5
DC
330
1F
100
AcDbEntity
  8
0
  6
Continuous
 62
     7
370
     0
100
AcDbLine
 10
134.4446303034
 20
40.8749998356
 30
0.0
 11
134.4446303034
 21
32.3749998356
 31
0.0
  0
LINE
  5
DD
330
1F
100
AcDbEntity
  8
0
  6
Continuous
 62
     7
370
     0
100
AcDbLine
 10
134.4446303034
 20
32.3749998356
 30
0.0
 11
134.4446303034
 21
31.9142388356
 31
0.0
  0
LINE
  5
DE
330
1F
100
AcDbEntity
  8
0
  6
Continuous
 62
     7
370
     0
100
AcDbLine
 10
134.4446303034
 20
41.3357610358
 30
0.0
 11
134.4446303034
 21
40.8749998356
 31
0.0
  0
LINE
  5
DF
330
1F
100
AcDbEntity
  8
0
  6
Continuous
 62
     7
370
     0
100
AcDbLine
 10
134.4446303034
 20
44.1545050768
 30
0.0
 11
134.4446303034
 21
41.3357610358
 31
0.0
  0
LINE
  5
E0
330
1F
100
AcDbEntity
  8
0
  6
Continuous
 62
     7
370
     0
100
AcDbLine
 10
134.4446303034
 20
31.9142388356
 30
0.0
 11
134.4446303034
 21
29.095495
 31
0.0
  0
LINE
  5
E1
330
1F
100
AcDbEntity
  8
0
  6
Continuous
 62
     7
370
     0
100
AcDbLine
 10
134.4446303034
 20
48.7749998356
 30
0.0
 11
134.4446303034
 21
46.5930508356
 31
0.0
  0
LINE
  5
E2
330
1F
100
AcDbEntity
  8
0
  6
Continuous
 62
     7
370
     0
100
AcDbLine
 10
134.4446303034
 20
46.5930508356
 30
0.0
 11
134.4446303034
 21
46.2724998356
 31
0.0
  0
LINE
  5
E3
330
1F
100
AcDbEntity
  8
0
  6
Continuous
 62
     7
370
     0
100
AcDbLine
 10
134.4446303034
 20
46.2724998356
 30
0.0
 11
134.4446303034
 21
44.1545050768
 31
0.0
  0
LINE
  5
E4
330
1F
100
AcDbEntity
  8
0
  6
Continuous
 62
     7
370
     0
100
AcDbLine
 10
134.4446303034
 20
29.095495
 30
0.0
 11
134.4446303034
 21
26.825
 31
0.0
  0
LINE
  5
E5
330
1F
100
AcDbEntity
  8
0
  6
Continuous
 62
     7
370
     0
100
AcDbLine
 10
149.5946303034
 20
26.775
 30
0.0
 11
216.9946303034
 21
26.775
 31
0.0
  0
LINE
  5
E6
330
1F
100
AcDbEntity
  8
0
  6
Continuous
 62
     7
370
     0
100
AcDbLine
 10
149.5946303034
 20
26.775
 30
0.0
 11
149.5946303034
 21
29.775
 31
0.0
  0
LINE
  5
E7
330
1F
100
AcDbEntity
  8
0
  6
Continuous
 62
     7
370
     0
100
AcDbLine
 10
149.5946303034
 20
29.775
 30
0.0
 11
216.9946303034
 21
29.775
 31
0.0
  0
LINE
  5
E8
330
1F
100
AcDbEntity
  8
0
  6
Continuous
 62
     7
370
     0
100
AcDbLine
 10
216.9946303034
 20
26.775
 30
0.0
 11
216.9946303034
 21
29.775
 31
0.0
  0
LINE
  5
E9
330
1F
100
AcDbEntity
  8
0
  6
Continuous
 62
     7
370
     0
100
AcDbLine
 10
149.5946303034
 20
29.775
 30
0.0
 11
149.5946303034
 21
60.625
 31
0.0
  0
LINE
  5
EA
330
1F
100
AcDbEntity
  8
0
  6
Continuous
 62
     7
370
     0
100
AcDbLine
 10
149.5946303034
 20
60.625
 30
0.0
 11
216.9946303034
 21
60.625
 31
0.0
  0
LINE
  5
EB
330
1F
100
AcDbEntity
  8
0
  6
Continuous
 62
     7
370
     0
100
AcDbLine
 10
216.9946303034
 20
29.775
 30
0.0
 11
216.9946303034
 21
60.625
 31
0.0
  0
LINE
  5
EC
330
1F
100
AcDbEntity
  8
0
  6
Continuous
 62
     7
370
     0
100
AcDbLine
 10
149.5946303034
 20
60.625
 30
0.0
 11
149.5946303034
 21
62.125
 31
0.0
  0
LINE
  5
ED
330
1F
100
AcDbEntity
  8
0
  6
Continuous
 62
     7
370
     0
100
AcDbLine
 10
149.5946303034
 20
62.125
 30
0.0
 11
216.9946303034
 21
62.125
 31
0.0
  0
LINE
  5
EE
330
1F
100
AcDbEntity
  8
0
  6
Continuous
 62
     7
370
     0
100
AcDbLine
 10
216.9946303034
 20
60.625
 30
0.0
 11
216.9946303034
 21
62.125
 31
0.0
  0
INSERT
  5
FA
330
1F
100
AcDbEntity
  8
0
  6
Continuous
 62
     7
370
     0
100
AcDbBlockReference
  2
SW_CENTERMARKSYMBOL_3
 10
141.5946303034
 20
56.075
 30
0.0
  0
INSERT
  5
106
330
1F
100
AcDbEntity
  8
0
  6
Continuous
 62
     7
370
     0
100
AcDbBlockReference
  2
SW_CENTERMARKSYMBOL_4
 10
224.9946303034
 20
56.075
 30
0.0
  0
ARC
  5
107
330
1F
100
AcDbEntity
  8
0
  6
Continuous
 62
     7
370
     0
100
AcDbCircle
 10
224.9946303034
 20
56.075
 30
0.0
 40
2.999999999999994
100
AcDbArc
 50
255.0
 51
195.0
  0
ARC
  5
108
330
1F
100
AcDbEntity
  8
0
  6
Continuous
 62
     7
370
     0
100
AcDbCircle
 10
141.5946303034
 20
56.075
 30
0.0
 40
2.999999999999987
100
AcDbArc
 50
255.0
 51
195.0
  0
LINE
  5
109
330
1F
100
AcDbEntity
  8
0
  6
Continuous
 62
     7
370
     0
100
AcDbLine
 10
89.6946303034
 20
183.225
 30
0.0
 11
89.6946303034
 21
168.075
 31
0.0
  0
LINE
  5
10A
330
1F
100
AcDbEntity
  8
0
  6
Continuous
 62
     7
370
     0
100
AcDbLine
 10
89.6946303034
 20
183.225
 30
0.0
 11
89.9446303034
 21
183.225
 31
0.0
  0
LINE
  5
10B
330
1F
100
AcDbEntity
  8
0
  6
Continuous
 62
     7
370
     0
100
AcDbLine
 10
89.9446303034
 20
183.225
 30
0.0
 11
89.9446303034
 21
168.075
 31
0.0
  0
LINE
  5
10C
330
1F
100
AcDbEntity
  8
0
  6
Continuous
 62
     7
370
     0
100
AcDbLine
 10
72.3946303034
 20
183.225
 30
0.0
 11
72.3946303034
 21
168.075
 31
0.0
  0
CIRCLE
  5
10D
330
1F
100
AcDbEntity
  8
0
  6
Continuous
 62
     7
370
     0
100
AcDbCircle
 10
81.0446303034
 20
174.375
 30
0.0
 40
3.599999999999994
  0
LINE
  5
10E
330
1F
100
AcDbEntity
  8
0
  6
Continuous
 62
     7
370
     0
100
AcDbLine
 10
72.3946303034
 20
183.225
 30
0.0
 11
89.6946303034
 21
183.225
 31
0.0
  0
LINE
  5
10F
330
1F
100
AcDbEntity
  8
0
  6
Continuous
 62
     7
370
     0
100
AcDbLine
 10
72.1446303034
 20
183.225
 30
0.0
 11
72.1446303034
 21
168.075
 31
0.0
  0
LINE
  5
110
330
1F
100
AcDbEntity
  8
0
  6
Continuous
 62
     7
370
     0
100
AcDbLine
 10
72.1446303034
 20
183.225
 30
0.0
 11
72.3946303034
 21
183.225
 31
0.0
  0
LINE
  5
111
330
1F
100
AcDbEntity
  8
0
  6
Continuous
 62
     7
370
     0
100
AcDbLine
 10
109.2446303034
 20
183.225
 30
0.0
 11
109.2446303034
 21
168.075
 31
0.0
  0
LINE
  5
112
330
1F
100
AcDbEntity
  8
0
  6
Continuous
 62
     7
370
     0
100
AcDbLine
 10
89.9446303034
 20
183.225
 30
0.0
 11
109.2446303034
 21
183.225
 31
0.0
  0
LINE
  5
113
330
1F
100
AcDbEntity
  8
0
  6
Continuous
 62
     7
370
     0
100
AcDbLine
 10
110.2446303034
 20
183.225
 30
0.0
 11
110.2446303034
 21
168.075
 31
0.0
  0
LINE
  5
114
330
1F
100
AcDbEntity
  8
0
  6
Continuous
 62
     7
370
     0
100
AcDbLine
 10
109.2446303034
 20
183.225
 30
0.0
 11
110.2446303034
 21
183.225
 31
0.0
  0
LINE
  5
115
330
1F
100
AcDbEntity
  8
0
  6
Continuous
 62
     7
370
     0
100
AcDbLine
 10
52.8446303034
 20
183.225
 30
0.0
 11
52.8446303034
 21
168.075
 31
0.0
  0
LINE
  5
116
330
1F
100
AcDbEntity
  8
0
  6
Continuous
 62
     7
370
     0
100
AcDbLine
 10
52.8446303034
 20
183.225
 30
0.0
 11
72.1446303034
 21
183.225
 31
0.0
  0
LINE
  5
117
330
1F
100
AcDbEntity
  8
0
  6
Continuous
 62
     7
370
     0
100
AcDbLine
 10
51.8446303034
 20
183.225
 30
0.0
 11
51.8446303034
 21
168.075
 31
0.0
  0
LINE
  5
118
330
1F
100
AcDbEntity
  8
0
  6
Continuous
 62
     7
370
     0
100
AcDbLine
 10
51.8446303034
 20
183.225
 30
0.0
 11
52.8446303034
 21
183.225
 31
0.0
  0
CIRCLE
  5
119
330
1F
100
AcDbEntity
  8
0
  6
Continuous
 62
     7
370
     0
100
AcDbCircle
 10
81.0446303034
 20
173.175
 30
0.0
 40
0.5
  0
LINE
  5
11A
330
1F
100
AcDbEntity
  8
0
  6
Continuous
 62
     7
370
     0
100
AcDbLine
 10
93.0240793036
 20
183.225
 30
0.0
 11
93.6087313036
 21
183.225
 31
0.0
  0
LINE
  5
11B
330
1F
100
AcDbEntity
  8
0
  6
Continuous
 62
     7
370
     0
100
AcDbLine
 10
68.4805303036
 20
183.225
 30
0.0
 11
69.0651813036
 21
183.225
 31
0.0
  0
LINE
  5
11C
330
1F
100
AcDbEntity
  8
0
  6
Continuous
 62
     7
370
     0
100
AcDbLine
 10
90.8426918485
 20
183.225
 30
0.0
 11
93.3446303036
 21
183.225
 31
0.0
  0
LINE
  5
11D
330
1F
100
AcDbEntity
  8
0
  6
Continuous
 62
     7
370
     0
100
AcDbLine
 10
68.7446303036
 20
183.225
 30
0.0
 11
71.2465687588
 21
183.225
 31
0.0
  0
LINE
  5
11E
330
1F
100
AcDbEntity
  8
0
  6
Continuous
 62
     7
370
     0
100
AcDbLine
 10
90.0446303036
 20
183.225
 30
0.0
 11
90.8426918485
 21
183.225
 31
0.0
  0
LINE
  5
11F
330
1F
100
AcDbEntity
  8
0
  6
Continuous
 62
     7
370
     0
100
AcDbLine
 10
71.2465687588
 20
183.225
 30
0.0
 11
72.0446303036
 21
183.225
 31
0.0
  0
LINE
  5
120
330
1F
100
AcDbEntity
  8
0
  6
Continuous
 62
     7
370
     0
100
AcDbLine
 10
89.9446303034
 20
85.525
 30
0.0
 11
89.9446303034
 21
100.675
 31
0.0
  0
LINE
  5
121
330
1F
100
AcDbEntity
  8
0
  6
Continuous
 62
     7
370
     0
100
AcDbLine
 10
89.9446303034
 20
85.525
 30
0.0
 11
89.6946303034
 21
85.525
 31
0.0
  0
LINE
  5
122
330
1F
100
AcDbEntity
  8
0
  6
Continuous
 62
     7
370
     0
100
AcDbLine
 10
89.6946303034
 20
85.525
 30
0.0
 11
89.6946303034
 21
100.675
 31
0.0
  0
LINE
  5
123
330
1F
100
AcDbEntity
  8
0
  6
Continuous
 62
     7
370
     0
100
AcDbLine
 10
89.6946303034
 20
85.525
 30
0.0
 11
72.3946303034
 21
85.525
 31
0.0
  0
LINE
  5
124
330
1F
100
AcDbEntity
  8
0
  6
Continuous
 62
     7
370
     0
100
AcDbLine
 10
72.3946303034
 20
85.525
 30
0.0
 11
72.3946303034
 21
100.675
 31
0.0
  0
CIRCLE
  5
125
330
1F
100
AcDbEntity
  8
0
  6
Continuous
 62
     7
370
     0
100
AcDbCircle
 10
81.0446303034
 20
94.375
 30
0.0
 40
3.599999999999994
  0
LINE
  5
126
330
1F
100
AcDbEntity
  8
0
  6
Continuous
 62
     7
370
     0
100
AcDbLine
 10
72.3946303034
 20
85.525
 30
0.0
 11
72.1446303034
 21
85.525
 31
0.0
  0
LINE
  5
127
330
1F
100
AcDbEntity
  8
0
  6
Continuous
 62
     7
370
     0
100
AcDbLine
 10
72.1446303034
 20
85.525
 30
0.0
 11
72.1446303034
 21
100.675
 31
0.0
  0
LINE
  5
128
330
1F
100
AcDbEntity
  8
0
  6
Continuous
 62
     7
370
     0
100
AcDbLine
 10
109.2446303034
 20
85.525
 30
0.0
 11
109.2446303034
 21
100.675
 31
0.0
  0
LINE
  5
129
330
1F
100
AcDbEntity
  8
0
  6
Continuous
 62
     7
370
     0
100
AcDbLine
 10
109.2446303034
 20
85.525
 30
0.0
 11
89.9446303034
 21
85.525
 31
0.0
  0
LINE
  5
12A
330
1F
100
AcDbEntity
  8
0
  6
Continuous
 62
     7
370
     0
100
AcDbLine
 10
110.2446303034
 20
85.525
 30
0.0
 11
110.2446303034
 21
100.675
 31
0.0
  0
LINE
  5
12B
330
1F
100
AcDbEntity
  8
0
  6
Continuous
 62
     7
370
     0
100
AcDbLine
 10
110.2446303034
 20
85.525
 30
0.0
 11
109.2446303034
 21
85.525
 31
0.0
  0
LINE
  5
12C
330
1F
100
AcDbEntity
  8
0
  6
Continuous
 62
     7
370
     0
100
AcDbLine
 10
52.8446303034
 20
85.525
 30
0.0
 11
52.8446303034
 21
100.675
 31
0.0
  0
LINE
  5
12D
330
1F
100
AcDbEntity
  8
0
  6
Continuous
 62
     7
370
     0
100
AcDbLine
 10
72.1446303034
 20
85.525
 30
0.0
 11
52.8446303034
 21
85.525
 31
0.0
  0
LINE
  5
12E
330
1F
100
AcDbEntity
  8
0
  6
Continuous
 62
     7
370
     0
100
AcDbLine
 10
51.8446303034
 20
85.525
 30
0.0
 11
51.8446303034
 21
100.675
 31
0.0
  0
LINE
  5
12F
330
1F
100
AcDbEntity
  8
0
  6
Continuous
 62
     7
370
     0
100
AcDbLine
 10
52.8446303034
 20
85.525
 30
0.0
 11
51.8446303034
 21
85.525
 31
0.0
  0
CIRCLE
  5
130
330
1F
100
AcDbEntity
  8
0
  6
Continuous
 62
     7
370
     0
100
AcDbCircle
 10
81.0446303034
 20
95.375
 30
0.0
 40
0.5
  0
LINE
  5
131
330
1F
100
AcDbEntity
  8
0
  6
Continuous
 62
     7
370
     0
100
AcDbLine
 10
93.0240793036
 20
85.525
 30
0.0
 11
93.6087313036
 21
85.525
 31
0.0
  0
LINE
  5
132
330
1F
100
AcDbEntity
  8
0
  6
Continuous
 62
     7
370
     0
100
AcDbLine
 10
68.4805303036
 20
85.525
 30
0.0
 11
69.0651813036
 21
85.525
 31
0.0
  0
LINE
  5
133
330
1F
100
AcDbEntity
  8
0
  6
Continuous
 62
     7
370
     0
100
AcDbLine
 10
90.8426918485
 20
85.525
 30
0.0
 11
93.3446303036
 21
85.525
 31
0.0
  0
LINE
  5
134
330
1F
100
AcDbEntity
  8
0
  6
Continuous
 62
     7
370
     0
100
AcDbLine
 10
68.7446303036
 20
85.525
 30
0.0
 11
71.2465687588
 21
85.525
 31
0.0
  0
LINE
  5
135
330
1F
100
AcDbEntity
  8
0
  6
Continuous
 62
     7
370
     0
100
AcDbLine
 10
90.0446303036
 20
85.525
 30
0.0
 11
90.8426918485
 21
85.525
 31
0.0
  0
LINE
  5
136
330
1F
100
AcDbEntity
  8
0
  6
Continuous
 62
     7
370
     0
100
AcDbLine
 10
71.2465687588
 20
85.525
 30
0.0
 11
72.0446303036
 21
85.525
 31
0.0
  0
LINE
  5
137
330
1F
100
AcDbEntity
  8
0
  6
Continuous
 62
     7
370
     0
100
AcDbLine
 10
52.5446303034
 20
100.675
 30
0.0
 11
52.5446303034
 21
168.075
 31
0.0
  0
LINE
  5
138
330
1F
100
AcDbEntity
  8
0
  6
Continuous
 62
     7
370
     0
100
AcDbLine
 10
52.5446303034
 20
100.675
 30
0.0
 11
51.0446303034
 21
100.675
 31
0.0
  0
LINE
  5
139
330
1F
100
AcDbEntity
  8
0
  6
Continuous
 62
     7
370
     0
100
AcDbLine
 10
51.0446303034
 20
100.675
 30
0.0
 11
51.0446303034
 21
168.075
 31
0.0
  0
LINE
  5
13A
330
1F
100
AcDbEntity
  8
0
  6
Continuous
 62
     7
370
     0
100
AcDbLine
 10
52.5446303034
 20
168.075
 30
0.0
 11
51.0446303034
 21
168.075
 31
0.0
  0
LINE
  5
13B
330
1F
100
AcDbEntity
  8
0
  6
Continuous
 62
     7
370
     0
100
AcDbLine
 10
109.5446303034
 20
100.675
 30
0.0
 11
109.5446303034
 21
168.075
 31
0.0
  0
LINE
  5
13C
330
1F
100
AcDbEntity
  8
0
  6
Continuous
 62
     7
370
     0
100
AcDbLine
 10
109.5446303034
 20
100.675
 30
0.0
 11
52.5446303034
 21
100.675
 31
0.0
  0
CIRCLE
  5
13D
330
1F
100
AcDbEntity
  8
0
  6
Continuous
 62
     7
370
     0
100
AcDbCircle
 10
61.0446303034
 20
154.375
 30
0.0
 40
4.000000000000163
  0
CIRCLE
  5
13E
330
1F
100
AcDbEntity
  8
0
  6
Continuous
 62
     7
370
     0
100
AcDbCircle
 10
101.0446303034
 20
154.375
 30
0.0
 40
3.999999999999829
  0
CIRCLE
  5
13F
330
1F
100
AcDbEntity
  8
0
  6
Continuous
 62
     7
370
     0
100
AcDbCircle
 10
101.0446303034
 20
114.375
 30
0.0
 40
3.999999999999829
  0
CIRCLE
  5
140
330
1F
100
AcDbEntity
  8
0
  6
Continuous
 62
     7
370
     0
100
AcDbCircle
 10
61.0446303034
 20
114.375
 30
0.0
 40
4.000000000000163
  0
LINE
  5
141
330
1F
100
AcDbEntity
  8
0
  6
Continuous
 62
     7
370
     0
100
AcDbLine
 10
109.5446303034
 20
168.075
 30
0.0
 11
52.5446303034
 21
168.075
 31
0.0
  0
CIRCLE
  5
142
330
1F
100
AcDbEntity
  8
0
  6
Continuous
 62
     7
370
     0
100
AcDbCircle
 10
61.0446303034
 20
154.375
 30
0.0
 40
3.5
  0
CIRCLE
  5
143
330
1F
100
AcDbEntity
  8
0
  6
Continuous
 62
     7
370
     0
100
AcDbCircle
 10
61.0446303034
 20
114.375
 30
0.0
 40
3.499999999999986
  0
CIRCLE
  5
144
330
1F
100
AcDbEntity
  8
0
  6
Continuous
 62
     7
370
     0
100
AcDbCircle
 10
101.0446303034
 20
154.375
 30
0.0
 40
3.5
  0
LINE
  5
145
330
1F
100
AcDbEntity
  8
0
  6
Continuous
 62
     7
370
     0
100
AcDbLine
 10
111.0446303034
 20
100.675
 30
0.0
 11
111.0446303034
 21
168.075
 31
0.0
  0
LINE
  5
146
330
1F
100
AcDbEntity
  8
0
  6
Continuous
 62
     7
370
     0
100
AcDbLine
 10
111.0446303034
 20
100.675
 30
0.0
 11
109.5446303034
 21
100.675
 31
0.0
  0
LINE
  5
147
330
1F
100
AcDbEntity
  8
0
  6
Continuous
 62
     7
370
     0
100
AcDbLine
 10
111.0446303034
 20
168.075
 30
0.0
 11
109.5446303034
 21
168.075
 31
0.0
  0
CIRCLE
  5
148
330
1F
100
AcDbEntity
  8
0
  6
Continuous
 62
     7
370
     0
100
AcDbCircle
 10
101.0446303034
 20
114.375
 30
0.0
 40
3.499999999999986
  0
INSERT
  5
154
330
1F
100
AcDbEntity
  8
0
  6
Continuous
 62
     7
370
     0
100
AcDbBlockReference
  2
SW_CENTERMARKSYMBOL_5
 10
81.0446303034
 20
94.375
 30
0.0
  0
INSERT
  5
160
330
1F
100
AcDbEntity
  8
0
  6
Continuous
 62
     7
370
     0
100
AcDbBlockReference
  2
SW_CENTERMARKSYMBOL_6
 10
81.0446303034
 20
95.375
 30
0.0
  0
INSERT
  5
16C
330
1F
100
AcDbEntity
  8
0
  6
Continuous
 62
     7
370
     0
100
AcDbBlockReference
  2
SW_CENTERMARKSYMBOL_7
 10
101.0446303034
 20
114.375
 30
0.0
  0
INSERT
  5
178
330
1F
100
AcDbEntity
  8
0
  6
Continuous
 62
     7
370
     0
100
AcDbBlockReference
  2
SW_CENTERMARKSYMBOL_8
 10
61.0446303034
 20
114.375
 30
0.0
  0
INSERT
  5
184
330
1F
100
AcDbEntity
  8
0
  6
Continuous
 62
     7
370
     0
100
AcDbBlockReference
  2
SW_CENTERMARKSYMBOL_9
 10
101.0446303034
 20
154.375
 30
0.0
  0
INSERT
  5
190
330
1F
100
AcDbEntity
  8
0
  6
Continuous
 62
     7
370
     0
100
AcDbBlockReference
  2
SW_CENTERMARKSYMBOL_10
 10
61.0446303034
 20
154.375
 30
0.0
  0
INSERT
  5
19C
330
1F
100
AcDbEntity
  8
0
  6
Continuous
 62
     7
370
     0
100
AcDbBlockReference
  2
SW_CENTERMARKSYMBOL_11
 10
81.0446303034
 20
174.375
 30
0.0
  0
INSERT
  5
1A8
330
1F
100
AcDbEntity
  8
0
  6
Continuous
 62
     7
370
     0
100
AcDbBlockReference
  2
SW_CENTERMARKSYMBOL_12
 10
81.0446303034
 20
173.175
 30
0.0
  0
ARC
  5
1A9
330
1F
100
AcDbEntity
  8
0
  6
Continuous
 62
     7
370
     0
100
AcDbCircle
 10
101.0446303034
 20
114.375
 30
0.0
 40
4.000000000000004
100
AcDbArc
 50
255.0
 51
195.0
  0
ARC
  5
1AA
330
1F
100
AcDbEntity
  8
0
  6
Continuous
 62
     7
370
     0
100
AcDbCircle
 10
61.0446303034
 20
114.375
 30
0.0
 40
3.999999999999997
100
AcDbArc
 50
255.0
 51
195.0
  0
ARC
  5
1AB
330
1F
100
AcDbEntity
  8
0
  6
Continuous
 62
     7
370
     0
100
AcDbCircle
 10
101.0446303034
 20
154.375
 30
0.0
 40
4.000000000000004
100
AcDbArc
 50
255.0
 51
195.0
  0
ARC
  5
1AC
330
1F
100
AcDbEntity
  8
0
  6
Continuous
 62
     7
370
     0
100
AcDbCircle
 10
61.0446303034
 20
154.375
 30
0.0
 40
3.999999999999997
100
AcDbArc
 50
255.0
 51
195.0
  0
SPLINE
  5
1AD
330
1F
100
AcDbEntity
  8
0
  6
Continuous
 62
     7
370
     0
100
AcDbSpline
210
0.0
220
0.0
230
1.0
 70
    24
 71
     1
 72
     4
 73
     2
 74
     0
 42
0.00000001
 43
0.00000001
 40
0.0
 40
0.0
 40
1.0
 40
1.0
 10
204.3017956651842
 20
177.588313580105
 30
0.0
 10
194.2205607669825
 20
171.7685405507252
 30
0.0
  0
SPLINE
  5
1AE
330
1F
100
AcDbEntity
  8
0
  6
Continuous
 62
     7
370
     0
100
AcDbSpline
210
0.0
220
0.0
230
1.0
 70
    24
 71
     1
 72
     4
 73
     2
 74
     0
 42
0.00000001
 43
0.00000001
 40
0.0
 40
0.0
 40
1.0
 40
1.0
 10
164.3552471477728
 20
107.634428117327
 30
0.0
 10
163.1785075939582
 20
106.9551108325848
 30
0.0
  0
SPLINE
  5
1AF
330
1F
100
AcDbEntity
  8
0
  6
Continuous
 62
     7
370
     0
100
AcDbSpline
210
0.0
220
0.0
230
1.0
 70
    24
 71
     1
 72
     4
 73
     2
 74
     0
 42
0.00000001
 43
0.00000001
 40
0.0
 40
0.0
 40
1.0
 40
1.0
 10
145.9301308782346
 20
143.8910687646227
 30
0.0
 10
135.2174631432584
 20
137.7067773175657
 30
0.0
  0
SPLINE
  5
1B0
330
1F
100
AcDbEntity
  8
0
  6
Continuous
 62
     7
370
     0
100
AcDbSpline
210
0.0
220
0.0
230
1.0
 70
    24
 71
     1
 72
     4
 73
     2
 74
     0
 42
0.00000001
 43
0.00000001
 40
0.0
 40
0.0
 40
1.0
 40
1.0
 10
148.1371596211801
 20
104.6729866622786
 30
0.0
 10
158.8498273561563
 20
110.8572781093356
 30
0.0
  0
SPLINE
  5
1B1
330
1F
100
AcDbEntity
  8
0
  6
Continuous
 62
     7
370
     0
100
AcDbSpline
210
0.0
220
0.0
230
1.0
 70
    24
 71
     1
 72
     4
 73
     2
 74
     0
 42
0.00000001
 43
0.00000001
 40
0.0
 40
0.0
 40
1.0
 40
1.0
 10
158.8498273561563
 20
110.8572781093356
 30
0.0
 10
161.4785361780385
 20
112.374799410859
 30
0.0
  0
ARC
  5
1B2
330
1F
100
AcDbEntity
  8
0
  6
Continuous
 62
     7
370
     0
100
AcDbCircle
 10
243.8544681702
 20
153.2214910562
 30
0.0
 40
1.536804807572143
100
AcDbArc
 50
2.6054784857
 51
57.39452166
  0
LINE
  5
1B3
330
1F
100
AcDbEntity
  8
0
  6
Continuous
 62
     7
370
     0
100
AcDbLine
 10
245.3896842716
 20
153.2913519084
 30
0.0
 11
245.3896842716
 21
127.5872274479
 31
0.0
  0
LINE
  5
1B4
330
1F
100
AcDbEntity
  8
0
  6
Continuous
 62
     7
370
     0
100
AcDbLine
 10
245.3896842716
 20
127.5872274479
 30
0.0
 11
235.2427019616
 21
121.7294992456
 31
0.0
  0
LWPOLYLINE
  5
1B5
330
1F
100
AcDbEntity
  8
0
  6
Continuous
 62
     7
370
     0
100
AcDbPolyline
 90
       32
 70
   128
 43
0.0
 10
240.3338707861
 20
144.2078097789
 10
239.8926181855
 20
144.0048954536
 10
239.4694305181
 20
143.9139192227
 10
239.0816331369
 20
143.9386056637
 10
238.7451025122
 20
144.0779441107
 10
238.4736162473
 20
144.3262300316
 10
238.2782890218
 20
144.6732985713
 10
238.1671175553
 20
145.1049407033
 10
238.1446532205
 20
145.6034849477
 10
238.2118157102
 20
146.1485208448
 10
238.365855384
 20
146.7177345609
 10
238.6004658396
 20
147.2878224195
 10
238.9060420973
 20
147.8354449567
 10
239.2700738294
 20
148.3381824415
 10
239.6776575338
 20
148.7754527422
 10
240.1121066859
 20
149.1293539614
 10
240.5556348863
 20
149.3853973414
 10
240.9900840384
 20
149.5331004363
 10
241.3976677429
 20
149.5664162641
 10
241.7616994749
 20
149.4839808707
 10
242.0672757327
 20
149.2891691709
 10
242.3018861883
 20
148.9899567786
 10
242.4559258621
 20
148.5985934843
 10
242.5230883517
 20
148.1311017471
 10
242.500624017
 20
147.6066207339
 10
242.3894525504
 20
147.0466227588
 10
242.1941253249
 20
146.4740342048
 10
241.92263906
 20
145.9122969145
 10
241.5861084353
 20
145.3844084786
 10
241.1983110541
 20
144.9119807118
 10
240.7751233868
 20
144.5143548622
 10
240.3338707861
 20
144.2078097789
  0
LINE
  5
1B6
330
1F
100
AcDbEntity
  8
0
  6
Continuous
 62
     7
370
     0
100
AcDbLine
 10
231.0354166135
 20
162.3944350553
 30
0.0
 11
220.7470819077
 21
156.4551058518
 31
0.0
  0
LINE
  5
1B7
330
1F
100
AcDbEntity
  8
0
  6
Continuous
 62
     7
370
     0
100
AcDbLine
 10
231.0354166135
 20
162.3944350553
 30
0.0
 11
244.6825774904
 21
154.5160967762
 31
0.0
  0
LWPOLYLINE
  5
1B8
330
1F
100
AcDbEntity
  8
0
  6
Continuous
 62
     7
370
     0
100
AcDbPolyline
 90
       22
 70
   128
 43
0.0
 10
238.1532662429
 20
145.7383695418
 10
238.1861613727
 20
145.5348413492
 10
238.3169037271
 20
145.1788514125
 10
238.5275108599
 20
144.9133796013
 10
238.8074220502
 20
144.7517377808
 10
239.142601382
 20
144.7020313468
 10
239.516241564
 20
144.7667527875
 10
239.9096067174
 20
144.9426566996
 10
240.3029718708
 20
145.2209225264
 10
240.6766120529
 20
145.5875968574
 10
241.0117913847
 20
146.0242931105
 10
241.2917025749
 20
146.5091135122
 10
241.5023097077
 20
147.0177471431
 10
241.6330520621
 20
147.5246889891
 10
241.6773736704
 20
148.0045188691
 10
241.6330520621
 20
148.4331761094
 10
241.5023097077
 20
148.7891660461
 10
241.2917025749
 20
149.0546378573
 10
241.0117913847
 20
149.2162796778
 10
240.6766120529
 20
149.2659861118
 10
240.3029718708
 20
149.2012646711
 10
240.1099904841
 20
149.1278826048
  0
LINE
  5
1B9
330
1F
100
AcDbEntity
  8
0
  6
Continuous
 62
     7
370
     0
100
AcDbLine
 10
230.8586399182
 20
162.7006212722
 30
0.0
 11
220.3934997836
 21
156.6592244673
 31
0.0
  0
LINE
  5
1BA
330
1F
100
AcDbEntity
  8
0
  6
Continuous
 62
     7
370
     0
100
AcDbLine
 10
230.8586399182
 20
162.7006212722
 30
0.0
 11
231.0354166135
 21
162.3944350553
 31
0.0
  0
LINE
  5
1BB
330
1F
100
AcDbEntity
  8
0
  6
Continuous
 62
     7
370
     0
100
AcDbLine
 10
218.6256926037
 20
169.7625514395
 30
0.0
 11
208.1605524691
 21
163.7211546345
 31
0.0
  0
LWPOLYLINE
  5
1BC
330
1F
100
AcDbEntity
  8
0
  6
Continuous
 62
     7
370
     0
100
AcDbPolyline
 90
       35
 70
   128
 43
0.0
 10
215.9386868352
 20
164.0885150623
 10
215.5142803389
 20
163.7934671688
 10
215.1910133209
 20
163.458423539
 10
214.9798942518
 20
163.094793682
 10
214.8881125382
 20
162.7149605765
 10
214.9187936963
 20
162.3318589832
 10
215.0708929161
 20
161.9585349676
 10
215.3392306411
 20
161.607701631
 10
215.7146689519
 20
161.2913061822
 10
216.1844227471
 20
161.0201230885
 10
216.7324951246
 20
160.803387165
 10
217.340222137
 20
160.6484790937
 10
217.9869083696
 20
160.5606740831
 10
218.6505316986
 20
160.5429622275
 10
219.3084932273
 20
160.5959466829
 10
219.938386865
 20
160.7178231273
 10
220.5187623394
 20
160.9044412046
 10
221.0298556597
 20
161.1494458598
 10
221.454262156
 20
161.4444937534
 10
221.777529174
 20
161.7795373831
 10
221.9886482432
 20
162.1431672401
 10
222.0804299568
 20
162.5230003456
 10
222.0497487986
 20
162.9061019389
 10
221.8976495788
 20
163.2794259546
 10
221.6293118538
 20
163.6302592911
 10
221.253873543
 20
163.94665474
 10
220.7841197478
 20
164.2178378336
 10
220.2360473703
 20
164.4345737571
 10
219.628320358
 20
164.5894818284
 10
218.9816341253
 20
164.6772868391
 10
218.3180107963
 20
164.6949986946
 10
217.6600492676
 20
164.6420142392
 10
217.0301556299
 20
164.5201377948
 10
216.4497801555
 20
164.3335197176
 10
215.9386868352
 20
164.0885150623
  0
LINE
  5
1BD
330
1F
100
AcDbEntity
  8
0
  6
Continuous
 62
     7
370
     0
100
AcDbLine
 10
218.6256926037
 20
169.7625514395
 30
0.0
 11
230.8586399182
 21
162.7006212722
 31
0.0
  0
ARC
  5
1BE
330
1F
100
AcDbEntity
  8
0
  6
Continuous
 62
     7
370
     0
100
AcDbCircle
 10
216.7488718174
 20
162.0450548379
 30
0.0
 40
1.898407933344715
100
AcDbArc
 50
115.2627978443
 51
167.5084460948
  0
LWPOLYLINE
  5
1BF
330
1F
100
AcDbEntity
  8
0
  6
Continuous
 62
     7
370
     0
100
AcDbPolyline
 90
       14
 70
   128
 43
0.0
 10
222.0731393129
 20
162.4556722987
 10
222.0497487986
 20
162.5794856141
 10
221.8976495788
 20
162.9528096298
 10
221.6293118538
 20
163.3036429664
 10
221.253873543
 20
163.6200384152
 10
220.7841197478
 20
163.8912215089
 10
220.2360473703
 20
164.1079574324
 10
219.628320358
 20
164.2628655037
 10
218.9816341253
 20
164.3506705143
 10
218.3180107963
 20
164.3683823699
 10
217.6600492676
 20
164.3153979144
 10
217.0301556299
 20
164.19352147
 10
216.4497801555
 20
164.0069033928
 10
215.9386868352
 20
163.7618987376
  0
LWPOLYLINE
  5
1C0
330
1F
100
AcDbEntity
  8
0
  6
Continuous
 62
     7
370
     0
100
AcDbPolyline
 90
       17
 70
   128
 43
0.0
 10
217.2821897194
 20
162.0066212972
 10
217.1738033438
 20
161.9129784908
 10
217.13574311
 20
161.8025192692
 10
217.1738033438
 20
161.6920600477
 10
217.2821897194
 20
161.5984172413
 10
217.4444013939
 20
161.5358471184
 10
217.63574311
 20
161.5138754132
 10
217.8270848262
 20
161.5358471184
 10
217.9892965006
 20
161.5984172413
 10
218.0976828763
 20
161.6920600477
 10
218.13574311
 20
161.8025192692
 10
218.0976828763
 20
161.9129784908
 10
217.9892965006
 20
162.0066212972
 10
217.8270848262
 20
162.06919142
 10
217.63574311
 20
162.0911631253
 10
217.4444013939
 20
162.06919142
 10
217.2821897194
 20
162.0066212972
  0
LINE
  5
1C1
330
1F
100
AcDbEntity
  8
0
  6
Continuous
 62
     7
370
     0
100
AcDbLine
 10
243.8194046921
 20
126.6804296537
 30
0.0
 11
235.2427019616
 21
121.7292045572
 31
0.0
  0
LINE
  5
1C2
330
1F
100
AcDbEntity
  8
0
  6
Continuous
 62
     7
370
     0
100
AcDbLine
 10
245.3896842716
 20
127.5872274479
 30
0.0
 11
243.8194046921
 21
126.6804296537
 31
0.0
  0
LINE
  5
1C3
330
1F
100
AcDbEntity
  8
0
  6
Continuous
 62
     7
370
     0
100
AcDbLine
 10
204.8017550315
 20
177.5388055296
 30
0.0
 11
218.4488871749
 21
169.660483838
 31
0.0
  0
ARC
  5
1C4
330
1F
100
AcDbEntity
  8
0
  6
Continuous
 62
     7
370
     0
100
AcDbCircle
 10
204.5088349767
 20
177.1299242005
 30
0.0
 40
0.5029772359016457
100
AcDbArc
 50
54.3824225248
 51
114.3071190461
  0
LWPOLYLINE
  5
1C5
330
1F
100
AcDbEntity
  8
0
  6
Continuous
 62
     7
370
     0
100
AcDbPolyline
 90
       23
 70
   128
 43
0.0
 10
137.4498341235
 20
125.2255979637
 10
137.4942304527
 20
125.556540011
 10
137.6238227138
 20
125.8094121911
 10
137.8281121125
 20
125.963728304
 10
138.0905483366
 20
126.0069865759
 10
138.3898703642
 20
125.9356824789
 10
138.7018289045
 20
125.7555926469
 10
139.001150932
 20
125.481306887
 10
139.2635871562
 20
125.1350462003
 10
139.4678765549
 20
124.7448625682
 10
139.5974688159
 20
124.3423663483
 10
139.6418651452
 20
123.9601653904
 10
139.5974688159
 20
123.6292233431
 10
139.4678765549
 20
123.376351163
 10
139.2635871562
 20
123.2220350501
 10
139.001150932
 20
123.1787767782
 10
138.7018289045
 20
123.2500808752
 10
138.3898703642
 20
123.4301707072
 10
138.0905483366
 20
123.7044564671
 10
137.8281121125
 20
124.0507171538
 10
137.6238227138
 20
124.4409007858
 10
137.4942304527
 20
124.8433970058
 10
137.4498341235
 20
125.2255979637
  0
LWPOLYLINE
  5
1C6
330
1F
100
AcDbEntity
  8
0
  6
Continuous
 62
     7
370
     0
100
AcDbPolyline
 90
       23
 70
   128
 43
0.0
 10
171.6738023329
 20
105.4685216576
 10
171.7181986621
 20
105.7994637048
 10
171.8477909232
 20
106.052335885
 10
172.0520803219
 20
106.2066519979
 10
172.3145165461
 20
106.2499102698
 10
172.6138385736
 20
106.1786061728
 10
172.9257971139
 20
105.9985163408
 10
173.2251191414
 20
105.7242305809
 10
173.4875553656
 20
105.3779698941
 10
173.6918447643
 20
104.9877862621
 10
173.8214370254
 20
104.5852900422
 10
173.8658333546
 20
104.2030890843
 10
173.8214370254
 20
103.872147037
 10
173.6918447643
 20
103.6192748568
 10
173.4875553656
 20
103.464958744
 10
173.2251191414
 20
103.4217004721
 10
172.9257971139
 20
103.4930045691
 10
172.6138385736
 20
103.6730944011
 10
172.3145165461
 20
103.947380161
 10
172.0520803219
 20
104.2936408477
 10
171.8477909232
 20
104.6838244797
 10
171.7181986621
 20
105.0863206997
 10
171.6738023329
 20
105.4685216576
  0
LWPOLYLINE
  5
1C7
330
1F
100
AcDbEntity
  8
0
  6
Continuous
 62
     7
370
     0
100
AcDbPolyline
 90
       32
 70
   128
 43
0.0
 10
153.4658027174
 20
122.9612000389
 10
153.5106737211
 20
123.4448387766
 10
153.6434497084
 20
123.8568703293
 10
153.8586948145
 20
124.1804260768
 10
154.1475968795
 20
124.4022596088
 10
154.498328219
 20
124.5132890345
 10
154.8965298508
 20
124.5089687962
 10
155.3258993532
 20
124.3894757648
 10
155.7688582884
 20
124.1597019991
 10
156.2072718654
 20
123.8290544642
 10
156.623191381
 20
123.4110699088
 10
156.9995890413
 20
122.92286067
 10
157.3210550819
 20
122.3844140911
 10
157.5744286453
 20
121.8177742385
 10
157.7493365881
 20
121.2461394142
 10
157.8386181584
 20
120.6929124153
 10
157.8386181584
 20
120.1807424199
 10
157.7493365881
 20
119.7305977279
 10
157.5744286453
 20
119.3609073158
 10
157.3210550819
 20
119.0868063526
 10
156.9995890413
 20
118.9195165639
 10
156.623191381
 20
118.8658868134
 10
156.2072718654
 20
118.9281127092
 10
155.7688582884
 20
119.1036467159
 10
155.3258993532
 20
119.3853024507
 10
154.8965298508
 20
119.7615488947
 10
154.498328219
 20
120.2169824742
 10
154.1475968795
 20
120.732957685
 10
153.8586948145
 20
121.2883504414
 10
153.6434497084
 20
121.8604228986
 10
153.5106737211
 20
122.425754343
 10
153.4658027174
 20
122.9612000389
  0
LINE
  5
1C8
330
1F
100
AcDbEntity
  8
0
  6
Continuous
 62
     7
370
     0
100
AcDbLine
 10
135.0103157284
 20
111.5448080506
 30
0.0
 11
136.5805953079
 21
108.8250040447
 31
0.0
  0
LINE
  5
1C9
330
1F
100
AcDbEntity
  8
0
  6
Continuous
 62
     7
370
     0
100
AcDbLine
 10
135.0103157284
 20
137.2489325111
 30
0.0
 11
135.0103157284
 21
111.5448080506
 31
0.0
  0
ARC
  5
1CA
330
1F
100
AcDbEntity
  8
0
  6
Continuous
 62
     7
370
     0
100
AcDbCircle
 10
135.4413900958
 20
137.318859708
 30
0.0
 40
0.4367091974285027
100
AcDbArc
 50
50.7967147643
 51
189.2140369905
  0
LINE
  5
1CB
330
1F
100
AcDbEntity
  8
0
  6
Continuous
 62
     7
370
     0
100
AcDbLine
 10
149.3645833865
 20
129.778930988
 30
0.0
 11
135.7174225096
 21
137.6572692671
 31
0.0
  0
LINE
  5
1CC
330
1F
100
AcDbEntity
  8
0
  6
Continuous
 62
     7
370
     0
100
AcDbLine
 10
149.5413600818
 20
129.881015177
 30
0.0
 11
149.3645833865
 21
129.778930988
 31
0.0
  0
LINE
  5
1CD
330
1F
100
AcDbEntity
  8
0
  6
Continuous
 62
     7
370
     0
100
AcDbLine
 10
161.7743073963
 20
122.8190850097
 30
0.0
 11
149.5413600818
 21
129.881015177
 31
0.0
  0
LINE
  5
1CE
330
1F
100
AcDbEntity
  8
0
  6
Continuous
 62
     7
370
     0
100
AcDbLine
 10
161.9510840916
 20
122.5128987928
 30
0.0
 11
161.7743073963
 21
122.8190850097
 31
0.0
  0
LINE
  5
1CF
330
1F
100
AcDbEntity
  8
0
  6
Continuous
 62
     7
370
     0
100
AcDbLine
 10
175.5982449685
 20
114.6345605137
 30
0.0
 11
161.9510840916
 21
122.5128987928
 31
0.0
  0
ARC
  5
1D0
330
1F
100
AcDbEntity
  8
0
  6
Continuous
 62
     7
370
     0
100
AcDbCircle
 10
174.7701356483
 20
113.3399547936
 30
0.0
 40
1.5368048075722
100
AcDbArc
 50
2.6054784857
 51
57.39452166
  0
LINE
  5
1D1
330
1F
100
AcDbEntity
  8
0
  6
Continuous
 62
     7
370
     0
100
AcDbLine
 10
176.3053517497
 20
87.7056911854
 30
0.0
 11
176.3053517497
 21
113.4098156459
 31
0.0
  0
LINE
  5
1D2
330
1F
100
AcDbEntity
  8
0
  6
Continuous
 62
     7
370
     0
100
AcDbLine
 10
174.7350721701
 20
86.7988933911
 30
0.0
 11
176.3053517497
 21
87.7056911854
 31
0.0
  0
LINE
  5
1D3
330
1F
100
AcDbEntity
  8
0
  6
Continuous
 62
     7
370
     0
100
AcDbLine
 10
164.3552472787
 20
92.7910387545
 30
0.0
 11
174.7350721701
 21
86.7988933911
 31
0.0
  0
LINE
  5
1D4
330
1F
100
AcDbEntity
  8
0
  6
Continuous
 62
     7
370
     0
100
AcDbLine
 10
164.3552472787
 20
92.7910387545
 30
0.0
 11
164.3552472787
 21
94.6449905852
 31
0.0
  0
ARC
  5
1D5
330
1F
100
AcDbEntity
  8
0
  6
Continuous
 62
     7
370
     0
100
AcDbCircle
 10
167.0445402391
 20
98.2091904681
 30
0.0
 40
4.464954359458496
100
AcDbArc
 50
183.0976836651
 51
232.9643797516
  0
LINE
  5
1D6
330
1F
100
AcDbEntity
  8
0
  6
Continuous
 62
     7
370
     0
100
AcDbLine
 10
162.5861098219
 20
97.9679112801
 30
0.0
 11
162.0217947699
 21
98.6699135864
 31
0.0
  0
LINE
  5
1D7
330
1F
100
AcDbEntity
  8
0
  6
Continuous
 62
     7
370
     0
100
AcDbLine
 10
162.0217947699
 20
98.6699135864
 30
0.0
 11
162.0217947699
 21
105.6105104874
 31
0.0
  0
LINE
  5
1D8
330
1F
100
AcDbEntity
  8
0
  6
Continuous
 62
     7
370
     0
100
AcDbLine
 10
162.0217947699
 20
105.6105104874
 30
0.0
 11
162.5861095
 21
105.6609688525
 31
0.0
  0
LWPOLYLINE
  5
1D9
330
1F
100
AcDbEntity
  8
0
  6
Continuous
 62
     7
370
     0
100
AcDbPolyline
 90
        9
 70
   128
 43
0.0
 10
162.5861095
 20
105.6609688525
 10
162.6210977337
 20
106.0582394217
 10
162.7201879196
 20
106.4045447493
 10
162.8801838144
 20
106.6887144439
 10
163.0959246059
 20
106.9015823554
 10
163.3604513798
 20
107.0362822369
 10
163.6652315861
 20
107.088469222
 10
164.0004342639
 20
107.0564599723
 10
164.3552471478
 20
106.9412869751
  0
LINE
  5
1DA
330
1F
100
AcDbEntity
  8
0
  6
Continuous
 62
     7
370
     0
100
AcDbLine
 10
164.3552471478
 20
106.9412869751
 30
0.0
 11
164.3552471478
 21
108.6707161351
 31
0.0
  0
LINE
  5
1DB
330
1F
100
AcDbEntity
  8
0
  6
Continuous
 62
     7
370
     0
100
AcDbLine
 10
164.3552471478
 20
108.6707161351
 30
0.0
 11
164.128583362
 21
109.0633093272
 31
0.0
  0
LINE
  5
1DC
330
1F
100
AcDbEntity
  8
0
  6
Continuous
 62
     7
370
     0
100
AcDbLine
 10
164.128583362
 20
109.0633093272
 30
0.0
 11
164.5419947558
 21
110.6063024174
 31
0.0
  0
LINE
  5
1DD
330
1F
100
AcDbEntity
  8
0
  6
Continuous
 62
     7
370
     0
100
AcDbLine
 10
164.5419947558
 20
110.6063024174
 30
0.0
 11
146.7736734297
 21
120.8637359834
 31
0.0
  0
LINE
  5
1DE
330
1F
100
AcDbEntity
  8
0
  6
Continuous
 62
     7
370
     0
100
AcDbLine
 10
146.7736734297
 20
120.8637359834
 30
0.0
 11
147.1870841164
 21
118.8434286659
 31
0.0
  0
LINE
  5
1DF
330
1F
100
AcDbEntity
  8
0
  6
Continuous
 62
     7
370
     0
100
AcDbLine
 10
147.1870841164
 20
118.8434286659
 30
0.0
 11
146.9604203306
 21
118.7125359105
 31
0.0
  0
LINE
  5
1E0
330
1F
100
AcDbEntity
  8
0
  6
Continuous
 62
     7
370
     0
100
AcDbLine
 10
146.9604203306
 20
118.7125359105
 30
0.0
 11
146.9604203306
 21
116.9831067505
 31
0.0
  0
ARC
  5
1E1
330
1F
100
AcDbEntity
  8
0
  6
Continuous
 62
     7
370
     0
100
AcDbCircle
 10
144.2711271001
 20
113.4189064879
 30
0.0
 40
4.464954825285961
100
AcDbArc
 50
3.0976846507
 51
52.9643799199
  0
LINE
  5
1E2
330
1F
100
AcDbEntity
  8
0
  6
Continuous
 62
     7
370
     0
100
AcDbLine
 10
148.7295579783
 20
113.6601857778
 30
0.0
 11
149.2938727085
 21
112.9581834938
 31
0.0
  0
LINE
  5
1E3
330
1F
100
AcDbEntity
  8
0
  6
Continuous
 62
     7
370
     0
100
AcDbLine
 10
149.2938727085
 20
112.9581834938
 30
0.0
 11
149.2938727085
 21
106.0175865928
 31
0.0
  0
LINE
  5
1E4
330
1F
100
AcDbEntity
  8
0
  6
Continuous
 62
     7
370
     0
100
AcDbLine
 10
149.2938727085
 20
106.0175865928
 30
0.0
 11
148.7295576565
 21
105.967128577
 31
0.0
  0
LWPOLYLINE
  5
1E5
330
1F
100
AcDbEntity
  8
0
  6
Continuous
 62
     7
370
     0
100
AcDbPolyline
 90
        9
 70
   128
 43
0.0
 10
148.7295576565
 20
105.967128577
 10
148.6945694353
 20
105.5698580354
 10
148.595479266
 20
105.2235527301
 10
148.4354833919
 20
104.939383052
 10
148.2197426244
 20
104.726515151
 10
147.9552158772
 20
104.5918152738
 10
147.6504356998
 20
104.5396282869
 10
147.3152330524
 20
104.5716375285
 10
146.9604201996
 20
104.6868105118
  0
LINE
  5
1E6
330
1F
100
AcDbEntity
  8
0
  6
Continuous
 62
     7
370
     0
100
AcDbLine
 10
146.9604201996
 20
104.6868105118
 30
0.0
 11
146.9604201996
 21
102.8328586812
 31
0.0
  0
LINE
  5
1E7
330
1F
100
AcDbEntity
  8
0
  6
Continuous
 62
     7
370
     0
100
AcDbLine
 10
136.5805953079
 20
108.8250040447
 30
0.0
 11
146.9604201996
 21
102.8328586812
 31
0.0
  0
LINE
  5
1E8
330
1F
100
AcDbEntity
  8
0
  6
Continuous
 62
     7
370
     0
100
AcDbLine
 10
176.3053517497
 20
113.4098156459
 30
0.0
 11
187.0180194847
 21
119.5941070929
 31
0.0
  0
LINE
  5
1E9
330
1F
100
AcDbEntity
  8
0
  6
Continuous
 62
     7
370
     0
100
AcDbLine
 10
175.5982449685
 20
114.6345605137
 30
0.0
 11
186.3109127035
 21
120.8188519607
 31
0.0
  0
ARC
  5
1EA
330
1F
100
AcDbEntity
  8
0
  6
Continuous
 62
     7
370
     0
100
AcDbCircle
 10
185.4828033833
 20
119.5242462407
 30
0.0
 40
1.5368048075722
100
AcDbArc
 50
2.6054784857
 51
57.39452166
  0
LINE
  5
1EB
330
1F
100
AcDbEntity
  8
0
  6
Continuous
 62
     7
370
     0
100
AcDbLine
 10
176.3053517497
 20
87.7056911854
 30
0.0
 11
187.0180194847
 21
93.8899826325
 31
0.0
  0
LINE
  5
1EC
330
1F
100
AcDbEntity
  8
0
  6
Continuous
 62
     7
370
     0
100
AcDbLine
 10
187.0180194847
 20
93.8899826325
 30
0.0
 11
187.0180194847
 21
119.5941070929
 31
0.0
  0
LWPOLYLINE
  5
1ED
330
1F
100
AcDbEntity
  8
0
  6
Continuous
 62
     7
370
     0
100
AcDbPolyline
 90
       32
 70
   128
 43
0.0
 10
181.3611652352
 20
110.1635915159
 10
180.9199126345
 20
109.9606771906
 10
180.4967249672
 20
109.8697009597
 10
180.108927586
 20
109.8943874006
 10
179.7723969613
 20
110.0337258477
 10
179.5009106964
 20
110.2820117686
 10
179.3055834709
 20
110.6290803083
 10
179.1944120043
 20
111.0607224402
 10
179.1719476696
 20
111.5592666847
 10
179.2391101592
 20
112.1043025818
 10
179.393149833
 20
112.6735162979
 10
179.6277602886
 20
113.2436041565
 10
179.9333365464
 20
113.7912266937
 10
180.2973682784
 20
114.2939641785
 10
180.7049519829
 20
114.7312344792
 10
181.139401135
 20
115.0851356983
 10
181.5829293354
 20
115.3411790784
 10
182.0173784875
 20
115.4888821733
 10
182.4249621919
 20
115.5221980011
 10
182.788993924
 20
115.4397626077
 10
183.0945701817
 20
115.2449509079
 10
183.3291806373
 20
114.9457385156
 10
183.4832203111
 20
114.5543752212
 10
183.5503828007
 20
114.0868834841
 10
183.527918466
 20
113.5624024709
 10
183.4167469995
 20
113.0024044958
 10
183.221419774
 20
112.4298159418
 10
182.9499335091
 20
111.8680786515
 10
182.6134028844
 20
111.3401902156
 10
182.2256055032
 20
110.8677624488
 10
181.8024178358
 20
110.4701365992
 10
181.3611652352
 20
110.1635915159
  0
LINE
  5
1EE
330
1F
100
AcDbEntity
  8
0
  6
Continuous
 62
     7
370
     0
100
AcDbLine
 10
161.9510840916
 20
122.5128987928
 30
0.0
 11
172.6637518266
 21
128.6971902398
 31
0.0
  0
LINE
  5
1EF
330
1F
100
AcDbEntity
  8
0
  6
Continuous
 62
     7
370
     0
100
AcDbLine
 10
186.3109127035
 20
120.8188519607
 30
0.0
 11
172.6637518266
 21
128.6971902398
 31
0.0
  0
LWPOLYLINE
  5
1F0
330
1F
100
AcDbEntity
  8
0
  6
Continuous
 62
     7
370
     0
100
AcDbPolyline
 90
       22
 70
   128
 43
0.0
 10
179.1805606919
 20
111.6941512789
 10
179.2134558218
 20
111.4906230862
 10
179.3441981761
 20
111.1346331495
 10
179.554805309
 20
110.8691613383
 10
179.8347164992
 20
110.7075195178
 10
180.169895831
 20
110.6578130838
 10
180.5435360131
 20
110.7225345245
 10
180.9369011665
 20
110.8984384366
 10
181.3302663198
 20
111.1767042634
 10
181.7039065019
 20
111.5433785943
 10
182.0390858337
 20
111.9800748475
 10
182.318997024
 20
112.4648952492
 10
182.5296041568
 20
112.9735288801
 10
182.6603465111
 20
113.480470726
 10
182.7046681194
 20
113.9603006061
 10
182.6603465111
 20
114.3889578464
 10
182.5296041568
 20
114.7449477831
 10
182.318997024
 20
115.0104195943
 10
182.0390858337
 20
115.1720614148
 10
181.7039065019
 20
115.2217678488
 10
181.3302663198
 20
115.1570464081
 10
181.137284933
 20
115.0836643417
  0
LWPOLYLINE
  5
1F1
330
1F
100
AcDbEntity
  8
0
  6
Continuous
 62
     7
370
     0
100
AcDbPolyline
 90
       11
 70
   128
 43
0.0
 10
172.0980664016
 20
105.4685216576
 10
172.1413267382
 20
105.1281417625
 10
172.2668731246
 20
104.7711333018
 10
172.4624162059
 20
104.4324427509
 10
172.7088148628
 20
104.1452235008
 10
172.9819498781
 20
103.9375905728
 10
173.2550848934
 20
103.8298685247
 10
173.5014835503
 20
103.8326019409
 10
173.6970266316
 20
103.9455232558
 10
173.8225730181
 20
104.1575789442
 10
173.8601201149
 20
104.3354469896
  0
LWPOLYLINE
  5
1F2
330
1F
100
AcDbEntity
  8
0
  6
Continuous
 62
     7
370
     0
100
AcDbPolyline
 90
        6
 70
   128
 43
0.0
 10
172.8817579911
 20
106.0302035271
 10
172.7088148628
 20
106.0866646507
 10
172.4624162059
 20
106.0839312344
 10
172.2668731246
 20
105.9710099196
 10
172.1413267382
 20
105.7589542312
 10
172.0980664016
 20
105.4685216576
  0
LINE
  5
1F3
330
1F
100
AcDbEntity
  8
0
  6
Continuous
 62
     7
370
     0
100
AcDbLine
 10
161.7743073963
 20
122.8190850097
 30
0.0
 11
172.4869751313
 21
129.0033764568
 31
0.0
  0
LINE
  5
1F4
330
1F
100
AcDbEntity
  8
0
  6
Continuous
 62
     7
370
     0
100
AcDbLine
 10
172.6637518266
 20
128.6971902398
 30
0.0
 11
172.4869751313
 21
129.0033764568
 31
0.0
  0
LINE
  5
1F5
330
1F
100
AcDbEntity
  8
0
  6
Continuous
 62
     7
370
     0
100
AcDbLine
 10
149.5413600818
 20
129.881015177
 30
0.0
 11
160.2540278167
 21
136.065306624
 31
0.0
  0
LWPOLYLINE
  5
1F6
330
1F
100
AcDbEntity
  8
0
  6
Continuous
 62
     7
370
     0
100
AcDbPolyline
 90
       35
 70
   128
 43
0.0
 10
159.3701443403
 20
131.4321905894
 10
158.945737844
 20
131.1371426959
 10
158.622470826
 20
130.8020990661
 10
158.4113517568
 20
130.4384692091
 10
158.3195700432
 20
130.0586361036
 10
158.3502512014
 20
129.6755345103
 10
158.5023504212
 20
129.3022104946
 10
158.7706881462
 20
128.9513771581
 10
159.146126457
 20
128.6349817092
 10
159.6158802522
 20
128.3637986156
 10
160.1639526297
 20
128.1470626921
 10
160.771679642
 20
127.9921546208
 10
161.4183658747
 20
127.9043496102
 10
162.0819892037
 20
127.8866377546
 10
162.7399507324
 20
127.93962221
 10
163.3698443701
 20
128.0614986544
 10
163.9502198445
 20
128.2481167316
 10
164.4613131648
 20
128.4931213869
 10
164.8857196611
 20
128.7881692804
 10
165.2089866791
 20
129.1232129102
 10
165.4201057482
 20
129.4868427672
 10
165.5118874618
 20
129.8666758727
 10
165.4812063037
 20
130.249777466
 10
165.3291070839
 20
130.6231014817
 10
165.0607693589
 20
130.9739348182
 10
164.6853310481
 20
131.2903302671
 10
164.2155772529
 20
131.5615133607
 10
163.6675048754
 20
131.7782492842
 10
163.059777863
 20
131.9331573555
 10
162.4130916304
 20
132.0209623662
 10
161.7494683014
 20
132.0386742217
 10
161.0915067727
 20
131.9856897663
 10
160.461613135
 20
131.8638133219
 10
159.8812376606
 20
131.6771952447
 10
159.3701443403
 20
131.4321905894
  0
LINE
  5
1F7
330
1F
100
AcDbEntity
  8
0
  6
Continuous
 62
     7
370
     0
100
AcDbLine
 10
172.4869751313
 20
129.0033764568
 30
0.0
 11
160.2540278167
 21
136.065306624
 31
0.0
  0
LWPOLYLINE
  5
1F8
330
1F
100
AcDbEntity
  8
0
  6
Continuous
 62
     7
370
     0
100
AcDbPolyline
 90
       15
 70
   128
 43
0.0
 10
154.3143308548
 20
122.9612000389
 10
154.3586524631
 20
122.4813701589
 10
154.4893948174
 20
121.974428313
 10
154.7000019503
 20
121.4657946821
 10
154.9799131405
 20
120.9809742804
 10
155.3150924723
 20
120.5442780272
 10
155.6887326544
 20
120.1776036962
 10
156.0820978077
 20
119.8993378694
 10
156.4754629611
 20
119.7234339574
 10
156.8491031432
 20
119.6587125167
 10
157.184282475
 20
119.7084189507
 10
157.4641936652
 20
119.8700607712
 10
157.6748007981
 20
120.1355325823
 10
157.8055431524
 20
120.491522519
 10
157.8384382823
 20
120.6950507117
  0
LWPOLYLINE
  5
1F9
330
1F
100
AcDbEntity
  8
0
  6
Continuous
 62
     7
370
     0
100
AcDbPolyline
 90
        8
 70
   128
 43
0.0
 10
155.8817140411
 20
124.0845637746
 10
155.6887326544
 20
124.1579458409
 10
155.3150924723
 20
124.2226672816
 10
154.9799131405
 20
124.1729608476
 10
154.7000019503
 20
124.0113190271
 10
154.4893948174
 20
123.745847216
 10
154.3586524631
 20
123.3898572793
 10
154.3143308548
 20
122.9612000389
  0
ARC
  5
1FA
330
1F
100
AcDbEntity
  8
0
  6
Continuous
 62
     7
370
     0
100
AcDbCircle
 10
160.1803293224
 20
129.388730365
 30
0.0
 40
1.898407933342039
100
AcDbArc
 50
115.2627978443
 51
167.508446095
  0
LWPOLYLINE
  5
1FB
330
1F
100
AcDbEntity
  8
0
  6
Continuous
 62
     7
370
     0
100
AcDbPolyline
 90
       14
 70
   128
 43
0.0
 10
165.504596818
 20
129.7993478258
 10
165.4812063037
 20
129.9231611412
 10
165.3291070839
 20
130.2964851569
 10
165.0607693589
 20
130.6473184934
 10
164.6853310481
 20
130.9637139423
 10
164.2155772529
 20
131.234897036
 10
163.6675048754
 20
131.4516329594
 10
163.059777863
 20
131.6065410308
 10
162.4130916304
 20
131.6943460414
 10
161.7494683014
 20
131.712057897
 10
161.0915067727
 20
131.6590734415
 10
160.461613135
 20
131.5371969971
 10
159.8812376606
 20
131.3505789199
 10
159.3701443403
 20
131.1055742647
  0
LWPOLYLINE
  5
1FC
330
1F
100
AcDbEntity
  8
0
  6
Continuous
 62
     7
370
     0
100
AcDbPolyline
 90
       17
 70
   128
 43
0.0
 10
162.2692821431
 20
130.2483457473
 10
162.1608957675
 20
130.1547029409
 10
162.1228355337
 20
130.0442437193
 10
162.1608957675
 20
129.9337844978
 10
162.2692821431
 20
129.8401416914
 10
162.4314938175
 20
129.7775715685
 10
162.6228355337
 20
129.7555998633
 10
162.8141772499
 20
129.7775715685
 10
162.9763889243
 20
129.8401416914
 10
163.0847753
 20
129.9337844978
 10
163.1228355337
 20
130.0442437193
 10
163.0847753
 20
130.1547029409
 10
162.9763889243
 20
130.2483457473
 10
162.8141772499
 20
130.3109158701
 10
162.6228355337
 20
130.3328875754
 10
162.4314938175
 20
130.3109158701
 10
162.2692821431
 20
130.2483457473
  0
LINE
  5
1FD
330
1F
100
AcDbEntity
  8
0
  6
Continuous
 62
     7
370
     0
100
AcDbLine
 10
174.7350721701
 20
86.7988933911
 30
0.0
 11
185.4477399051
 21
92.9831848382
 31
0.0
  0
LINE
  5
1FE
330
1F
100
AcDbEntity
  8
0
  6
Continuous
 62
     7
370
     0
100
AcDbLine
 10
185.4477399051
 20
92.9831848382
 30
0.0
 11
187.0180194847
 21
93.8899826325
 31
0.0
  0
LINE
  5
1FF
330
1F
100
AcDbEntity
  8
0
  6
Continuous
 62
     7
370
     0
100
AcDbLine
 10
135.7174225096
 20
137.6572692671
 30
0.0
 11
146.4300902446
 21
143.8415607141
 31
0.0
  0
LINE
  5
200
330
1F
100
AcDbEntity
  8
0
  6
Continuous
 62
     7
370
     0
100
AcDbLine
 10
160.0772223879
 20
135.9632390225
 30
0.0
 11
146.4300902446
 21
143.8415607141
 31
0.0
  0
LINE
  5
201
330
1F
100
AcDbEntity
  8
0
  6
Continuous
 62
     7
370
     0
100
AcDbLine
 10
162.6041304178
 20
105.9466857013
 30
0.0
 11
162.0217947699
 21
105.6105104874
 31
0.0
  0
LINE
  5
202
330
1F
100
AcDbEntity
  8
0
  6
Continuous
 62
     7
370
     0
100
AcDbLine
 10
148.7302058308
 20
119.7342538699
 30
0.0
 11
147.1870841164
 21
118.8434286659
 31
0.0
  0
LINE
  5
203
330
1F
100
AcDbEntity
  8
0
  6
Continuous
 62
     7
370
     0
100
AcDbLine
 10
148.730242673
 20
119.7342326014
 30
0.0
 11
146.9604203306
 21
118.7125359105
 31
0.0
  0
LINE
  5
204
330
1F
100
AcDbEntity
  8
0
  6
Continuous
 62
     7
370
     0
100
AcDbLine
 10
153.9907492026
 20
116.6974068225
 30
0.0
 11
148.7295579783
 21
113.6601857778
 31
0.0
  0
LINE
  5
205
330
1F
100
AcDbEntity
  8
0
  6
Continuous
 62
     7
370
     0
100
AcDbLine
 10
150.2281345593
 20
118.8695180214
 30
0.0
 11
146.9604203306
 21
116.9831067505
 31
0.0
  0
LWPOLYLINE
  5
206
330
1F
100
AcDbEntity
  8
0
  6
Continuous
 62
     7
370
     0
100
AcDbPolyline
 90
        6
 70
   128
 43
0.0
 10
146.4300902446
 20
143.8415607141
 10
146.2921405549
 20
143.9055077721
 10
146.1594921945
 20
143.935618175
 10
146.0372427654
 20
143.930734797
 10
145.9300902446
 20
143.8910453035
 10
145.9301308782
 20
143.8910687646
  0
LINE
  5
207
330
1F
100
AcDbEntity
  8
0
  6
Continuous
 62
     7
370
     0
100
AcDbLine
 10
154.8809242591
 20
116.1835197008
 30
0.0
 11
149.2938727085
 21
112.9581834938
 31
0.0
  0
LINE
  5
208
330
1F
100
AcDbEntity
  8
0
  6
Continuous
 62
     7
370
     0
100
AcDbLine
 10
160.0065404435
 20
112.2018780399
 30
0.0
 11
149.2938727085
 21
106.0175865928
 31
0.0
  0
LINE
  5
209
330
1F
100
AcDbEntity
  8
0
  6
Continuous
 62
     7
370
     0
100
AcDbLine
 10
160.0065404435
 20
112.2018780399
 30
0.0
 11
160.0065404435
 21
113.2245644607
 31
0.0
  0
LWPOLYLINE
  5
20A
330
1F
100
AcDbEntity
  8
0
  6
Continuous
 62
     7
370
     0
100
AcDbPolyline
 90
       11
 70
   128
 43
0.0
 10
137.8740981922
 20
125.2255979637
 10
137.9173585287
 20
124.8852180686
 10
138.0429049152
 20
124.5282096079
 10
138.2384479965
 20
124.189519057
 10
138.4848466534
 20
123.9022998069
 10
138.7579816687
 20
123.6946668789
 10
139.031116684
 20
123.5869448308
 10
139.2775153409
 20
123.589678247
 10
139.4730584222
 20
123.7025995619
 10
139.5986048086
 20
123.9146552503
 10
139.636151906
 20
124.0925233008
  0
LWPOLYLINE
  5
20B
330
1F
100
AcDbEntity
  8
0
  6
Continuous
 62
     7
370
     0
100
AcDbPolyline
 90
        6
 70
   128
 43
0.0
 10
138.6577897859
 20
125.7872798313
 10
138.4848466534
 20
125.8437409568
 10
138.2384479965
 20
125.8410075406
 10
138.0429049152
 20
125.7280862257
 10
137.9173585287
 20
125.5160305373
 10
137.8740981922
 20
125.2255979637
  0
ARC
  5
20C
330
1F
100
AcDbEntity
  8
0
  6
Continuous
 62
     7
370
     0
100
AcDbCircle
 10
158.1001052831
 20
111.9520924851
 30
0.0
 40
1.326914354497958
100
AcDbArc
 50
304.4031005298
 51
356.2670694011
  0
LINE
  5
20D
330
1F
100
AcDbEntity
  8
0
  6
Continuous
 62
     7
370
     0
100
AcDbLine
 10
157.6730879346
 20
109.0171501282
 30
0.0
 11
146.9604201996
 21
102.8328586812
 31
0.0
  0
LINE
  5
20E
330
1F
100
AcDbEntity
  8
0
  6
Continuous
 62
     7
370
     0
100
AcDbLine
 10
157.6730879346
 20
109.0171501282
 30
0.0
 11
157.6730879346
 21
110.1779609009
 31
0.0
  0
LINE
  5
20F
330
1F
100
AcDbEntity
  8
0
  6
Continuous
 62
     7
370
     0
100
AcDbLine
 10
157.6377268488
 20
108.9967366079
 30
0.0
 11
157.6730879346
 21
108.9763230876
 31
0.0
  0
LINE
  5
210
330
1F
100
AcDbEntity
  8
0
  6
Continuous
 62
     7
370
     0
100
AcDbLine
 10
145.1572980384
 20
143.8414412841
 30
0.0
 11
145.1572980384
 21
143.4449218627
 31
0.0
  0
LINE
  5
211
330
1F
100
AcDbEntity
  8
0
  6
Continuous
 62
     7
370
     0
100
AcDbLine
 10
146.2179582102
 20
144.453946418
 30
0.0
 11
145.1572980384
 21
143.8414412841
 31
0.0
  0
LINE
  5
212
330
1F
100
AcDbEntity
  8
0
  6
Continuous
 62
     7
370
     0
100
AcDbLine
 10
186.5230447378
 20
121.1863152311
 30
0.0
 11
146.2179582102
 21
144.453946418
 31
0.0
  0
LINE
  5
213
330
1F
100
AcDbEntity
  8
0
  6
Continuous
 62
     7
370
     0
100
AcDbLine
 10
187.5837049096
 20
119.3491979294
 30
0.0
 11
186.5230447378
 21
121.1863152311
 31
0.0
  0
LINE
  5
214
330
1F
100
AcDbEntity
  8
0
  6
Continuous
 62
     7
370
     0
100
AcDbLine
 10
187.5837049096
 20
94.1589138827
 30
0.0
 11
187.5837049096
 21
119.3491979294
 31
0.0
  0
LINE
  5
215
330
1F
100
AcDbEntity
  8
0
  6
Continuous
 62
     7
370
     0
100
AcDbLine
 10
185.462384566
 20
92.9339036148
 30
0.0
 11
187.5837049096
 21
94.1589138827
 31
0.0
  0
LINE
  5
216
330
1F
100
AcDbEntity
  8
0
  6
Continuous
 62
     7
370
     0
100
AcDbLine
 10
185.4123788193
 20
92.9627713179
 30
0.0
 11
185.462384566
 21
92.9339036148
 31
0.0
  0
LINE
  5
217
330
1F
100
AcDbEntity
  8
0
  6
Continuous
 62
     7
370
     0
100
AcDbLine
 10
160.0065404435
 20
113.2245644607
 30
0.0
 11
160.0065404435
 21
112.2018780399
 31
0.0
  0
ARC
  5
218
330
1F
100
AcDbEntity
  8
0
  6
Continuous
 62
     7
370
     0
100
AcDbCircle
 10
158.133271937
 20
111.9332014675
 30
0.0
 40
1.292695919869378
100
AcDbArc
 50
303.6632633487
 51
357.0069065822
  0
LINE
  5
219
330
1F
100
AcDbEntity
  8
0
  6
Continuous
 62
     7
370
     0
100
AcDbLine
 10
157.6730879346
 20
110.1779609009
 30
0.0
 11
157.6730879346
 21
108.9763230876
 31
0.0
  0
LINE
  5
21A
330
1F
100
AcDbEntity
  8
0
  6
Continuous
 62
     7
370
     0
100
AcDbLine
 10
187.5837049096
 20
119.3491979294
 30
0.0
 11
235.2427019616
 21
146.8621512978
 31
0.0
  0
LINE
  5
21B
330
1F
100
AcDbEntity
  8
0
  6
Continuous
 62
     7
370
     0
100
AcDbLine
 10
186.5230447378
 20
121.1863152311
 30
0.0
 11
234.1820417898
 21
148.6992685995
 31
0.0
  0
LINE
  5
21C
330
1F
100
AcDbEntity
  8
0
  6
Continuous
 62
     7
370
     0
100
AcDbLine
 10
235.2427019616
 20
146.8621512978
 30
0.0
 11
234.1820417898
 21
148.6992685995
 31
0.0
  0
LINE
  5
21D
330
1F
100
AcDbEntity
  8
0
  6
Continuous
 62
     7
370
     0
100
AcDbLine
 10
187.5837049096
 20
94.1589138827
 30
0.0
 11
235.2427019616
 21
121.6718672511
 31
0.0
  0
LINE
  5
21E
330
1F
100
AcDbEntity
  8
0
  6
Continuous
 62
     7
370
     0
100
AcDbLine
 10
235.2427019616
 20
121.6718672511
 30
0.0
 11
235.2427019616
 21
146.8621512978
 31
0.0
  0
LINE
  5
21F
330
1F
100
AcDbEntity
  8
0
  6
Continuous
 62
     7
370
     0
100
AcDbLine
 10
146.2179582102
 20
144.453946418
 30
0.0
 11
193.8769552622
 21
171.9668997865
 31
0.0
  0
LINE
  5
220
330
1F
100
AcDbEntity
  8
0
  6
Continuous
 62
     7
370
     0
100
AcDbLine
 10
234.1820417898
 20
148.6992685995
 30
0.0
 11
193.8769552622
 21
171.9668997865
 31
0.0
  0
LWPOLYLINE
  5
221
330
1F
100
AcDbEntity
  8
0
  6
Continuous
 62
     7
370
     0
100
AcDbPolyline
 90
       37
 70
   128
 43
0.0
 10
193.0284271247
 20
161.2719535216
 10
192.4943057454
 20
161.0132241072
 10
191.890473047
 20
160.8119683499
 10
191.2352761804
 20
160.674301304
 10
190.548622971
 20
160.604405913
 10
189.851377029
 20
160.604405913
 10
189.1647238196
 20
160.674301304
 10
188.509526953
 20
160.8119683499
 10
187.9056942546
 20
161.0132241072
 10
187.3715728753
 20
161.2719535216
 10
186.9233918228
 20
161.5802952306
 10
186.5747688519
 20
161.9288804276
 10
186.3362966948
 20
162.3071175277
 10
186.2152212076
 20
162.7035139879
 10
186.2152212076
 20
163.1060255025
 10
186.3362966948
 20
163.5024219628
 10
186.5747688519
 20
163.8806590628
 10
186.9233918228
 20
164.2292442598
 10
187.3715728753
 20
164.5375859689
 10
187.9056942546
 20
164.7963153832
 10
188.509526953
 20
164.9975711405
 10
189.1647238196
 20
165.1352381864
 10
189.851377029
 20
165.2051335774
 10
190.548622971
 20
165.2051335774
 10
191.2352761804
 20
165.1352381864
 10
191.890473047
 20
164.9975711405
 10
192.4943057454
 20
164.7963153832
 10
193.0284271247
 20
164.5375859689
 10
193.4766081772
 20
164.2292442598
 10
193.8252311481
 20
163.8806590628
 10
194.0637033052
 20
163.5024219628
 10
194.1847787924
 20
163.1060255025
 10
194.1847787924
 20
162.7035139879
 10
194.0637033052
 20
162.3071175277
 10
193.8252311481
 20
161.9288804276
 10
193.4766081772
 20
161.5802952306
 10
193.0284271247
 20
161.2719535216
  0
LWPOLYLINE
  5
222
330
1F
100
AcDbEntity
  8
0
  6
Continuous
 62
     7
370
     0
100
AcDbPolyline
 90
       37
 70
   128
 43
0.0
 10
221.3126983722
 20
144.9437912851
 10
220.7785769929
 20
144.6850618708
 10
220.1747442944
 20
144.4838061135
 10
219.5195474279
 20
144.3461390676
 10
218.8328942185
 20
144.2762436766
 10
218.1356482765
 20
144.2762436766
 10
217.4489950671
 20
144.3461390676
 10
216.7937982005
 20
144.4838061135
 10
216.1899655021
 20
144.6850618708
 10
215.6558441227
 20
144.9437912851
 10
215.2076630703
 20
145.2521329942
 10
214.8590400993
 20
145.6007181911
 10
214.6205679423
 20
145.9789552912
 10
214.4994924551
 20
146.3753517515
 10
214.4994924551
 20
146.7778632661
 10
214.6205679423
 20
147.1742597263
 10
214.8590400993
 20
147.5524968264
 10
215.2076630703
 20
147.9010820234
 10
215.6558441227
 20
148.2094237324
 10
216.1899655021
 20
148.4681531468
 10
216.7937982005
 20
148.6694089041
 10
217.4489950671
 20
148.80707595
 10
218.1356482765
 20
148.876971341
 10
218.8328942185
 20
148.876971341
 10
219.5195474279
 20
148.80707595
 10
220.1747442944
 20
148.6694089041
 10
220.7785769929
 20
148.4681531468
 10
221.3126983722
 20
148.2094237324
 10
221.7608794246
 20
147.9010820234
 10
222.1095023956
 20
147.5524968264
 10
222.3479745526
 20
147.1742597263
 10
222.4690500398
 20
146.7778632661
 10
222.4690500398
 20
146.3753517515
 10
222.3479745526
 20
145.9789552912
 10
222.1095023956
 20
145.6007181911
 10
221.7608794246
 20
145.2521329942
 10
221.3126983722
 20
144.9437912851
  0
LWPOLYLINE
  5
223
330
1F
100
AcDbEntity
  8
0
  6
Continuous
 62
     7
370
     0
100
AcDbPolyline
 90
       37
 70
   128
 43
0.0
 10
193.0284271247
 20
128.6156290487
 10
192.4943057454
 20
128.3568996343
 10
191.890473047
 20
128.155643877
 10
191.2352761804
 20
128.0179768311
 10
190.548622971
 20
127.9480814401
 10
189.851377029
 20
127.9480814401
 10
189.1647238196
 20
128.0179768311
 10
188.509526953
 20
128.155643877
 10
187.9056942546
 20
128.3568996343
 10
187.3715728753
 20
128.6156290487
 10
186.9233918228
 20
128.9239707577
 10
186.5747688519
 20
129.2725559547
 10
186.3362966948
 20
129.6507930548
 10
186.2152212076
 20
130.047189515
 10
186.2152212076
 20
130.4497010296
 10
186.3362966948
 20
130.8460974899
 10
186.5747688519
 20
131.2243345899
 10
186.9233918228
 20
131.5729197869
 10
187.3715728753
 20
131.881261496
 10
187.9056942546
 20
132.1399909103
 10
188.509526953
 20
132.3412466676
 10
189.1647238196
 20
132.4789137135
 10
189.851377029
 20
132.5488091045
 10
190.548622971
 20
132.5488091045
 10
191.2352761804
 20
132.4789137135
 10
191.890473047
 20
132.3412466676
 10
192.4943057454
 20
132.1399909103
 10
193.0284271247
 20
131.881261496
 10
193.4766081772
 20
131.5729197869
 10
193.8252311481
 20
131.2243345899
 10
194.0637033052
 20
130.8460974899
 10
194.1847787924
 20
130.4497010296
 10
194.1847787924
 20
130.047189515
 10
194.0637033052
 20
129.6507930548
 10
193.8252311481
 20
129.2725559547
 10
193.4766081772
 20
128.9239707577
 10
193.0284271247
 20
128.6156290487
  0
LWPOLYLINE
  5
224
330
1F
100
AcDbEntity
  8
0
  6
Continuous
 62
     7
370
     0
100
AcDbPolyline
 90
       37
 70
   128
 43
0.0
 10
164.7441558773
 20
144.9437912851
 10
164.2100344979
 20
144.6850618708
 10
163.6062017995
 20
144.4838061135
 10
162.9510049329
 20
144.3461390676
 10
162.2643517235
 20
144.2762436766
 10
161.5671057815
 20
144.2762436766
 10
160.8804525721
 20
144.3461390676
 10
160.2252557056
 20
144.4838061135
 10
159.6214230071
 20
144.6850618708
 10
159.0873016278
 20
144.9437912851
 10
158.6391205754
 20
145.2521329942
 10
158.2904976044
 20
145.6007181911
 10
158.0520254474
 20
145.9789552912
 10
157.9309499602
 20
146.3753517515
 10
157.9309499602
 20
146.7778632661
 10
158.0520254474
 20
147.1742597263
 10
158.2904976044
 20
147.5524968264
 10
158.6391205754
 20
147.9010820234
 10
159.0873016278
 20
148.2094237324
 10
159.6214230071
 20
148.4681531468
 10
160.2252557056
 20
148.6694089041
 10
160.8804525721
 20
148.80707595
 10
161.5671057815
 20
148.876971341
 10
162.2643517235
 20
148.876971341
 10
162.9510049329
 20
148.80707595
 10
163.6062017995
 20
148.6694089041
 10
164.2100344979
 20
148.4681531468
 10
164.7441558773
 20
148.2094237324
 10
165.1923369297
 20
147.9010820234
 10
165.5409599007
 20
147.5524968264
 10
165.7794320577
 20
147.1742597263
 10
165.9005075449
 20
146.7778632661
 10
165.9005075449
 20
146.3753517515
 10
165.7794320577
 20
145.9789552912
 10
165.5409599007
 20
145.6007181911
 10
165.1923369297
 20
145.2521329942
 10
164.7441558773
 20
144.9437912851
  0
LWPOLYLINE
  5
225
330
1F
100
AcDbEntity
  8
0
  6
Continuous
 62
     7
370
     0
100
AcDbPolyline
 90
       18
 70
   128
 43
0.0
 10
192.6748737342
 20
131.2688890621
 10
192.1617766078
 20
131.5134562747
 10
191.5777757636
 20
131.6975467375
 10
190.9439785134
 20
131.8145069416
 10
190.2832919414
 20
131.8601096404
 10
189.6195949816
 20
131.8327066335
 10
188.9768753714
 20
131.7332883372
 10
188.3783626721
 20
131.5654479875
 10
187.845688692
 20
131.3352517721
 10
187.3981056568
 20
131.0510195819
 10
187.0517903833
 20
130.7230243089
 10
186.819259608
 20
130.3631205567
 10
186.7089175989
 20
129.9843161849
 10
186.7247524036
 20
129.6003021702
 10
186.8661917112
 20
129.2249577797
 10
187.1281235365
 20
128.8718489377
 10
187.5010809809
 20
128.5537379176
 10
187.5597358955
 20
128.5137936319
  0
LWPOLYLINE
  5
226
330
1F
100
AcDbEntity
  8
0
  6
Continuous
 62
     7
370
     0
100
AcDbPolyline
 90
        9
 70
   128
 43
0.0
 10
192.8402641045
 20
128.5137936319
 10
193.1885845221
 20
128.7885660211
 10
193.4793240375
 20
129.1340800479
 10
193.651540238
 20
129.5051141812
 10
193.6990087814
 20
129.8882582807
 10
193.6200140309
 20
130.2696645202
 10
193.4174110625
 20
130.6355478847
 10
193.0985224755
 20
130.9726843959
 10
192.6748737342
 20
131.2688890621
  0
LINE
  5
227
330
1F
100
AcDbEntity
  8
0
  6
Continuous
 62
     7
370
     0
100
AcDbLine
 10
185.462384566
 20
92.9339036148
 30
0.0
 11
233.121381618
 21
120.4468569832
 31
0.0
  0
LINE
  5
228
330
1F
100
AcDbEntity
  8
0
  6
Continuous
 62
     7
370
     0
100
AcDbLine
 10
233.121381618
 20
120.4468569832
 30
0.0
 11
235.2427019616
 21
121.6718672511
 31
0.0
  0
LWPOLYLINE
  5
229
330
1F
100
AcDbEntity
  8
0
  6
Continuous
 62
     7
370
     0
100
AcDbPolyline
 90
       18
 70
   128
 43
0.0
 10
164.3906024867
 20
147.5970512985
 10
163.8775053604
 20
147.8416185111
 10
163.2935045161
 20
148.025708974
 10
162.659707266
 20
148.142669178
 10
161.9990206939
 20
148.1882718768
 10
161.3353237341
 20
148.16086887
 10
160.6926041239
 20
148.0614505736
 10
160.0940914246
 20
147.893610224
 10
159.5614174446
 20
147.6634140085
 10
159.1138344093
 20
147.3791818183
 10
158.7675191359
 20
147.0511865453
 10
158.5349883605
 20
146.6912827932
 10
158.4246463514
 20
146.3124784213
 10
158.4404811562
 20
145.9284644066
 10
158.5819204638
 20
145.5531200161
 10
158.8438522891
 20
145.2000111741
 10
159.2168097334
 20
144.8819001541
 10
159.2754646481
 20
144.8419558683
  0
LWPOLYLINE
  5
22A
330
1F
100
AcDbEntity
  8
0
  6
Continuous
 62
     7
370
     0
100
AcDbPolyline
 90
        9
 70
   128
 43
0.0
 10
164.555992857
 20
144.8419558683
 10
164.9043132746
 20
145.1167282576
 10
165.19505279
 20
145.4622422844
 10
165.3672689906
 20
145.8332764177
 10
165.414737534
 20
146.2164205171
 10
165.3357427834
 20
146.5978267567
 10
165.1331398151
 20
146.9637101211
 10
164.814251228
 20
147.3008466324
 10
164.3906024867
 20
147.5970512985
  0
LWPOLYLINE
  5
22B
330
1F
100
AcDbEntity
  8
0
  6
Continuous
 62
     7
370
     0
100
AcDbPolyline
 90
       18
 70
   128
 43
0.0
 10
220.9591449816
 20
147.5970512985
 10
220.4460478553
 20
147.8416185111
 10
219.862047011
 20
148.025708974
 10
219.2282497609
 20
148.142669178
 10
218.5675631889
 20
148.1882718768
 10
217.9038662291
 20
148.16086887
 10
217.2611466189
 20
148.0614505736
 10
216.6626339196
 20
147.893610224
 10
216.1299599395
 20
147.6634140085
 10
215.6823769042
 20
147.3791818183
 10
215.3360616308
 20
147.0511865453
 10
215.1035308555
 20
146.6912827932
 10
214.9931888463
 20
146.3124784213
 10
215.0090236511
 20
145.9284644066
 10
215.1504629587
 20
145.5531200161
 10
215.412394784
 20
145.2000111741
 10
215.7853522284
 20
144.8819001541
 10
215.8440071431
 20
144.8419558682
  0
LWPOLYLINE
  5
22C
330
1F
100
AcDbEntity
  8
0
  6
Continuous
 62
     7
370
     0
100
AcDbPolyline
 90
        9
 70
   128
 43
0.0
 10
221.1245353518
 20
144.8419558682
 10
221.4728557695
 20
145.1167282576
 10
221.763595285
 20
145.4622422844
 10
221.9358114855
 20
145.8332764177
 10
221.9832800289
 20
146.2164205171
 10
221.9042852784
 20
146.5978267567
 10
221.70168231
 20
146.9637101211
 10
221.382793723
 20
147.3008466324
 10
220.9591449816
 20
147.5970512985
  0
LINE
  5
22D
330
1F
100
AcDbEntity
  8
0
  6
Continuous
 62
     7
370
     0
100
AcDbLine
 10
160.8923088389
 20
112.7132212503
 30
0.0
 11
160.0065404435
 21
112.2018780399
 31
0.0
  0
LINE
  5
22E
330
1F
100
AcDbEntity
  8
0
  6
Continuous
 62
     7
370
     0
100
AcDbLine
 10
162.5192978192
 20
111.7739805042
 30
0.0
 11
157.6730879346
 21
108.9763230876
 31
0.0
  0
LWPOLYLINE
  5
22F
330
1F
100
AcDbEntity
  8
0
  6
Continuous
 62
     7
370
     0
100
AcDbPolyline
 90
       18
 70
   128
 43
0.0
 10
192.6748737342
 20
163.925213535
 10
192.1617766078
 20
164.1697807476
 10
191.5777757636
 20
164.3538712104
 10
190.9439785134
 20
164.4708314145
 10
190.2832919414
 20
164.5164341133
 10
189.6195949816
 20
164.4890311065
 10
188.9768753714
 20
164.3896128101
 10
188.3783626721
 20
164.2217724604
 10
187.845688692
 20
163.991576245
 10
187.3981056568
 20
163.7073440548
 10
187.0517903833
 20
163.3793487818
 10
186.819259608
 20
163.0194450297
 10
186.7089175989
 20
162.6406406578
 10
186.7247524036
 20
162.2566266431
 10
186.8661917112
 20
161.8812822526
 10
187.1281235365
 20
161.5281734106
 10
187.5010809809
 20
161.2100623905
 10
187.5597358955
 20
161.1701181048
  0
LWPOLYLINE
  5
230
330
1F
100
AcDbEntity
  8
0
  6
Continuous
 62
     7
370
     0
100
AcDbPolyline
 90
        9
 70
   128
 43
0.0
 10
192.8402641045
 20
161.1701181048
 10
193.1885845221
 20
161.444890494
 10
193.4793240375
 20
161.7904045208
 10
193.651540238
 20
162.1614386541
 10
193.6990087814
 20
162.5445827536
 10
193.6200140309
 20
162.9259889931
 10
193.4174110625
 20
163.2918723576
 10
193.0985224755
 20
163.6290088688
 10
192.6748737342
 20
163.925213535
  0
LINE
  5
231
330
1F
100
AcDbEntity
  8
0
  6
Continuous
 62
     7
370
     0
100
AcDbLine
 10
244.6825774904
 20
154.5160967762
 30
0.0
 11
234.288133665
 21
148.5155120819
 31
0.0
  0
LINE
  5
232
330
1F
100
AcDbEntity
  8
0
  6
Continuous
 62
     7
370
     0
100
AcDbLine
 10
245.3896842716
 20
153.2913519084
 30
0.0
 11
234.9952404462
 21
147.2907672141
 31
0.0
  0
LINE
  5
233
330
1F
100
AcDbEntity
  8
0
  6
Continuous
 62
     7
370
     0
100
AcDbLine
 10
204.8017550315
 20
177.5388055296
 30
0.0
 11
194.5134203257
 21
171.5994763261
 31
0.0
  0
LWPOLYLINE
  5
234
330
1F
100
AcDbEntity
  8
0
  6
Continuous
 62
     7
370
     0
100
AcDbPolyline
 90
       17
 70
   128
 43
0.0
 10
187.3715728753
 20
128.2073586427
 10
186.50448187
 20
128.9565010939
 10
186.2
 20
129.8401748664
 10
186.50448187
 20
130.7238486389
 10
187.3715728753
 20
131.47299109
 10
188.6692662705
 20
131.9735520726
 10
190.2
 20
132.1493257147
 10
191.7307337295
 20
131.9735520726
 10
193.0284271247
 20
131.47299109
 10
193.89551813
 20
130.7238486389
 10
194.2
 20
129.8401748664
 10
193.89551813
 20
128.9565010939
 10
193.0284271247
 20
128.2073586427
 10
191.7307337295
 20
127.7067976601
 10
190.2
 20
127.531024018
 10
188.6692662705
 20
127.7067976601
 10
187.3715728753
 20
128.2073586427
  0
LWPOLYLINE
  5
235
330
1F
100
AcDbEntity
  8
0
  6
Continuous
 62
     7
370
     0
100
AcDbPolyline
 90
       17
 70
   128
 43
0.0
 10
159.0873016278
 20
144.5355208792
 10
158.2202106225
 20
145.2846633303
 10
157.9157287525
 20
146.1683371028
 10
158.2202106225
 20
147.0520108753
 10
159.0873016278
 20
147.8011533265
 10
160.3849950231
 20
148.3017143091
 10
161.9157287525
 20
148.4774879512
 10
163.446462482
 20
148.3017143091
 10
164.7441558773
 20
147.8011533265
 10
165.6112468826
 20
147.0520108753
 10
165.9157287525
 20
146.1683371028
 10
165.6112468826
 20
145.2846633303
 10
164.7441558773
 20
144.5355208792
 10
163.446462482
 20
144.0349598966
 10
161.9157287525
 20
143.8591862545
 10
160.3849950231
 20
144.0349598966
 10
159.0873016278
 20
144.5355208792
  0
LWPOLYLINE
  5
236
330
1F
100
AcDbEntity
  8
0
  6
Continuous
 62
     7
370
     0
100
AcDbPolyline
 90
       17
 70
   128
 43
0.0
 10
215.6558441227
 20
144.5355208792
 10
214.7887531174
 20
145.2846633303
 10
214.4842712475
 20
146.1683371028
 10
214.7887531174
 20
147.0520108753
 10
215.6558441227
 20
147.8011533265
 10
216.953537518
 20
148.3017143091
 10
218.4842712475
 20
148.4774879512
 10
220.0150049769
 20
148.3017143091
 10
221.3126983722
 20
147.8011533265
 10
222.1797893775
 20
147.0520108753
 10
222.4842712475
 20
146.1683371028
 10
222.1797893775
 20
145.2846633303
 10
221.3126983722
 20
144.5355208792
 10
220.0150049769
 20
144.0349598966
 10
218.4842712475
 20
143.8591862545
 10
216.953537518
 20
144.0349598966
 10
215.6558441227
 20
144.5355208792
  0
LWPOLYLINE
  5
237
330
1F
100
AcDbEntity
  8
0
  6
Continuous
 62
     7
370
     0
100
AcDbPolyline
 90
       17
 70
   128
 43
0.0
 10
187.3715728753
 20
160.8636831156
 10
186.50448187
 20
161.6128255668
 10
186.2
 20
162.4964993393
 10
186.50448187
 20
163.3801731118
 10
187.3715728753
 20
164.1293155629
 10
188.6692662705
 20
164.6298765455
 10
190.2
 20
164.8056501876
 10
191.7307337295
 20
164.6298765455
 10
193.0284271247
 20
164.1293155629
 10
193.89551813
 20
163.3801731118
 10
194.2
 20
162.4964993393
 10
193.89551813
 20
161.6128255668
 10
193.0284271247
 20
160.8636831156
 10
191.7307337295
 20
160.363122133
 10
190.2
 20
160.1873484909
 10
188.6692662705
 20
160.363122133
 10
187.3715728753
 20
160.8636831156
  0
LWPOLYLINE
  5
238
330
1F
100
AcDbEntity
  8
0
  6
Continuous
 62
     7
370
     0
100
AcDbPolyline
 90
       17
 70
   128
 43
0.0
 10
172.9819498781
 20
103.7334553699
 10
172.576052803
 20
104.0610079662
 10
172.2319498781
 20
104.525160054
 10
172.0020276545
 20
105.0552486854
 10
171.9212897063
 20
105.5705726716
 10
172.0020276545
 20
105.992678607
 10
172.2319498781
 20
106.2573046896
 10
172.576052803
 20
106.3241639969
 10
172.9819498781
 20
106.1830778055
 10
173.3878469532
 20
105.8555252092
 10
173.7319498781
 20
105.3913731214
 10
173.9618721018
 20
104.86128449
 10
174.0426100499
 20
104.3459605038
 10
173.9618721018
 20
103.9238545683
 10
173.7319498781
 20
103.6592284858
 10
173.3878469532
 20
103.5923691785
 10
172.9819498781
 20
103.7334553699
  0
LWPOLYLINE
  5
239
330
1F
100
AcDbEntity
  8
0
  6
Continuous
 62
     7
370
     0
100
AcDbPolyline
 90
       17
 70
   128
 43
0.0
 10
138.7579816687
 20
123.490531676
 10
138.3520845936
 20
123.8180842723
 10
138.0079816687
 20
124.2822363601
 10
137.778059445
 20
124.8123249915
 10
137.6973214969
 20
125.3276489777
 10
137.778059445
 20
125.7497549132
 10
138.0079816687
 20
126.0143809957
 10
138.3520845936
 20
126.081240303
 10
138.7579816687
 20
125.9401541116
 10
139.1638787438
 20
125.6126015153
 10
139.5079816687
 20
125.1484494275
 10
139.7379038923
 20
124.6183607961
 10
139.8186418405
 20
124.1030368099
 10
139.7379038923
 20
123.6809308744
 10
139.5079816687
 20
123.4163047919
 10
139.1638787438
 20
123.3494454846
 10
138.7579816687
 20
123.490531676
  0
LWPOLYLINE
  5
23A
330
1F
100
AcDbEntity
  8
0
  6
Continuous
 62
     7
370
     0
100
AcDbPolyline
 90
       17
 70
   128
 43
0.0
 10
242.030927061
 20
148.208620897
 10
241.8694511647
 20
147.1779729247
 10
241.4096067174
 20
146.1177956618
 10
240.7214008676
 20
145.1894914863
 10
239.9096067174
 20
144.5343862936
 10
239.0978125672
 20
144.252213911
 10
238.4096067174
 20
144.3859325256
 10
237.9497622701
 20
144.9151846906
 10
237.7882863739
 20
145.7593965616
 10
237.9497622701
 20
146.7900445339
 10
238.4096067174
 20
147.8502217968
 10
239.0978125672
 20
148.7785259723
 10
239.9096067174
 20
149.433631165
 10
240.7214008676
 20
149.7158035477
 10
241.4096067174
 20
149.582084933
 10
241.8694511647
 20
149.052832768
 10
242.030927061
 20
148.208620897
  0
LWPOLYLINE
  5
23B
330
1F
100
AcDbEntity
  8
0
  6
Continuous
 62
     7
370
     0
100
AcDbPolyline
 90
       17
 70
   128
 43
0.0
 10
183.05822151
 20
114.164402634
 10
182.8967456138
 20
113.1337546617
 10
182.4369011665
 20
112.0735773988
 10
181.7486953167
 20
111.1452732233
 10
180.9369011665
 20
110.4901680306
 10
180.1251070162
 20
110.2079956479
 10
179.4369011665
 20
110.3417142626
 10
178.9770567191
 20
110.8709664276
 10
178.8155808229
 20
111.7151782986
 10
178.9770567191
 20
112.7458262709
 10
179.4369011665
 20
113.8060035338
 10
180.1251070162
 20
114.7343077093
 10
180.9369011665
 20
115.389412902
 10
181.7486953167
 20
115.6715852846
 10
182.4369011665
 20
115.53786667
 10
182.8967456138
 20
115.008614505
 10
183.05822151
 20
114.164402634
  0
LWPOLYLINE
  5
23C
330
1F
100
AcDbEntity
  8
0
  6
Continuous
 62
     7
370
     0
100
AcDbPolyline
 90
       17
 70
   128
 43
0.0
 10
156.0820978077
 20
119.4910674635
 10
155.2703036575
 20
120.1461726561
 10
154.5820978077
 20
121.0744768317
 10
154.1222533604
 20
122.1346540945
 10
153.9607774642
 20
123.1653020669
 10
154.1222533604
 20
124.0095139378
 10
154.5820978077
 20
124.5387661029
 10
155.2703036575
 20
124.6724847175
 10
156.0820978077
 20
124.3903123348
 10
156.893891958
 20
123.7352071422
 10
157.5820978077
 20
122.8069029666
 10
158.0419422551
 20
121.7467257038
 10
158.2034181513
 20
120.7160777314
 10
158.0419422551
 20
119.8718658604
 10
157.5820978077
 20
119.3426136954
 10
156.893891958
 20
119.2088950808
 10
156.0820978077
 20
119.4910674635
  0
ENDSEC
  0
SECTION
  2
OBJECTS
  0
DICTIONARY
  5
C
330
0
100
AcDbDictionary
281
     1
  3
ACAD_GROUP
350
D
  3
ACAD_LAYOUT
350
1A
  3
ACAD_MLEADERSTYLE
350
240
  3
ACAD_MLINESTYLE
350
17
  3
ACAD_PLOTSETTINGS
350
19
  3
ACAD_PLOTSTYLENAME
350
E
  3
ACAD_SCALELIST
350
3B
  3
ACAD_TABLESTYLE
350
23F
  3
ACAD_VISUALSTYLE
350
2A
  3
AcDbVariableDictionary
350
23D
  0
DICTIONARY
  5
D
102
{ACAD_REACTORS
330
C
102
}
330
C
100
AcDbDictionary
281
     1
  0
DICTIONARY
  5
1A
102
{ACAD_REACTORS
330
C
102
}
330
C
100
AcDbDictionary
281
     1
  3
Layout1
350
1E
  3
Layout2
350
26
  3
Model
350
22
  0
DICTIONARY
  5
240
102
{ACAD_REACTORS
330
C
102
}
330
C
100
AcDbDictionary
281
     1
  0
DICTIONARY
  5
17
102
{ACAD_REACTORS
330
C
102
}
330
C
100
AcDbDictionary
281
     1
  3
Standard
350
18
  0
DICTIONARY
  5
19
102
{ACAD_REACTORS
330
C
102
}
330
C
100
AcDbDictionary
281
     1
  0
ACDBDICTIONARYWDFLT
  5
E
102
{ACAD_REACTORS
330
C
102
}
330
C
100
AcDbDictionary
281
     1
  3
Normal
350
F
100
AcDbDictionaryWithDefault
340
F
  0
DICTIONARY
  5
3B
102
{ACAD_REACTORS
330
C
102
}
330
C
100
AcDbDictionary
281
     1
  3
A0
350
3C
  3
A1
350
3D
  3
A2
350
3E
  3
A3
350
3F
  3
A4
350
40
  3
A5
350
41
  3
A6
350
42
  3
A7
350
43
  3
A8
350
44
  3
A9
350
45
  3
B0
350
46
  3
B1
350
47
  3
B2
350
48
  3
B3
350
49
  3
B4
350
4A
  3
B5
350
4B
  3
B6
350
4C
  3
B7
350
4D
  3
B8
350
4E
  3
B9
350
4F
  3
C0
350
50
  3
C1
350
51
  3
C2
350
52
  3
C3
350
53
  3
C4
350
54
  3
C5
350
55
  3
C6
350
56
  3
C7
350
57
  3
C8
350
58
  3
C9
350
59
  3
D0
350
5A
  3
D1
350
5B
  3
D2
350
5C
  0
DICTIONARY
  5
23F
102
{ACAD_REACTORS
330
C
102
}
330
C
100
AcDbDictionary
281
     1
  0
DICTIONARY
  5
2A
102
{ACAD_REACTORS
330
C
102
}
330
C
100
AcDbDictionary
281
     1
  3
2dWireframe
350
2F
  3
3D Hidden
350
31
  3
3dWireframe
350
30
  3
Basic
350
32
  3
Brighten
350
36
  3
ColorChange
350
3A
  3
Conceptual
350
34
  3
Dim
350
35
  3
Facepattern
350
39
  3
Flat
350
2B
  3
FlatWithEdges
350
2C
  3
Gouraud
350
2D
  3
GouraudWithEdges
350
2E
  3
Linepattern
350
38
  3
Realistic
350
33
  3
Thicken
350
37
  0
DICTIONARY
  5
23D
102
{ACAD_REACTORS
330
C
102
}
330
C
100
AcDbDictionary
281
     1
  3
CANNOSCALE
350
23E
  3
PSOLHEIGHT
350
242
  3
PSOLWIDTH
350
241
  0
LAYOUT
  5
1E
102
{ACAD_REACTORS
330
1A
102
}
330
1A
100
AcDbPlotSettings
  1

  2
none_device
  4

  6

 40
0.0
 41
0.0
 42
0.0
 43
0.0
 44
0.0
 45
0.0
 46
0.0
 47
0.0
 48
0.0
 49
0.0
140
0.0
141
0.0
142
1.0
143
1.0
 70
   688
 72
     0
 73
     0
 74
     5
  7

 75
    16
147
1.0
148
0.0
149
0.0
100
AcDbLayout
  1
Layout1
 70
     1
 71
     1
 10
0.0
 20
0.0
 11
420.0
 21
297.0
 12
0.0
 22
0.0
 32
0.0
 14
1.0000000000E+20
 24
1.0000000000E+20
 34
1.0000000000E+20
 15
-1.0000000000E+20
 25
-1.0000000000E+20
 35
-1.0000000000E+20
146
0.0
 13
0.0
 23
0.0
 33
0.0
 16
1.0
 26
0.0
 36
0.0
 17
0.0
 27
1.0
 37
0.0
 76
     0
330
1B
  0
LAYOUT
  5
26
102
{ACAD_REACTORS
330
1A
102
}
330
1A
100
AcDbPlotSettings
  1

  2
none_device
  4

  6

 40
0.0
 41
0.0
 42
0.0
 43
0.0
 44
0.0
 45
0.0
 46
0.0
 47
0.0
 48
0.0
 49
0.0
140
0.0
141
0.0
142
1.0
143
1.0
 70
   688
 72
     0
 73
     0
 74
     5
  7

 75
    16
147
1.0
148
0.0
149
0.0
100
AcDbLayout
  1
Layout2
 70
     1
 71
     2
 10
0.0
 20
0.0
 11
0.0
 21
0.0
 12
0.0
 22
0.0
 32
0.0
 14
0.0
 24
0.0
 34
0.0
 15
0.0
 25
0.0
 35
0.0
146
0.0
 13
0.0
 23
0.0
 33
0.0
 16
1.0
 26
0.0
 36
0.0
 17
0.0
 27
1.0
 37
0.0
 76
     0
330
23
  0
LAYOUT
  5
22
102
{ACAD_REACTORS
330
1A
102
}
330
1A
100
AcDbPlotSettings
  1

  2
none_device
  4

  6

 40
0.0
 41
0.0
 42
0.0
 43
0.0
 44
0.0
 45
0.0
 46
0.0
 47
0.0
 48
0.0
 49
0.0
140
0.0
141
0.0
142
1.0
143
1.0
 70
  1712
 72
     0
 73
     0
 74
     0
  7

 75
     0
147
1.0
148
0.0
149
0.0
100
AcDbLayout
  1
Model
 70
     1
 71
     0
 10
0.0
 20
0.0
 11
297.0
 21
210.0
 12
0.0
 22
0.0
 32
0.0
 14
0.0
 24
0.0
 34
0.0
 15
297.0
 25
210.0
 35
0.0
146
0.0
 13
0.0
 23
0.0
 33
0.0
 16
1.0
 26
0.0
 36
0.0
 17
0.0
 27
1.0
 37
0.0
 76
     0
330
1F
331
29
  0
MLINESTYLE
  5
18
102
{ACAD_REACTORS
330
17
102
}
330
17
100
AcDbMlineStyle
  2
Standard
 70
     0
  3

 62
   256
 51
90.0
 52
90.0
 71
     2
 49
0.5
 62
   256
  6
BYLAYER
 49
-0.5
 62
   256
  6
BYLAYER
  0
ACDBPLACEHOLDER
  5
F
102
{ACAD_REACTORS
330
E
102
}
330
E
  0
SCALE
  5
3C
102
{ACAD_REACTORS
330
3B
102
}
330
3B
100
AcDbScale
 70
     0
300
1:1
140
1.0
141
1.0
290
     1
  0
SCALE
  5
3D
102
{ACAD_REACTORS
330
3B
102
}
330
3B
100
AcDbScale
 70
     0
300
1:2
140
1.0
141
2.0
290
     0
  0
SCALE
  5
3E
102
{ACAD_REACTORS
330
3B
102
}
330
3B
100
AcDbScale
 70
     0
300
1:4
140
1.0
141
4.0
290
     0
  0
SCALE
  5
3F
102
{ACAD_REACTORS
330
3B
102
}
330
3B
100
AcDbScale
 70
     0
300
1:5
140
1.0
141
5.0
290
     0
  0
SCALE
  5
40
102
{ACAD_REACTORS
330
3B
102
}
330
3B
100
AcDbScale
 70
     0
300
1:8
140
1.0
141
8.0
290
     0
  0
SCALE
  5
41
102
{ACAD_REACTORS
330
3B
102
}
330
3B
100
AcDbScale
 70
     0
300
1:10
140
1.0
141
10.0
290
     0
  0
SCALE
  5
42
102
{ACAD_REACTORS
330
3B
102
}
330
3B
100
AcDbScale
 70
     0
300
1:16
140
1.0
141
16.0
290
     0
  0
SCALE
  5
43
102
{ACAD_REACTORS
330
3B
102
}
330
3B
100
AcDbScale
 70
     0
300
1:20
140
1.0
141
20.0
290
     0
  0
SCALE
  5
44
102
{ACAD_REACTORS
330
3B
102
}
330
3B
100
AcDbScale
 70
     0
300
1:30
140
1.0
141
30.0
290
     0
  0
SCALE
  5
45
102
{ACAD_REACTORS
330
3B
102
}
330
3B
100
AcDbScale
 70
     0
300
1:40
140
1.0
141
40.0
290
     0
  0
SCALE
  5
46
102
{ACAD_REACTORS
330
3B
102
}
330
3B
100
AcDbScale
 70
     0
300
1:50
140
1.0
141
50.0
290
     0
  0
SCALE
  5
47
102
{ACAD_REACTORS
330
3B
102
}
330
3B
100
AcDbScale
 70
     0
300
1:100
140
1.0
141
100.0
290
     0
  0
SCALE
  5
48
102
{ACAD_REACTORS
330
3B
102
}
330
3B
100
AcDbScale
 70
     0
300
2:1
140
2.0
141
1.0
290
     0
  0
SCALE
  5
49
102
{ACAD_REACTORS
330
3B
102
}
330
3B
100
AcDbScale
 70
     0
300
4:1
140
4.0
141
1.0
290
     0
  0
SCALE
  5
4A
102
{ACAD_REACTORS
330
3B
102
}
330
3B
100
AcDbScale
 70
     0
300
8:1
140
8.0
141
1.0
290
     0
  0
SCALE
  5
4B
102
{ACAD_REACTORS
330
3B
102
}
330
3B
100
AcDbScale
 70
     0
300
10:1
140
10.0
141
1.0
290
     0
  0
SCALE
  5
4C
102
{ACAD_REACTORS
330
3B
102
}
330
3B
100
AcDbScale
 70
     0
300
100:1
140
100.0
141
1.0
290
     0
  0
SCALE
  5
4D
102
{ACAD_REACTORS
330
3B
102
}
330
3B
100
AcDbScale
 70
     0
300
1/128" = 1'-0"
140
0.0078125
141
12.0
290
     0
  0
SCALE
  5
4E
102
{ACAD_REACTORS
330
3B
102
}
330
3B
100
AcDbScale
 70
     0
300
1/64" = 1'-0"
140
0.015625
141
12.0
290
     0
  0
SCALE
  5
4F
102
{ACAD_REACTORS
330
3B
102
}
330
3B
100
AcDbScale
 70
     0
300
1/32" = 1'-0"
140
0.03125
141
12.0
290
     0
  0
SCALE
  5
50
102
{ACAD_REACTORS
330
3B
102
}
330
3B
100
AcDbScale
 70
     0
300
1/16" = 1'-0"
140
0.0625
141
12.0
290
     0
  0
SCALE
  5
51
102
{ACAD_REACTORS
330
3B
102
}
330
3B
100
AcDbScale
 70
     0
300
3/32" = 1'-0"
140
0.09375
141
12.0
290
     0
  0
SCALE
  5
52
102
{ACAD_REACTORS
330
3B
102
}
330
3B
100
AcDbScale
 70
     0
300
1/8" = 1'-0"
140
0.125
141
12.0
290
     0
  0
SCALE
  5
53
102
{ACAD_REACTORS
330
3B
102
}
330
3B
100
AcDbScale
 70
     0
300
3/16" = 1'-0"
140
0.1875
141
12.0
290
     0
  0
SCALE
  5
54
102
{ACAD_REACTORS
330
3B
102
}
330
3B
100
AcDbScale
 70
     0
300
1/4" = 1'-0"
140
0.25
141
12.0
290
     0
  0
SCALE
  5
55
102
{ACAD_REACTORS
330
3B
102
}
330
3B
100
AcDbScale
 70
     0
300
3/8" = 1'-0"
140
0.375
141
12.0
290
     0
  0
SCALE
  5
56
102
{ACAD_REACTORS
330
3B
102
}
330
3B
100
AcDbScale
 70
     0
300
1/2" = 1'-0"
140
0.5
141
12.0
290
     0
  0
SCALE
  5
57
102
{ACAD_REACTORS
330
3B
102
}
330
3B
100
AcDbScale
 70
     0
300
3/4" = 1'-0"
140
0.75
141
12.0
290
     0
  0
SCALE
  5
58
102
{ACAD_REACTORS
330
3B
102
}
330
3B
100
AcDbScale
 70
     0
300
1" = 1'-0"
140
1.0
141
12.0
290
     0
  0
SCALE
  5
59
102
{ACAD_REACTORS
330
3B
102
}
330
3B
100
AcDbScale
 70
     0
300
1-1/2" = 1'-0"
140
1.5
141
12.0
290
     0
  0
SCALE
  5
5A
102
{ACAD_REACTORS
330
3B
102
}
330
3B
100
AcDbScale
 70
     0
300
3" = 1'-0"
140
3.0
141
12.0
290
     0
  0
SCALE
  5
5B
102
{ACAD_REACTORS
330
3B
102
}
330
3B
100
AcDbScale
 70
     0
300
6" = 1'-0"
140
6.0
141
12.0
290
     0
  0
SCALE
  5
5C
102
{ACAD_REACTORS
330
3B
102
}
330
3B
100
AcDbScale
 70
     0
300
1'-0" = 1'-0"
140
12.0
141
12.0
290
     0
  0
VISUALSTYLE
  5
2F
102
{ACAD_REACTORS
330
2A
102
}
330
2A
100
AcDbVisualStyle
  2
2dWireframe
 70
     4
 71
     0
 72
     2
 73
     0
 90
        0
 40
-0.6
 41
-30.0
 62
     5
 63
     7
 74
     1
 91
        4
 64
     7
 65
   257
 75
     1
175
     1
 42
1.0
 92
        0
 66
   257
 43
1.0
 76
     1
 77
     6
 78
     2
 67
     7
 79
     5
170
     0
171
     0
290
     0
174
     0
 93
        1
 44
0.0
173
     0
291
     0
 45
0.0
1001
ACAD
1000
AcDbSavedByObjectVersion
1070
     0
  0
VISUALSTYLE
  5
31
102
{ACAD_REACTORS
330
2A
102
}
330
2A
100
AcDbVisualStyle
  2
3D Hidden
 70
     6
 71
     1
 72
     2
 73
     2
 90
        0
 40
-0.6
 41
-30.0
 62
     5
 63
     7
 74
     2
 91
        2
 64
     7
 65
   257
 75
     2
175
     1
 42
40.0
 92
        0
 66
   257
 43
1.0
 76
     1
 77
     6
 78
     2
 67
     7
 79
     3
170
     0
171
     0
290
     0
174
     0
 93
        1
 44
0.0
173
     0
291
     0
 45
0.0
1001
ACAD
1000
AcDbSavedByObjectVersion
1070
     0
  0
VISUALSTYLE
  5
30
102
{ACAD_REACTORS
330
2A
102
}
330
2A
100
AcDbVisualStyle
  2
3dWireframe
 70
     5
 71
     0
 72
     2
 73
     0
 90
        0
 40
-0.6
 41
-30.0
 62
     5
 63
     7
 74
     1
 91
        4
 64
     7
 65
   257
 75
     1
175
     1
 42
1.0
 92
        0
 66
   257
 43
1.0
 76
     1
 77
     6
 78
     2
 67
     7
 79
     5
170
     0
171
     0
290
     0
174
     0
 93
        1
 44
0.0
173
     0
291
     0
 45
0.0
1001
ACAD
1000
AcDbSavedByObjectVersion
1070
     0
  0
VISUALSTYLE
  5
32
102
{ACAD_REACTORS
330
2A
102
}
330
2A
100
AcDbVisualStyle
  2
Basic
 70
     7
 71
     1
 72
     0
 73
     1
 90
        0
 40
-0.6
 41
-30.0
 62
     5
 63
     7
 74
     0
 91
        4
 64
     7
 65
   257
 75
     1
175
     1
 42
1.0
 92
        8
 66
     7
 43
1.0
 76
     1
 77
     6
 78
     2
 67
     7
 79
     5
170
     0
171
     0
290
     0
174
     0
 93
        1
 44
0.0
173
     0
291
     1
 45
0.0
1001
ACAD
1000
AcDbSavedByObjectVersion
1070
     0
  0
VISUALSTYLE
  5
36
102
{ACAD_REACTORS
330
2A
102
}
330
2A
100
AcDbVisualStyle
  2
Brighten
 70
    12
 71
     2
 72
     2
 73
     0
 90
        0
 40
-0.6
 41
-30.0
 62
     5
 63
     7
 74
     1
 91
        4
 64
     7
 65
   257
 75
     1
175
     1
 42
1.0
 92
        8
 66
     7
 43
1.0
 76
     1
 77
     6
 78
     2
 67
     7
 79
     5
170
     0
171
     0
290
     0
174
     0
 93
        1
 44
50.0
173
     0
291
     1
 45
0.0
1001
ACAD
1000
AcDbSavedByObjectVersion
1070
     0
  0
VISUALSTYLE
  5
3A
102
{ACAD_REACTORS
330
2A
102
}
330
2A
100
AcDbVisualStyle
  2
ColorChange
 70
    16
 71
     2
 72
     2
 73
     3
 90
        0
 40
-0.6
 41
-30.0
 62
     5
 63
     8
 74
     1
 91
        4
 64
     7
 65
   257
 75
     1
175
     1
 42
1.0
 92
        8
 66
     8
 43
1.0
 76
     1
 77
     6
 78
     2
 67
     7
 79
     5
170
     0
171
     0
290
     0
174
     0
 93
        1
 44
0.0
173
     0
291
     1
 45
0.0
1001
ACAD
1000
AcDbSavedByObjectVersion
1070
     0
  0
VISUALSTYLE
  5
34
102
{ACAD_REACTORS
330
2A
102
}
330
2A
100
AcDbVisualStyle
  2
Conceptual
 70
     9
 71
     3
 72
     2
 73
     0
 90
        0
 40
-0.6
 41
-30.0
 62
     5
 63
     7
 74
     2
 91
        2
 64
     7
 65
   257
 75
     1
175
     1
 42
40.0
 92
        8
 66
     7
 43
1.0
 76
     1
 77
     6
 78
     2
 67
     7
 79
     3
170
     0
171
     0
290
     0
174
     0
 93
        1
 44
0.0
173
     0
291
     0
 45
0.0
1001
ACAD
1000
AcDbSavedByObjectVersion
1070
     0
  0
VISUALSTYLE
  5
35
102
{ACAD_REACTORS
330
2A
102
}
330
2A
100
AcDbVisualStyle
  2
Dim
 70
    11
 71
     2
 72
     2
 73
     0
 90
        0
 40
-0.6
 41
-30.0
 62
     5
 63
     7
 74
     1
 91
        4
 64
     7
 65
   257
 75
     1
175
     1
 42
1.0
 92
        8
 66
     7
 43
1.0
 76
     1
 77
     6
 78
     2
 67
     7
 79
     5
170
     0
171
     0
290
     0
174
     0
 93
        1
 44
-50.0
173
     0
291
     1
 45
0.0
1001
ACAD
1000
AcDbSavedByObjectVersion
1070
     0
  0
VISUALSTYLE
  5
39
102
{ACAD_REACTORS
330
2A
102
}
330
2A
100
AcDbVisualStyle
  2
Facepattern
 70
    15
 71
     2
 72
     2
 73
     0
 90
        0
 40
-0.6
 41
-30.0
 62
     5
 63
     7
 74
     1
 91
        4
 64
     7
 65
   257
 75
     1
175
     1
 42
1.0
 92
        8
 66
     7
 43
1.0
 76
     1
 77
     6
 78
     2
 67
     7
 79
     5
170
     0
171
     0
290
     0
174
     0
 93
        1
 44
0.0
173
     0
291
     1
 45
0.0
1001
ACAD
1000
AcDbSavedByObjectVersion
1070
     0
  0
VISUALSTYLE
  5
2B
102
{ACAD_REACTORS
330
2A
102
}
330
2A
100
AcDbVisualStyle
  2
Flat
 70
     0
 71
     2
 72
     1
 73
     1
 90
        2
 40
-0.6
 41
30.0
 62
     5
 63
     7
 74
     0
 91
        4
 64
     7
 65
   257
 75
     1
175
     1
 42
1.0
 92
        8
 66
     7
 43
1.0
 76
     1
 77
     6
 78
     2
 67
     7
 79
     5
170
     0
171
     0
290
     0
174
     0
 93
       13
 44
0.0
173
     0
291
     1
 45
0.0
1001
ACAD
1000
AcDbSavedByObjectVersion
1070
     0
  0
VISUALSTYLE
  5
2C
102
{ACAD_REACTORS
330
2A
102
}
330
2A
100
AcDbVisualStyle
  2
FlatWithEdges
 70
     1
 71
     2
 72
     1
 73
     1
 90
        2
 40
-0.6
 41
30.0
 62
     5
 63
     7
 74
     1
 91
        4
 64
     7
 65
   257
 75
     1
175
     1
 42
1.0
 92
        0
 66
   257
 43
1.0
 76
     1
 77
     6
 78
     2
 67
     7
 79
     5
170
     0
171
     0
290
     0
174
     0
 93
       13
 44
0.0
173
     0
291
     1
 45
0.0
1001
ACAD
1000
AcDbSavedByObjectVersion
1070
     0
  0
VISUALSTYLE
  5
2D
102
{ACAD_REACTORS
330
2A
102
}
330
2A
100
AcDbVisualStyle
  2
Gouraud
 70
     2
 71
     2
 72
     2
 73
     1
 90
        2
 40
-0.6
 41
30.0
 62
     5
 63
     7
 74
     0
 91
        4
 64
     7
 65
   257
 75
     1
175
     1
 42
1.0
 92
        0
 66
     7
 43
1.0
 76
     1
 77
     6
 78
     2
 67
     7
 79
     5
170
     0
171
     0
290
     0
174
     0
 93
       13
 44
0.0
173
     0
291
     1
 45
0.0
1001
ACAD
1000
AcDbSavedByObjectVersion
1070
     0
  0
VISUALSTYLE
  5
2E
102
{ACAD_REACTORS
330
2A
102
}
330
2A
100
AcDbVisualStyle
  2
GouraudWithEdges
 70
     3
 71
     2
 72
     2
 73
     1
 90
        2
 40
-0.6
 41
30.0
 62
     5
 63
     7
 74
     1
 91
        4
 64
     7
 65
   257
 75
     1
175
     1
 42
1.0
 92
        0
 66
   257
 43
1.0
 76
     1
 77
     6
 78
     2
 67
     7
 79
     5
170
     0
171
     0
290
     0
174
     0
 93
       13
 44
0.0
173
     0
291
     1
 45
0.0
1001
ACAD
1000
AcDbSavedByObjectVersion
1070
     0
  0
VISUALSTYLE
  5
38
102
{ACAD_REACTORS
330
2A
102
}
330
2A
100
AcDbVisualStyle
  2
Linepattern
 70
    14
 71
     2
 72
     2
 73
     0
 90
        0
 40
-0.6
 41
-30.0
 62
     5
 63
     7
 74
     1
 91
        4
 64
     7
 65
   257
 75
     7
175
     7
 42
1.0
 92
        8
 66
     7
 43
1.0
 76
     1
 77
     6
 78
     2
 67
     7
 79
     5
170
     0
171
     0
290
     0
174
     0
 93
        1
 44
0.0
173
     0
291
     1
 45
0.0
1001
ACAD
1000
AcDbSavedByObjectVersion
1070
     0
  0
VISUALSTYLE
  5
33
102
{ACAD_REACTORS
330
2A
102
}
330
2A
100
AcDbVisualStyle
  2
Realistic
 70
     8
 71
     2
 72
     2
 73
     0
 90
        0
 40
-0.6
 41
-30.0
 62
     5
 63
     7
 74
     1
 91
        0
 64
     7
 65
   257
 75
     1
175
     1
 42
1.0
 92
        8
 66
     8
 43
1.0
 76
     1
 77
     6
 78
     2
 67
     7
 79
     5
170
     0
171
     0
290
     0
174
     0
 93
       13
 44
0.0
173
     0
291
     0
 45
0.0
1001
ACAD
1000
AcDbSavedByObjectVersion
1070
     0
  0
VISUALSTYLE
  5
37
102
{ACAD_REACTORS
330
2A
102
}
330
2A
100
AcDbVisualStyle
  2
Thicken
 70
    13
 71
     2
 72
     2
 73
     0
 90
        0
 40
-0.6
 41
-30.0
 62
     5
 63
     7
 74
     1
 91
        4
 64
     7
 65
   257
 75
     1
175
     1
 42
1.0
 92
       12
 66
     7
 43
1.0
 76
     1
 77
     6
 78
     2
 67
     7
 79
     5
170
     0
171
     0
290
     0
174
     0
 93
        1
 44
0.0
173
     0
291
     1
 45
0.0
1001
ACAD
1000
AcDbSavedByObjectVersion
1070
     0
  0
DICTIONARYVAR
  5
23E
102
{ACAD_REACTORS
330
23D
102
}
330
23D
100
DictionaryVariables
280
     0
  1
1:1
  0
DICTIONARYVAR
  5
242
102
{ACAD_REACTORS
330
23D
102
}
330
23D
100
DictionaryVariables
280
     0
  1
80.000000
  0
DICTIONARYVAR
  5
241
102
{ACAD_REACTORS
330
23D
102
}
330
23D
100
DictionaryVariables
280
     0
  1
5.000000
  0
ENDSEC
  0
EOF
