  0
SECTION
  2
HEADER
  9
$ACADVER
  1
AC1009
  9
$INSBASE
 10
0.0
 20
0.0
 30
0.0
  9
$EXTMIN
 10
-34.980000
 20
-314.600000
 30
1.000000E+020
  9
$EXTMAX
 10
384.780000
 20
28.600000
 30
-1.000000E+020
  9
$LIMMIN
 10
0.0
 20
0.0
  9
$LIMMAX
 10
420.0
 20
297.0
  9
$ORTHOMODE
 70
     0
  9
$REGENMODE
 70
     1
  9
$FILLMODE
 70
     1
  9
$QTEXTMODE
 70
     0
  9
$MIRRTEXT
 70
     1
  9
$DRAGMODE
 70
     2
  9
$LTSCALE
 40
1.000000
  9
$OSMODE
 70
   103
  9
$ATTMODE
 70
     1
  9
$TEXTSIZE
 40
2.5
  9
$TRACEWID
 40
1.0
  9
$TEXTSTYLE
  7
STANDARD
  9
$CLAYER
  8
RAHM4
  9
$CELTYPE
  6
BYLAYER
  9
$CECOLOR
 62
   256
  9
$DIMSCALE
 40
1.0
  9
$DIMASZ
 40
2.5
  9
$DIMEXO
 40
0.625
  9
$DIMDLI
 40
3.75
  9
$DIMRND
 40
0.0
  9
$DIMDLE
 40
0.0
  9
$DIMEXE
 40
1.25
  9
$DIMTP
 40
0.0
  9
$DIMTM
 40
0.0
  9
$DIMTXT
 40
2.5
  9
$DIMCEN
 40
2.5
  9
$DIMTSZ
 40
0.0
  9
$DIMTOL
 70
     0
  9
$DIMLIM
 70
     0
  9
$DIMTIH
 70
     0
  9
$DIMTOH
 70
     0
  9
$DIMSE1
 70
     0
  9
$DIMSE2
 70
     0
  9
$DIMTAD
 70
     1
  9
$DIMZIN
 70
     8
  9
$DIMBLK
  1

  9
$DIMASO
 70
     1
  9
$DIMSHO
 70
     1
  9
$DIMPOST
  1

  9
$DIMAPOST
  1

  9
$DIMALT
 70
     0
  9
$DIMALTD
 70
     3
  9
$DIMALTF
 40
0.03937
  9
$DIMLFAC
 40
1.0
  9
$DIMTOFL
 70
     1
  9
$DIMTVP
 40
0.0
  9
$DIMTIX
 70
     0
  9
$DIMSOXD
 70
     0
  9
$DIMSAH
 70
     0
  9
$DIMBLK1
  1

  9
$DIMBLK2
  1

  9
$DIMSTYLE
  2
ISO-25
  9
$DIMCLRD
 70
     0
  9
$DIMCLRE
 70
     0
  9
$DIMCLRT
 70
     0
  9
$DIMTFAC
 40
1.0
  9
$DIMGAP
 40
0.625
  9
$LUNITS
 70
     2
  9
$LUPREC
 70
     4
  9
$SKETCHINC
 40
1.0
  9
$FILLETRAD
 40
10.0
  9
$AUNITS
 70
     0
  9
$AUPREC
 70
     0
  9
$MENU
  1
.
  9
$ELEVATION
 40
0.0
  9
$PELEVATION
 40
0.0
  9
$THICKNESS
 40
0.0
  9
$LIMCHECK
 70
     0
  9
$BLIPMODE
 70
     0
  9
$CHAMFERA
 40
10.0
  9
$CHAMFERB
 40
10.0
  9
$SKPOLY
 70
     0
  9
$TDCREATE
 40
2452830.438142
  9
$TDUPDATE
 40
2453952.51541
  9
$TDINDWG
 40
0.030794
  9
$TDUSRTIMER
 40
0.030789
  9
$USRTIMER
 70
     1
  9
$ANGBASE
 50
0.0
  9
$ANGDIR
 70
     0
  9
$PDMODE
 70
     0
  9
$PDSIZE
 40
0.0
  9
$PLINEWID
 40
0.0
  9
$COORDS
 70
     1
  9
$SPLFRAME
 70
     0
  9
$SPLINETYPE
 70
     6
  9
$SPLINESEGS
 70
     8
  9
$ATTDIA
 70
     0
  9
$ATTREQ
 70
     1
  9
$SURFTAB1
 70
     6
  9
$SURFTAB2
 70
     6
  9
$SURFTYPE
 70
     6
  9
$SURFU
 70
     6
  9
$SURFV
 70
     6
  9
$UCSNAME
  2

  9
$UCSORG
 10
0.0
 20
0.0
 30
0.0
  9
$UCSXDIR
 10
1.0
 20
0.0
 30
0.0
  9
$UCSYDIR
 10
0.0
 20
1.0
 30
0.0
  9
$PUCSNAME
  2

  9
$PUCSORG
 10
0.0
 20
0.0
 30
0.0
  9
$PUCSXDIR
 10
1.0
 20
0.0
 30
0.0
  9
$PUCSYDIR
 10
0.0
 20
1.0
 30
0.0
  9
$USERI1
 70
     0
  9
$USERI2
 70
     0
  9
$USERI3
 70
     0
  9
$USERI4
 70
     0
  9
$USERI5
 70
     0
  9
$USERR1
 40
0.0
  9
$USERR2
 40
0.0
  9
$USERR3
 40
0.0
  9
$USERR4
 40
0.0
  9
$USERR5
 40
0.0
  9
$WORLDVIEW
 70
     1
  9
$SHADEDGE
 70
     3
  9
$SHADEDIF
 70
    70
  9
$TILEMODE
 70
     1
  9
$MAXACTVP
 70
    64
  9
$PLIMCHECK
 70
     0
  9
$PEXTMIN
 10
1.000000E+020
 20
1.000000E+020
 30
1.000000E+020
  9
$PEXTMAX
 10
-1.000000E+020
 20
-1.000000E+020
 30
-1.000000E+020
  9
$PLIMMIN
 10
0.0
 20
0.0
  9
$PLIMMAX
 10
420.0
 20
297.0
  9
$UNITMODE
 70
     0
  9
$VISRETAIN
 70
     1
  9
$PLINEGEN
 70
     0
  9
$PSLTSCALE
 70
     1
  0
ENDSEC
  0
SECTION
  2
TABLES
  0
TABLE
  2
VPORT
 70
     2
  0
VPORT
  2
*ACTIVE
 70
     0
 10
0.0
 20
0.0
 11
1.0
 21
1.0
 12
424.672198
 22
148.5
 13
0.0
 23
0.0
 14
10.0
 24
10.0
 15
10.0
 25
10.0
 16
0.0
 26
0.0
 36
1.0
 17
0.0
 27
0.0
 37
0.0
 40
297.194831
 41
2.858921
 42
50.0
 43
0.0
 44
0.0
 50
0.0
 51
0.0
 71
     0
 72
   100
 73
     1
 74
     3
 75
     0
 76
     0
 77
     0
 78
     0
  0
ENDTAB
  0
TABLE
  2
LTYPE
 70
     5
  0
LTYPE
  2
CONTINUOUS
  70
0
  3
Solid line
 72
65
 73
0
 40
0.0
  0
LTYPE
  2
ACAD_ISO10W100
  70
0
  3
ISO Strichpunktlinie __ . __ . __ . __ . __ . _
 72
65
 73
4
 40
18.0
 49
12.0
 49
-3.0
 49
0.0
 49
-3.0
  0
LTYPE
  2
ACAD_ISO02W100
  70
0
  3
ISO Strichlinie __ __ __ __ __ __ __ __ __ __ _
 72
65
 73
2
 40
15.0
 49
12.0
 49
-3.0
  0
LTYPE
  2
STRICHLINIE
  70
0
  3
Strichlinie __ __ __ __ __ __ __ __ __ __ __ __
 72
65
 73
2
 40
0.75
 49
0.5
 49
-0.25
  0
LTYPE
  2
STRICHPUNKT
  70
0
  3
Strichpunkt __ . __ . __ . __ . __ . __ . __ . 
 72
65
 73
4
 40
1.0
 49
0.5
 49
-0.25
 49
0.0
 49
-0.25
  0
ENDTAB
  0
TABLE
  2
LAYER
 70
    14
  0
LAYER
  2
0
 70
0
 62
7
  6
CONTINUOUS
  0
LAYER
  2
REX_1
 70
0
 62
7
  6
CONTINUOUS
  0
LAYER
  2
REX_7
 70
0
 62
5
  6
STRICHPUNKT
  0
LAYER
  2
SILHOUETTE
 70
0
 62
7
  6
CONTINUOUS
  0
LAYER
  2
REX_8
 70
0
 62
1
  6
CONTINUOUS
  0
LAYER
  2
REX_3
 70
0
 62
6
  6
STRICHLINIE
  0
LAYER
  2
REX_4
 70
0
 62
5
  6
CONTINUOUS
  0
LAYER
  2
REX_5
 70
0
 62
3
  6
CONTINUOUS
  0
LAYER
  2
REX_6
 70
0
 62
40
  6
CONTINUOUS
  0
LAYER
  2
RAHM2
 70
0
 62
7
  6
CONTINUOUS
  0
LAYER
  2
RAHM3
 70
0
 62
7
  6
CONTINUOUS
  0
LAYER
  2
RAHM4
 70
0
 62
7
  6
CONTINUOUS
  0
LAYER
  2
RAHM5
 70
0
 62
7
  6
CONTINUOUS
  0
LAYER
  2
RAHMEN
 70
0
 62
7
  6
CONTINUOUS
  0
ENDTAB
  0
TABLE
  2
STYLE
 70
     3
  0
STYLE
  2
STANDARD
 70
     0
 40
0.0
 41
1.0
 50
0.0
 71
     0
 42
2.5
  3
isocp.shx
  4

  0
STYLE
  2
LOGO
 70
     0
 40
0.0
 41
1.0
 50
0.0
 71
     0
 42
0.2
  3
isocp.shx
  4

  0
STYLE
  2

 70
     1
 40
0.0
 41
1.0
 50
0.0
 71
     0
 42
2.5
  3
ltypeshp.shx
  4

  0
ENDTAB
  0
TABLE
  2
VIEW
 70
     0
  0
ENDTAB
  0
TABLE
  2
UCS
 70
     0
  0
ENDTAB
  0
TABLE
  2
APPID
 70
2
  0
APPID
  2
ACAD
 70
     0
  0
APPID
  2
DCO15
 70
     0
  0
ENDTAB
  0
TABLE
  2
DIMSTYLE
 70
     1
  0
DIMSTYLE
  2
ISO-25
 70
     0
  3

  4

  5

  6

  7

 40
1.0
 41
2.5
 42
0.625
 43
3.75
 44
1.25
 45
0.0
 46
0.0
 47
0.0
 48
0.0
140
2.5
141
2.5
142
0.0
143
0.03937
144
1.0
145
0.0
146
1.0
147
0.625
 71
     0
 72
     0
 73
     0
 74
     0
 75
     0
 76
     0
 77
     1
 78
     8
170
     0
171
     3
172
     1
173
     0
174
     0
175
     0
176
     0
177
     0
178
     0
  0
ENDTAB
  0
ENDSEC
  0
SECTION
  2
BLOCKS
  0
BLOCK
  8
REX_7
  2
4REX_MID_Jul_26_19-25-07
 70
0
 10
0.0000
 20
0.0000
 30
0.0000
  3
4REX_MID_Jul_26_19-25-07
  0
ENDBLK
  8
0
  0
BLOCK
  8
REX_1
  2
_VIEW_4_Jul_26_19-25-07
 70
0
 10
0.0000
 20
0.0000
 30
0.0000
  3
_VIEW_4_Jul_26_19-25-07
  0
INSERT
  8
REX_6
  2
4REX_MID_Jul_26_19-25-07
 10
0.0000
 20
0.0000
 30
0.0000
  0
LINE
  6
continous
  8
BYBLOCK
 10
-2.8492
 20
37.5000
 30
0.0000
 11
-2.8492
 21
39.0967
 31
0.0000
  0
LINE
  6
continous
  8
BYBLOCK
 10
2.8492
 20
37.5000
 30
0.0000
 11
2.8492
 21
39.0967
 31
0.0000
  0
LINE
  6
continous
  8
BYBLOCK
 10
-1.4798
 20
37.5000
 30
0.0000
 11
-1.4798
 21
39.0140
 31
0.0000
  0
LINE
  6
continous
  8
BYBLOCK
 10
1.4798
 20
37.5000
 30
0.0000
 11
1.4798
 21
39.0140
 31
0.0000
  0
LINE
  6
continous
  8
BYBLOCK
 10
0.0000
 20
39.1601
 30
0.0000
 11
0.0000
 21
39.0380
 31
0.0000
  0
POLYLINE
  6
continous
  8
BYBLOCK
 70
0
 66
1
  0
VERTEX
  8
0
 10
-1.7468
 20
39.0953
 30
0.0000
  0
VERTEX
  8
0
 10
-1.6870
 20
39.1153
 30
0.0000
  0
VERTEX
  8
0
 10
-1.1880
 20
39.1439
 30
0.0000
  0
VERTEX
  8
0
 10
-0.1214
 20
39.1600
 30
0.0000
  0
VERTEX
  8
0
 10
-0.0000
 20
39.1601
 30
0.0000
  0
SEQEND
  0
POLYLINE
  6
continous
  8
BYBLOCK
 70
0
 66
1
  0
VERTEX
  8
0
 10
0.0000
 20
39.0380
 30
0.0000
  0
VERTEX
  8
0
 10
-1.0963
 20
39.0514
 30
0.0000
  0
VERTEX
  8
0
 10
-1.6607
 20
39.0798
 30
0.0000
  0
VERTEX
  8
0
 10
-1.7468
 20
39.0953
 30
0.0000
  0
SEQEND
  0
POLYLINE
  6
continous
  8
BYBLOCK
 70
0
 66
1
  0
VERTEX
  8
0
 10
1.7468
 20
39.0953
 30
0.0000
  0
VERTEX
  8
0
 10
1.5257
 20
39.0691
 30
0.0000
  0
VERTEX
  8
0
 10
0.7359
 20
39.0436
 30
0.0000
  0
VERTEX
  8
0
 10
0.0000
 20
39.0380
 30
0.0000
  0
SEQEND
  0
POLYLINE
  6
continous
  8
BYBLOCK
 70
0
 66
1
  0
VERTEX
  8
0
 10
0.0000
 20
39.1601
 30
0.0000
  0
VERTEX
  8
0
 10
1.0961
 20
39.1466
 30
0.0000
  0
VERTEX
  8
0
 10
1.6605
 20
39.1183
 30
0.0000
  0
VERTEX
  8
0
 10
1.7484
 20
39.0964
 30
0.0000
  0
VERTEX
  8
0
 10
1.7468
 20
39.0953
 30
0.0000
  0
SEQEND
  0
POLYLINE
  6
continous
  8
BYBLOCK
 70
0
 66
1
  0
VERTEX
  8
0
 10
2.8492
 20
39.0967
 30
0.0000
  0
VERTEX
  8
0
 10
2.8500
 20
39.0990
 30
0.0000
  0
SEQEND
  0
LINE
  6
continous
  8
BYBLOCK
 10
2.8492
 20
39.0967
 30
0.0000
 11
1.4798
 21
39.0140
 31
0.0000
  0
POLYLINE
  6
continous
  8
BYBLOCK
 70
0
 66
1
  0
VERTEX
  8
0
 10
1.3648
 20
39.0117
 30
0.0000
  0
VERTEX
  8
0
 10
1.4798
 20
39.0140
 30
0.0000
  0
SEQEND
  0
POLYLINE
  6
continous
  8
BYBLOCK
 70
0
 66
1
  0
VERTEX
  8
0
 10
-1.4798
 20
39.0140
 30
0.0000
  0
VERTEX
  8
0
 10
-1.3648
 20
39.0117
 30
0.0000
  0
SEQEND
  0
LINE
  6
continous
  8
BYBLOCK
 10
-1.4798
 20
39.0140
 30
0.0000
 11
-2.8492
 21
39.0967
 31
0.0000
  0
POLYLINE
  6
continous
  8
BYBLOCK
 70
0
 66
1
  0
VERTEX
  8
0
 10
-2.8500
 20
39.0990
 30
0.0000
  0
VERTEX
  8
0
 10
-2.8492
 20
39.0967
 30
0.0000
  0
SEQEND
  0
LINE
  6
continous
  8
BYBLOCK
 10
-2.8492
 20
39.1013
 30
0.0000
 11
-1.4798
 21
39.1840
 31
0.0000
  0
POLYLINE
  6
continous
  8
BYBLOCK
 70
0
 66
1
  0
VERTEX
  8
0
 10
-1.3648
 20
39.1863
 30
0.0000
  0
VERTEX
  8
0
 10
-1.4798
 20
39.1840
 30
0.0000
  0
SEQEND
  0
LINE
  6
continous
  8
BYBLOCK
 10
-1.3648
 20
39.1863
 30
0.0000
 11
1.3648
 21
39.1863
 31
0.0000
  0
POLYLINE
  6
continous
  8
BYBLOCK
 70
0
 66
1
  0
VERTEX
  8
0
 10
1.4798
 20
39.1840
 30
0.0000
  0
VERTEX
  8
0
 10
1.3648
 20
39.1863
 30
0.0000
  0
SEQEND
  0
LINE
  6
continous
  8
BYBLOCK
 10
1.4798
 20
39.1840
 30
0.0000
 11
2.8492
 21
39.1013
 31
0.0000
  0
LINE
  6
continous
  8
BYBLOCK
 10
2.8500
 20
37.5000
 30
0.0000
 11
2.8500
 21
39.0990
 31
0.0000
  0
POLYLINE
  6
continous
  8
BYBLOCK
 70
0
 66
1
  0
VERTEX
  8
0
 10
2.8500
 20
39.0990
 30
0.0000
  0
VERTEX
  8
0
 10
2.8492
 20
39.1013
 30
0.0000
  0
SEQEND
  0
POLYLINE
  6
continous
  8
BYBLOCK
 70
0
 66
1
  0
VERTEX
  8
0
 10
-2.8492
 20
39.1013
 30
0.0000
  0
VERTEX
  8
0
 10
-2.8500
 20
39.0990
 30
0.0000
  0
SEQEND
  0
LINE
  6
continous
  8
BYBLOCK
 10
-2.8500
 20
39.0990
 30
0.0000
 11
-2.8500
 21
37.5000
 31
0.0000
  0
LINE
  6
continous
  8
BYBLOCK
 10
1.3648
 20
39.0117
 30
0.0000
 11
-1.3648
 21
39.0117
 31
0.0000
  0
LINE
  6
continous
  8
BYBLOCK
 10
1.3648
 20
37.5000
 30
0.0000
 11
1.3648
 21
39.0117
 31
0.0000
  0
LINE
  6
continous
  8
BYBLOCK
 10
-1.3648
 20
37.5000
 30
0.0000
 11
-1.3648
 21
39.0117
 31
0.0000
  0
LINE
  6
continous
  8
BYBLOCK
 10
8.8000
 20
-37.5000
 30
0.0000
 11
8.8000
 21
-56.6340
 31
0.0000
  0
LINE
  6
continous
  8
BYBLOCK
 10
8.8000
 20
57.5000
 30
0.0000
 11
8.8000
 21
37.5000
 31
0.0000
  0
LINE
  6
continous
  8
BYBLOCK
 10
8.5525
 20
-57.0626
 30
0.0000
 11
8.8000
 21
-56.6340
 31
0.0000
  0
LINE
  6
continous
  8
BYBLOCK
 10
8.3050
 20
-37.5000
 30
0.0000
 11
8.3050
 21
-56.6340
 31
0.0000
  0
LINE
  6
continous
  8
BYBLOCK
 10
8.3050
 20
57.5000
 30
0.0000
 11
8.3050
 21
37.5000
 31
0.0000
  0
LINE
  6
continous
  8
BYBLOCK
 10
10.0000
 20
-56.6340
 30
0.0000
 11
8.8000
 21
-56.6340
 31
0.0000
  0
LINE
  6
continous
  8
BYBLOCK
 10
10.0000
 20
-37.5000
 30
0.0000
 11
10.0000
 21
-56.6340
 31
0.0000
  0
LINE
  6
continous
  8
BYBLOCK
 10
10.0000
 20
57.5000
 30
0.0000
 11
10.0000
 21
37.5000
 31
0.0000
  0
LINE
  6
continous
  8
BYBLOCK
 10
10.0000
 20
-56.6340
 30
0.0000
 11
9.5000
 21
-57.5000
 31
0.0000
  0
LINE
  6
continous
  8
BYBLOCK
 10
-10.0000
 20
-56.6340
 30
0.0000
 11
-9.5000
 21
-57.5000
 31
0.0000
  0
LINE
  6
continous
  8
BYBLOCK
 10
-10.0000
 20
-37.5000
 30
0.0000
 11
-10.0000
 21
-56.6340
 31
0.0000
  0
LINE
  6
continous
  8
BYBLOCK
 10
-10.0000
 20
57.5000
 30
0.0000
 11
-10.0000
 21
37.5000
 31
0.0000
  0
LINE
  6
continous
  8
BYBLOCK
 10
-8.8000
 20
-56.6340
 30
0.0000
 11
-10.0000
 21
-56.6340
 31
0.0000
  0
LINE
  6
continous
  8
BYBLOCK
 10
-8.8000
 20
-56.6340
 30
0.0000
 11
-8.5525
 21
-57.0626
 31
0.0000
  0
LINE
  6
continous
  8
BYBLOCK
 10
-8.8000
 20
-37.5000
 30
0.0000
 11
-8.8000
 21
-56.6340
 31
0.0000
  0
LINE
  6
continous
  8
BYBLOCK
 10
-8.8000
 20
57.5000
 30
0.0000
 11
-8.8000
 21
37.5000
 31
0.0000
  0
LINE
  6
continous
  8
BYBLOCK
 10
-8.3050
 20
-37.5000
 30
0.0000
 11
-8.3050
 21
-56.6340
 31
0.0000
  0
LINE
  6
continous
  8
BYBLOCK
 10
-8.3050
 20
57.5000
 30
0.0000
 11
-8.3050
 21
37.5000
 31
0.0000
  0
LINE
  6
continous
  8
BYBLOCK
 10
8.3050
 20
-56.6340
 30
0.0000
 11
-8.3050
 21
-56.6340
 31
0.0000
  0
LINE
  6
continous
  8
BYBLOCK
 10
8.3050
 20
-56.6340
 30
0.0000
 11
8.5525
 21
-57.0626
 31
0.0000
  0
LINE
  6
continous
  8
BYBLOCK
 10
8.5525
 20
-57.0626
 30
0.0000
 11
8.3000
 21
-57.5000
 31
0.0000
  0
LINE
  6
continous
  8
BYBLOCK
 10
-8.5525
 20
-57.0626
 30
0.0000
 11
-8.3000
 21
-57.5000
 31
0.0000
  0
LINE
  6
continous
  8
BYBLOCK
 10
-8.5525
 20
-57.0626
 30
0.0000
 11
-8.3050
 21
-56.6340
 31
0.0000
  0
LINE
  6
continous
  8
BYBLOCK
 10
9.5000
 20
-57.5000
 30
0.0000
 11
8.3000
 21
-57.5000
 31
0.0000
  0
LINE
  6
continous
  8
BYBLOCK
 10
-8.3000
 20
-57.5000
 30
0.0000
 11
-9.5000
 21
-57.5000
 31
0.0000
  0
LINE
  6
continous
  8
BYBLOCK
 10
8.3000
 20
-57.5000
 30
0.0000
 11
-8.3000
 21
-57.5000
 31
0.0000
  0
LINE
  6
continous
  8
BYBLOCK
 10
8.8000
 20
57.5000
 30
0.0000
 11
8.3050
 21
57.5000
 31
0.0000
  0
LINE
  6
continous
  8
BYBLOCK
 10
8.3050
 20
57.5000
 30
0.0000
 11
-8.3050
 21
57.5000
 31
0.0000
  0
LINE
  6
continous
  8
BYBLOCK
 10
-8.3050
 20
57.5000
 30
0.0000
 11
-8.8000
 21
57.5000
 31
0.0000
  0
LINE
  6
continous
  8
BYBLOCK
 10
-8.8000
 20
57.5000
 30
0.0000
 11
-10.0000
 21
57.5000
 31
0.0000
  0
LINE
  6
continous
  8
BYBLOCK
 10
10.0000
 20
57.5000
 30
0.0000
 11
8.8000
 21
57.5000
 31
0.0000
  0
ARC
  6
continous
  8
BYBLOCK
 10
0.0000
 20
31.8000
 30
0.0000
 40
3.5000
 50
180.0000
 51
360.0000
  0
ARC
  6
continous
  8
BYBLOCK
 10
0.0000
 20
31.8000
 30
0.0000
 40
3.5000
 50
0.0000
 51
180.0000
  0
LINE
  6
continous
  8
BYBLOCK
 10
4.5000
 20
24.8000
 30
0.0000
 11
4.5000
 21
37.5000
 31
0.0000
  0
LINE
  6
continous
  8
BYBLOCK
 10
4.7500
 20
24.8000
 30
0.0000
 11
4.7500
 21
37.5000
 31
0.0000
  0
LINE
  6
continous
  8
BYBLOCK
 10
21.4458
 20
37.5000
 30
0.0000
 11
21.4458
 21
24.8000
 31
0.0000
  0
LINE
  6
continous
  8
BYBLOCK
 10
21.4458
 20
37.5000
 30
0.0000
 11
21.4500
 21
37.5000
 31
0.0000
  0
LINE
  6
continous
  8
BYBLOCK
 10
21.4458
 20
37.5000
 30
0.0000
 11
4.7500
 21
37.5000
 31
0.0000
  0
LINE
  6
continous
  8
BYBLOCK
 10
4.7500
 20
37.5000
 30
0.0000
 11
4.5000
 21
37.5000
 31
0.0000
  0
LINE
  6
continous
  8
BYBLOCK
 10
-4.5000
 20
37.5000
 30
0.0000
 11
4.5000
 21
37.5000
 31
0.0000
  0
LINE
  6
continous
  8
BYBLOCK
 10
21.4500
 20
37.5000
 30
0.0000
 11
21.4500
 21
24.8000
 31
0.0000
  0
LINE
  6
continous
  8
BYBLOCK
 10
-21.4500
 20
37.5000
 30
0.0000
 11
-21.4500
 21
24.8000
 31
0.0000
  0
LINE
  6
continous
  8
BYBLOCK
 10
-21.4500
 20
37.5000
 30
0.0000
 11
-21.4458
 21
37.5000
 31
0.0000
  0
LINE
  6
continous
  8
BYBLOCK
 10
-21.4458
 20
37.5000
 30
0.0000
 11
-21.4458
 21
24.8000
 31
0.0000
  0
LINE
  6
continous
  8
BYBLOCK
 10
-21.4458
 20
37.5000
 30
0.0000
 11
-4.7500
 21
37.5000
 31
0.0000
  0
LINE
  6
continous
  8
BYBLOCK
 10
-4.7500
 20
24.8000
 30
0.0000
 11
-4.7500
 21
37.5000
 31
0.0000
  0
LINE
  6
continous
  8
BYBLOCK
 10
-4.5000
 20
37.5000
 30
0.0000
 11
-4.7500
 21
37.5000
 31
0.0000
  0
LINE
  6
continous
  8
BYBLOCK
 10
-4.5000
 20
24.8000
 30
0.0000
 11
-4.5000
 21
37.5000
 31
0.0000
  0
LINE
  6
continous
  8
BYBLOCK
 10
-17.7500
 20
-37.5000
 30
0.0000
 11
-14.7500
 21
-37.5000
 31
0.0000
  0
LINE
  6
continous
  8
BYBLOCK
 10
-14.7500
 20
-37.5000
 30
0.0000
 11
-17.7500
 21
-37.5000
 31
0.0000
  0
LINE
  6
continous
  8
BYBLOCK
 10
14.7500
 20
-37.5000
 30
0.0000
 11
17.7500
 21
-37.5000
 31
0.0000
  0
LINE
  6
continous
  8
BYBLOCK
 10
17.7500
 20
-37.5000
 30
0.0000
 11
14.7500
 21
-37.5000
 31
0.0000
  0
ARC
  6
continous
  8
BYBLOCK
 10
0.0000
 20
-31.8000
 30
0.0000
 40
3.5000
 50
0.0000
 51
180.0000
  0
ARC
  6
continous
  8
BYBLOCK
 10
0.0000
 20
-31.8000
 30
0.0000
 40
3.5000
 50
180.0000
 51
360.0000
  0
LINE
  6
continous
  8
BYBLOCK
 10
-4.5000
 20
-24.8000
 30
0.0000
 11
-4.5000
 21
-37.5000
 31
0.0000
  0
LINE
  6
continous
  8
BYBLOCK
 10
-4.7500
 20
-24.8000
 30
0.0000
 11
-4.7500
 21
-37.5000
 31
0.0000
  0
LINE
  6
continous
  8
BYBLOCK
 10
-21.4458
 20
-37.5000
 30
0.0000
 11
-21.4458
 21
-24.8000
 31
0.0000
  0
LINE
  6
continous
  8
BYBLOCK
 10
-21.4458
 20
-37.5000
 30
0.0000
 11
-21.4500
 21
-37.5000
 31
0.0000
  0
LINE
  6
continous
  8
BYBLOCK
 10
-21.4458
 20
-37.5000
 30
0.0000
 11
-4.7500
 21
-37.5000
 31
0.0000
  0
LINE
  6
continous
  8
BYBLOCK
 10
-4.7500
 20
-37.5000
 30
0.0000
 11
-4.5000
 21
-37.5000
 31
0.0000
  0
LINE
  6
continous
  8
BYBLOCK
 10
4.5000
 20
-37.5000
 30
0.0000
 11
-4.5000
 21
-37.5000
 31
0.0000
  0
LINE
  6
continous
  8
BYBLOCK
 10
-21.4500
 20
-37.5000
 30
0.0000
 11
-21.4500
 21
-24.8000
 31
0.0000
  0
LINE
  6
continous
  8
BYBLOCK
 10
21.4500
 20
-37.5000
 30
0.0000
 11
21.4500
 21
-24.8000
 31
0.0000
  0
LINE
  6
continous
  8
BYBLOCK
 10
21.4500
 20
-37.5000
 30
0.0000
 11
21.4458
 21
-37.5000
 31
0.0000
  0
LINE
  6
continous
  8
BYBLOCK
 10
21.4458
 20
-37.5000
 30
0.0000
 11
21.4458
 21
-24.8000
 31
0.0000
  0
LINE
  6
continous
  8
BYBLOCK
 10
21.4458
 20
-37.5000
 30
0.0000
 11
4.7500
 21
-37.5000
 31
0.0000
  0
LINE
  6
continous
  8
BYBLOCK
 10
4.7500
 20
-24.8000
 30
0.0000
 11
4.7500
 21
-37.5000
 31
0.0000
  0
LINE
  6
continous
  8
BYBLOCK
 10
4.5000
 20
-37.5000
 30
0.0000
 11
4.7500
 21
-37.5000
 31
0.0000
  0
LINE
  6
continous
  8
BYBLOCK
 10
4.5000
 20
-24.8000
 30
0.0000
 11
4.5000
 21
-37.5000
 31
0.0000
  0
LINE
  6
continous
  8
BYBLOCK
 10
4.5000
 20
-24.8000
 30
0.0000
 11
-4.5000
 21
-24.8000
 31
0.0000
  0
LINE
  6
continous
  8
BYBLOCK
 10
-4.7500
 20
-24.8000
 30
0.0000
 11
-4.5000
 21
-24.8000
 31
0.0000
  0
LINE
  6
continous
  8
BYBLOCK
 10
-21.4458
 20
-24.8000
 30
0.0000
 11
-4.7500
 21
-24.8000
 31
0.0000
  0
LINE
  6
continous
  8
BYBLOCK
 10
-21.4500
 20
-24.8000
 30
0.0000
 11
-21.4458
 21
-24.8000
 31
0.0000
  0
LINE
  6
continous
  8
BYBLOCK
 10
21.4458
 20
-24.8000
 30
0.0000
 11
21.4500
 21
-24.8000
 31
0.0000
  0
LINE
  6
continous
  8
BYBLOCK
 10
21.4458
 20
-24.8000
 30
0.0000
 11
4.7500
 21
-24.8000
 31
0.0000
  0
LINE
  6
continous
  8
BYBLOCK
 10
4.5000
 20
-24.8000
 30
0.0000
 11
4.7500
 21
-24.8000
 31
0.0000
  0
ARC
  6
continous
  8
BYBLOCK
 10
-16.0000
 20
18.0000
 30
0.0000
 40
2.5000
 50
180.0000
 51
360.0000
  0
ARC
  6
continous
  8
BYBLOCK
 10
-16.0000
 20
18.0000
 30
0.0000
 40
2.5000
 50
0.0000
 51
180.0000
  0
ARC
  6
continous
  8
BYBLOCK
 10
-16.0000
 20
18.0000
 30
0.0000
 40
2.1500
 50
0.0000
 51
180.0000
  0
ARC
  6
continous
  8
BYBLOCK
 10
-16.0000
 20
-18.0000
 30
0.0000
 40
2.5000
 50
180.0000
 51
360.0000
  0
ARC
  6
continous
  8
BYBLOCK
 10
-16.0000
 20
-18.0000
 30
0.0000
 40
2.5000
 50
0.0000
 51
180.0000
  0
ARC
  6
continous
  8
BYBLOCK
 10
-16.0000
 20
-18.0000
 30
0.0000
 40
2.1500
 50
0.0000
 51
180.0000
  0
ARC
  6
continous
  8
BYBLOCK
 10
16.0000
 20
18.0000
 30
0.0000
 40
2.5000
 50
180.0000
 51
360.0000
  0
ARC
  6
continous
  8
BYBLOCK
 10
16.0000
 20
18.0000
 30
0.0000
 40
2.5000
 50
0.0000
 51
180.0000
  0
ARC
  6
continous
  8
BYBLOCK
 10
16.0000
 20
18.0000
 30
0.0000
 40
2.1500
 50
0.0000
 51
180.0000
  0
ARC
  6
continous
  8
BYBLOCK
 10
16.0000
 20
-18.0000
 30
0.0000
 40
2.5000
 50
180.0000
 51
360.0000
  0
ARC
  6
continous
  8
BYBLOCK
 10
16.0000
 20
-18.0000
 30
0.0000
 40
2.5000
 50
0.0000
 51
180.0000
  0
ARC
  6
continous
  8
BYBLOCK
 10
16.0000
 20
-18.0000
 30
0.0000
 40
2.1500
 50
0.0000
 51
180.0000
  0
LINE
  6
continous
  8
BYBLOCK
 10
-13.8500
 20
18.0000
 30
0.0000
 11
-13.3500
 21
18.0000
 31
0.0000
  0
LINE
  6
continous
  8
BYBLOCK
 10
-18.1500
 20
18.0000
 30
0.0000
 11
-18.6500
 21
18.0000
 31
0.0000
  0
ARC
  6
continous
  8
BYBLOCK
 10
-16.0000
 20
18.0000
 30
0.0000
 40
2.1500
 50
180.0000
 51
360.0000
  0
ARC
  6
continous
  8
BYBLOCK
 10
-16.0000
 20
18.0000
 30
0.0000
 40
2.1500
 50
0.0000
 51
180.0000
  0
LINE
  6
continous
  8
BYBLOCK
 10
-16.7557
 20
18.0000
 30
0.0000
 11
-18.1500
 21
18.0000
 31
0.0000
  0
LINE
  6
continous
  8
BYBLOCK
 10
-15.6080
 20
18.0000
 30
0.0000
 11
-13.8500
 21
18.0000
 31
0.0000
  0
POLYLINE
  6
continous
  8
BYBLOCK
 70
0
 66
1
  0
VERTEX
  8
0
 10
-16.7557
 20
18.0000
 30
0.0000
  0
VERTEX
  8
0
 10
-16.7316
 20
18.1994
 30
0.0000
  0
VERTEX
  8
0
 10
-16.6628
 20
18.3781
 30
0.0000
  0
VERTEX
  8
0
 10
-16.5545
 20
18.5252
 30
0.0000
  0
VERTEX
  8
0
 10
-16.4226
 20
18.6234
 30
0.0000
  0
VERTEX
  8
0
 10
-16.2736
 20
18.6724
 30
0.0000
  0
VERTEX
  8
0
 10
-16.1169
 20
18.6693
 30
0.0000
  0
VERTEX
  8
0
 10
-15.9615
 20
18.6135
 30
0.0000
  0
VERTEX
  8
0
 10
-15.8125
 20
18.5002
 30
0.0000
  0
VERTEX
  8
0
 10
-15.6934
 20
18.3376
 30
0.0000
  0
VERTEX
  8
0
 10
-15.6247
 20
18.1524
 30
0.0000
  0
VERTEX
  8
0
 10
-15.6080
 20
18.0000
 30
0.0000
  0
SEQEND
  0
POLYLINE
  6
continous
  8
BYBLOCK
 70
0
 66
1
  0
VERTEX
  8
0
 10
-15.6080
 20
18.0000
 30
0.0000
  0
VERTEX
  8
0
 10
-15.6336
 20
17.8118
 30
0.0000
  0
VERTEX
  8
0
 10
-15.7126
 20
17.6287
 30
0.0000
  0
VERTEX
  8
0
 10
-15.8327
 20
17.4801
 30
0.0000
  0
VERTEX
  8
0
 10
-15.9837
 20
17.3751
 30
0.0000
  0
VERTEX
  8
0
 10
-16.1385
 20
17.3271
 30
0.0000
  0
VERTEX
  8
0
 10
-16.2946
 20
17.3313
 30
0.0000
  0
VERTEX
  8
0
 10
-16.4421
 20
17.3873
 30
0.0000
  0
VERTEX
  8
0
 10
-16.5718
 20
17.4930
 30
0.0000
  0
VERTEX
  8
0
 10
-16.6745
 20
17.6445
 30
0.0000
  0
VERTEX
  8
0
 10
-16.7377
 20
17.8274
 30
0.0000
  0
VERTEX
  8
0
 10
-16.7557
 20
18.0000
 30
0.0000
  0
SEQEND
  0
POLYLINE
  6
continous
  8
BYBLOCK
 70
0
 66
1
  0
VERTEX
  8
0
 10
-16.7557
 20
-18.0000
 30
0.0000
  0
VERTEX
  8
0
 10
-16.7316
 20
-17.8006
 30
0.0000
  0
VERTEX
  8
0
 10
-16.6628
 20
-17.6219
 30
0.0000
  0
VERTEX
  8
0
 10
-16.5545
 20
-17.4748
 30
0.0000
  0
VERTEX
  8
0
 10
-16.4226
 20
-17.3766
 30
0.0000
  0
VERTEX
  8
0
 10
-16.2736
 20
-17.3276
 30
0.0000
  0
VERTEX
  8
0
 10
-16.1169
 20
-17.3307
 30
0.0000
  0
VERTEX
  8
0
 10
-15.9615
 20
-17.3865
 30
0.0000
  0
VERTEX
  8
0
 10
-15.8125
 20
-17.4998
 30
0.0000
  0
VERTEX
  8
0
 10
-15.6934
 20
-17.6624
 30
0.0000
  0
VERTEX
  8
0
 10
-15.6247
 20
-17.8476
 30
0.0000
  0
VERTEX
  8
0
 10
-15.6080
 20
-18.0000
 30
0.0000
  0
SEQEND
  0
LINE
  6
continous
  8
BYBLOCK
 10
-16.7557
 20
-18.0000
 30
0.0000
 11
-18.1500
 21
-18.0000
 31
0.0000
  0
POLYLINE
  6
continous
  8
BYBLOCK
 70
0
 66
1
  0
VERTEX
  8
0
 10
-15.6080
 20
-18.0000
 30
0.0000
  0
VERTEX
  8
0
 10
-15.6336
 20
-18.1882
 30
0.0000
  0
VERTEX
  8
0
 10
-15.7126
 20
-18.3713
 30
0.0000
  0
VERTEX
  8
0
 10
-15.8327
 20
-18.5199
 30
0.0000
  0
VERTEX
  8
0
 10
-15.9837
 20
-18.6249
 30
0.0000
  0
VERTEX
  8
0
 10
-16.1385
 20
-18.6729
 30
0.0000
  0
VERTEX
  8
0
 10
-16.2946
 20
-18.6687
 30
0.0000
  0
VERTEX
  8
0
 10
-16.4421
 20
-18.6127
 30
0.0000
  0
VERTEX
  8
0
 10
-16.5718
 20
-18.5070
 30
0.0000
  0
VERTEX
  8
0
 10
-16.6745
 20
-18.3555
 30
0.0000
  0
VERTEX
  8
0
 10
-16.7377
 20
-18.1726
 30
0.0000
  0
VERTEX
  8
0
 10
-16.7557
 20
-18.0000
 30
0.0000
  0
SEQEND
  0
LINE
  6
continous
  8
BYBLOCK
 10
-15.6080
 20
-18.0000
 30
0.0000
 11
-13.8500
 21
-18.0000
 31
0.0000
  0
ARC
  6
continous
  8
BYBLOCK
 10
-16.0000
 20
-18.0000
 30
0.0000
 40
2.1500
 50
0.0000
 51
180.0000
  0
ARC
  6
continous
  8
BYBLOCK
 10
-16.0000
 20
-18.0000
 30
0.0000
 40
2.1500
 50
180.0000
 51
360.0000
  0
LINE
  6
continous
  8
BYBLOCK
 10
-13.8500
 20
-18.0000
 30
0.0000
 11
-13.3500
 21
-18.0000
 31
0.0000
  0
LINE
  6
continous
  8
BYBLOCK
 10
-18.1500
 20
-18.0000
 30
0.0000
 11
-18.6500
 21
-18.0000
 31
0.0000
  0
LINE
  6
continous
  8
BYBLOCK
 10
18.1500
 20
18.0000
 30
0.0000
 11
18.6500
 21
18.0000
 31
0.0000
  0
LINE
  6
continous
  8
BYBLOCK
 10
13.8500
 20
18.0000
 30
0.0000
 11
13.3500
 21
18.0000
 31
0.0000
  0
ARC
  6
continous
  8
BYBLOCK
 10
16.0000
 20
18.0000
 30
0.0000
 40
2.1500
 50
180.0000
 51
360.0000
  0
ARC
  6
continous
  8
BYBLOCK
 10
16.0000
 20
18.0000
 30
0.0000
 40
2.1500
 50
0.0000
 51
180.0000
  0
LINE
  6
continous
  8
BYBLOCK
 10
16.7557
 20
18.0000
 30
0.0000
 11
18.1500
 21
18.0000
 31
0.0000
  0
LINE
  6
continous
  8
BYBLOCK
 10
15.6080
 20
18.0000
 30
0.0000
 11
13.8500
 21
18.0000
 31
0.0000
  0
POLYLINE
  6
continous
  8
BYBLOCK
 70
0
 66
1
  0
VERTEX
  8
0
 10
15.6080
 20
18.0000
 30
0.0000
  0
VERTEX
  8
0
 10
15.6336
 20
18.1882
 30
0.0000
  0
VERTEX
  8
0
 10
15.7127
 20
18.3713
 30
0.0000
  0
VERTEX
  8
0
 10
15.8327
 20
18.5200
 30
0.0000
  0
VERTEX
  8
0
 10
15.9838
 20
18.6250
 30
0.0000
  0
VERTEX
  8
0
 10
16.1386
 20
18.6729
 30
0.0000
  0
VERTEX
  8
0
 10
16.2946
 20
18.6687
 30
0.0000
  0
VERTEX
  8
0
 10
16.4419
 20
18.6127
 30
0.0000
  0
VERTEX
  8
0
 10
16.5717
 20
18.5071
 30
0.0000
  0
VERTEX
  8
0
 10
16.6745
 20
18.3556
 30
0.0000
  0
VERTEX
  8
0
 10
16.7377
 20
18.1727
 30
0.0000
  0
VERTEX
  8
0
 10
16.7557
 20
18.0000
 30
0.0000
  0
SEQEND
  0
POLYLINE
  6
continous
  8
BYBLOCK
 70
0
 66
1
  0
VERTEX
  8
0
 10
16.7557
 20
18.0000
 30
0.0000
  0
VERTEX
  8
0
 10
16.7315
 20
17.8006
 30
0.0000
  0
VERTEX
  8
0
 10
16.6628
 20
17.6219
 30
0.0000
  0
VERTEX
  8
0
 10
16.5545
 20
17.4748
 30
0.0000
  0
VERTEX
  8
0
 10
16.4225
 20
17.3766
 30
0.0000
  0
VERTEX
  8
0
 10
16.2736
 20
17.3276
 30
0.0000
  0
VERTEX
  8
0
 10
16.1170
 20
17.3306
 30
0.0000
  0
VERTEX
  8
0
 10
15.9616
 20
17.3865
 30
0.0000
  0
VERTEX
  8
0
 10
15.8126
 20
17.4997
 30
0.0000
  0
VERTEX
  8
0
 10
15.6934
 20
17.6623
 30
0.0000
  0
VERTEX
  8
0
 10
15.6247
 20
17.8476
 30
0.0000
  0
VERTEX
  8
0
 10
15.6080
 20
18.0000
 30
0.0000
  0
SEQEND
  0
POLYLINE
  6
continous
  8
BYBLOCK
 70
0
 66
1
  0
VERTEX
  8
0
 10
15.6080
 20
-18.0000
 30
0.0000
  0
VERTEX
  8
0
 10
15.6336
 20
-17.8118
 30
0.0000
  0
VERTEX
  8
0
 10
15.7127
 20
-17.6287
 30
0.0000
  0
VERTEX
  8
0
 10
15.8327
 20
-17.4800
 30
0.0000
  0
VERTEX
  8
0
 10
15.9838
 20
-17.3750
 30
0.0000
  0
VERTEX
  8
0
 10
16.1386
 20
-17.3271
 30
0.0000
  0
VERTEX
  8
0
 10
16.2946
 20
-17.3313
 30
0.0000
  0
VERTEX
  8
0
 10
16.4419
 20
-17.3873
 30
0.0000
  0
VERTEX
  8
0
 10
16.5717
 20
-17.4929
 30
0.0000
  0
VERTEX
  8
0
 10
16.6745
 20
-17.6444
 30
0.0000
  0
VERTEX
  8
0
 10
16.7377
 20
-17.8273
 30
0.0000
  0
VERTEX
  8
0
 10
16.7557
 20
-18.0000
 30
0.0000
  0
SEQEND
  0
POLYLINE
  6
continous
  8
BYBLOCK
 70
0
 66
1
  0
VERTEX
  8
0
 10
16.7557
 20
-18.0000
 30
0.0000
  0
VERTEX
  8
0
 10
16.7315
 20
-18.1994
 30
0.0000
  0
VERTEX
  8
0
 10
16.6628
 20
-18.3781
 30
0.0000
  0
VERTEX
  8
0
 10
16.5545
 20
-18.5252
 30
0.0000
  0
VERTEX
  8
0
 10
16.4225
 20
-18.6234
 30
0.0000
  0
VERTEX
  8
0
 10
16.2736
 20
-18.6724
 30
0.0000
  0
VERTEX
  8
0
 10
16.1170
 20
-18.6694
 30
0.0000
  0
VERTEX
  8
0
 10
15.9616
 20
-18.6135
 30
0.0000
  0
VERTEX
  8
0
 10
15.8126
 20
-18.5003
 30
0.0000
  0
VERTEX
  8
0
 10
15.6934
 20
-18.3377
 30
0.0000
  0
VERTEX
  8
0
 10
15.6247
 20
-18.1524
 30
0.0000
  0
VERTEX
  8
0
 10
15.6080
 20
-18.0000
 30
0.0000
  0
SEQEND
  0
LINE
  6
continous
  8
BYBLOCK
 10
16.7557
 20
-18.0000
 30
0.0000
 11
18.1500
 21
-18.0000
 31
0.0000
  0
LINE
  6
continous
  8
BYBLOCK
 10
15.6080
 20
-18.0000
 30
0.0000
 11
13.8500
 21
-18.0000
 31
0.0000
  0
ARC
  6
continous
  8
BYBLOCK
 10
16.0000
 20
-18.0000
 30
0.0000
 40
2.1500
 50
0.0000
 51
180.0000
  0
LINE
  6
continous
  8
BYBLOCK
 10
13.8500
 20
-18.0000
 30
0.0000
 11
13.3500
 21
-18.0000
 31
0.0000
  0
ARC
  6
continous
  8
BYBLOCK
 10
16.0000
 20
-18.0000
 30
0.0000
 40
2.1500
 50
180.0000
 51
360.0000
  0
LINE
  6
continous
  8
BYBLOCK
 10
18.1500
 20
-18.0000
 30
0.0000
 11
18.6500
 21
-18.0000
 31
0.0000
  0
LINE
  6
continous
  8
BYBLOCK
 10
-22.0000
 20
-24.8000
 30
0.0000
 11
-22.0000
 21
24.8000
 31
0.0000
  0
ARC
  6
continous
  8
BYBLOCK
 10
-16.0000
 20
18.0000
 30
0.0000
 40
2.6500
 50
0.0000
 51
180.0000
  0
ARC
  6
continous
  8
BYBLOCK
 10
-16.0000
 20
18.0000
 30
0.0000
 40
2.6500
 50
180.0000
 51
360.0000
  0
ARC
  6
continous
  8
BYBLOCK
 10
16.0000
 20
18.0000
 30
0.0000
 40
2.6500
 50
0.0000
 51
180.0000
  0
ARC
  6
continous
  8
BYBLOCK
 10
16.0000
 20
18.0000
 30
0.0000
 40
2.6500
 50
180.0000
 51
360.0000
  0
ARC
  6
continous
  8
BYBLOCK
 10
-16.0000
 20
-18.0000
 30
0.0000
 40
2.6500
 50
0.0000
 51
180.0000
  0
ARC
  6
continous
  8
BYBLOCK
 10
-16.0000
 20
-18.0000
 30
0.0000
 40
2.6500
 50
180.0000
 51
360.0000
  0
ARC
  6
continous
  8
BYBLOCK
 10
16.0000
 20
-18.0000
 30
0.0000
 40
2.6500
 50
0.0000
 51
180.0000
  0
ARC
  6
continous
  8
BYBLOCK
 10
16.0000
 20
-18.0000
 30
0.0000
 40
2.6500
 50
180.0000
 51
360.0000
  0
LINE
  6
continous
  8
BYBLOCK
 10
-21.2000
 20
-24.8000
 30
0.0000
 11
-21.2000
 21
24.8000
 31
0.0000
  0
LINE
  6
continous
  8
BYBLOCK
 10
21.2000
 20
-24.8000
 30
0.0000
 11
21.2000
 21
24.8000
 31
0.0000
  0
LINE
  6
continous
  8
BYBLOCK
 10
22.0000
 20
-24.8000
 30
0.0000
 11
22.0000
 21
24.8000
 31
0.0000
  0
LINE
  6
continous
  8
BYBLOCK
 10
21.2000
 20
24.8000
 30
0.0000
 11
22.0000
 21
24.8000
 31
0.0000
  0
LINE
  6
continous
  8
BYBLOCK
 10
-21.2000
 20
24.8000
 30
0.0000
 11
21.2000
 21
24.8000
 31
0.0000
  0
LINE
  6
continous
  8
BYBLOCK
 10
-22.0000
 20
24.8000
 30
0.0000
 11
-21.2000
 21
24.8000
 31
0.0000
  0
LINE
  6
continous
  8
BYBLOCK
 10
-22.0000
 20
-24.8000
 30
0.0000
 11
-21.2000
 21
-24.8000
 31
0.0000
  0
LINE
  6
continous
  8
BYBLOCK
 10
-21.2000
 20
-24.8000
 30
0.0000
 11
21.2000
 21
-24.8000
 31
0.0000
  0
LINE
  6
continous
  8
BYBLOCK
 10
21.2000
 20
-24.8000
 30
0.0000
 11
22.0000
 21
-24.8000
 31
0.0000
  0
ENDBLK
  8
0
  0
BLOCK
  8
REX_7
  2
6REX_MID_Jul_26_19-25-07
 70
0
 10
0.0000
 20
0.0000
 30
0.0000
  3
6REX_MID_Jul_26_19-25-07
  0
ENDBLK
  8
0
  0
BLOCK
  8
REX_1
  2
_VIEW_6_Jul_26_19-25-07
 70
0
 10
0.0000
 20
0.0000
 30
0.0000
  3
_VIEW_6_Jul_26_19-25-07
  0
INSERT
  8
REX_6
  2
6REX_MID_Jul_26_19-25-07
 10
0.0000
 20
0.0000
 30
0.0000
  0
LINE
  6
continous
  8
BYBLOCK
 10
-1.4798
 20
24.2158
 30
0.0000
 11
-2.8492
 21
26.5838
 31
0.0000
  0
LINE
  6
continous
  8
BYBLOCK
 10
1.3648
 20
24.1496
 30
0.0000
 11
-1.3648
 21
24.1496
 31
0.0000
  0
LINE
  6
continous
  8
BYBLOCK
 10
2.8492
 20
26.5838
 30
0.0000
 11
1.4798
 21
24.2158
 31
0.0000
  0
LINE
  6
continous
  8
BYBLOCK
 10
1.4798
 20
24.2158
 30
0.0000
 11
1.4798
 21
24.2716
 31
0.0000
  0
POLYLINE
  6
continous
  8
BYBLOCK
 70
0
 66
1
  0
VERTEX
  8
0
 10
1.3648
 20
24.1496
 30
0.0000
  0
VERTEX
  8
0
 10
1.4798
 20
24.2158
 30
0.0000
  0
SEQEND
  0
LINE
  6
continous
  8
BYBLOCK
 10
1.3648
 20
24.1496
 30
0.0000
 11
1.3648
 21
24.2054
 31
0.0000
  0
LINE
  6
continous
  8
BYBLOCK
 10
-1.3648
 20
24.1496
 30
0.0000
 11
-1.3648
 21
24.2054
 31
0.0000
  0
POLYLINE
  6
continous
  8
BYBLOCK
 70
0
 66
1
  0
VERTEX
  8
0
 10
-1.4798
 20
24.2158
 30
0.0000
  0
VERTEX
  8
0
 10
-1.3648
 20
24.1496
 30
0.0000
  0
SEQEND
  0
LINE
  6
continous
  8
BYBLOCK
 10
-1.4798
 20
24.2158
 30
0.0000
 11
-1.4798
 21
24.2716
 31
0.0000
  0
LINE
  6
continous
  8
BYBLOCK
 10
-0.0000
 20
28.4548
 30
0.0000
 11
-0.0000
 21
26.6706
 31
0.0000
  0
LINE
  6
continous
  8
BYBLOCK
 10
-0.0000
 20
24.9569
 30
0.0000
 11
-0.0000
 21
26.6706
 31
0.0000
  0
POLYLINE
  6
continous
  8
BYBLOCK
 70
0
 66
1
  0
VERTEX
  8
0
 10
-0.0000
 20
28.4548
 30
0.0000
  0
VERTEX
  8
0
 10
0.3937
 20
28.4099
 30
0.0000
  0
VERTEX
  8
0
 10
0.7671
 20
28.2778
 30
0.0000
  0
VERTEX
  8
0
 10
1.1013
 20
28.0650
 30
0.0000
  0
VERTEX
  8
0
 10
1.3790
 20
27.7826
 30
0.0000
  0
VERTEX
  8
0
 10
1.5860
 20
27.4450
 30
0.0000
  0
VERTEX
  8
0
 10
1.7118
 20
27.0695
 30
0.0000
  0
VERTEX
  8
0
 10
1.7497
 20
26.6753
 30
0.0000
  0
VERTEX
  8
0
 10
1.6980
 20
26.2827
 30
0.0000
  0
VERTEX
  8
0
 10
1.5593
 20
25.9118
 30
0.0000
  0
VERTEX
  8
0
 10
1.3406
 20
25.5816
 30
0.0000
  0
VERTEX
  8
0
 10
1.0532
 20
25.3091
 30
0.0000
  0
VERTEX
  8
0
 10
0.7118
 20
25.1081
 30
0.0000
  0
VERTEX
  8
0
 10
0.3339
 20
24.9890
 30
0.0000
  0
VERTEX
  8
0
 10
-0.0000
 20
24.9569
 30
0.0000
  0
SEQEND
  0
POLYLINE
  6
continous
  8
BYBLOCK
 70
0
 66
1
  0
VERTEX
  8
0
 10
-0.0000
 20
24.9569
 30
0.0000
  0
VERTEX
  8
0
 10
-0.3937
 20
25.0017
 30
0.0000
  0
VERTEX
  8
0
 10
-0.7671
 20
25.1339
 30
0.0000
  0
VERTEX
  8
0
 10
-1.1013
 20
25.3467
 30
0.0000
  0
VERTEX
  8
0
 10
-1.3790
 20
25.6291
 30
0.0000
  0
VERTEX
  8
0
 10
-1.5860
 20
25.9667
 30
0.0000
  0
VERTEX
  8
0
 10
-1.7118
 20
26.3422
 30
0.0000
  0
VERTEX
  8
0
 10
-1.7497
 20
26.7364
 30
0.0000
  0
VERTEX
  8
0
 10
-1.6980
 20
27.1289
 30
0.0000
  0
VERTEX
  8
0
 10
-1.5593
 20
27.4998
 30
0.0000
  0
VERTEX
  8
0
 10
-1.3406
 20
27.8300
 30
0.0000
  0
VERTEX
  8
0
 10
-1.0532
 20
28.1026
 30
0.0000
  0
VERTEX
  8
0
 10
-0.7118
 20
28.3036
 30
0.0000
  0
VERTEX
  8
0
 10
-0.3339
 20
28.4226
 30
0.0000
  0
VERTEX
  8
0
 10
-0.0000
 20
28.4548
 30
0.0000
  0
SEQEND
  0
POLYLINE
  6
continous
  8
BYBLOCK
 70
0
 66
1
  0
VERTEX
  8
0
 10
-2.8492
 20
26.7720
 30
0.0000
  0
VERTEX
  8
0
 10
-2.8500
 20
26.7058
 30
0.0000
  0
SEQEND
  0
LINE
  6
continous
  8
BYBLOCK
 10
-2.8492
 20
26.7720
 30
0.0000
 11
-1.4798
 21
29.1401
 31
0.0000
  0
POLYLINE
  6
continous
  8
BYBLOCK
 70
0
 66
1
  0
VERTEX
  8
0
 10
-1.3648
 20
29.2063
 30
0.0000
  0
VERTEX
  8
0
 10
-1.4798
 20
29.1401
 30
0.0000
  0
SEQEND
  0
POLYLINE
  6
continous
  8
BYBLOCK
 70
0
 66
1
  0
VERTEX
  8
0
 10
1.4798
 20
29.1401
 30
0.0000
  0
VERTEX
  8
0
 10
1.3648
 20
29.2063
 30
0.0000
  0
SEQEND
  0
LINE
  6
continous
  8
BYBLOCK
 10
1.4798
 20
29.1401
 30
0.0000
 11
2.8492
 21
26.7720
 31
0.0000
  0
POLYLINE
  6
continous
  8
BYBLOCK
 70
0
 66
1
  0
VERTEX
  8
0
 10
2.8500
 20
26.7058
 30
0.0000
  0
VERTEX
  8
0
 10
2.8492
 20
26.7720
 30
0.0000
  0
SEQEND
  0
LINE
  6
continous
  8
BYBLOCK
 10
2.8492
 20
26.6397
 30
0.0000
 11
1.4798
 21
24.2716
 31
0.0000
  0
POLYLINE
  6
continous
  8
BYBLOCK
 70
0
 66
1
  0
VERTEX
  8
0
 10
1.3648
 20
24.2054
 30
0.0000
  0
VERTEX
  8
0
 10
1.4798
 20
24.2716
 30
0.0000
  0
SEQEND
  0
LINE
  6
continous
  8
BYBLOCK
 10
1.3648
 20
24.2054
 30
0.0000
 11
-1.3648
 21
24.2054
 31
0.0000
  0
POLYLINE
  6
continous
  8
BYBLOCK
 70
0
 66
1
  0
VERTEX
  8
0
 10
-1.4798
 20
24.2716
 30
0.0000
  0
VERTEX
  8
0
 10
-1.3648
 20
24.2054
 30
0.0000
  0
SEQEND
  0
LINE
  6
continous
  8
BYBLOCK
 10
-1.4798
 20
24.2716
 30
0.0000
 11
-2.8492
 21
26.6397
 31
0.0000
  0
LINE
  6
continous
  8
BYBLOCK
 10
-2.8492
 20
26.5838
 30
0.0000
 11
-2.8492
 21
26.6397
 31
0.0000
  0
POLYLINE
  6
continous
  8
BYBLOCK
 70
0
 66
1
  0
VERTEX
  8
0
 10
-2.8492
 20
26.5838
 30
0.0000
  0
VERTEX
  8
0
 10
-2.8500
 20
26.6500
 30
0.0000
  0
SEQEND
  0
LINE
  6
continous
  8
BYBLOCK
 10
-2.8500
 20
26.6500
 30
0.0000
 11
-2.8500
 21
26.7058
 31
0.0000
  0
POLYLINE
  6
continous
  8
BYBLOCK
 70
0
 66
1
  0
VERTEX
  8
0
 10
-2.8500
 20
26.7058
 30
0.0000
  0
VERTEX
  8
0
 10
-2.8492
 20
26.6397
 30
0.0000
  0
SEQEND
  0
LINE
  6
continous
  8
BYBLOCK
 10
2.8492
 20
26.5838
 30
0.0000
 11
2.8492
 21
26.6397
 31
0.0000
  0
POLYLINE
  6
continous
  8
BYBLOCK
 70
0
 66
1
  0
VERTEX
  8
0
 10
2.8492
 20
26.6397
 30
0.0000
  0
VERTEX
  8
0
 10
2.8500
 20
26.7058
 30
0.0000
  0
SEQEND
  0
LINE
  6
continous
  8
BYBLOCK
 10
2.8500
 20
26.7058
 30
0.0000
 11
2.8500
 21
26.6500
 31
0.0000
  0
POLYLINE
  6
continous
  8
BYBLOCK
 70
0
 66
1
  0
VERTEX
  8
0
 10
2.8500
 20
26.6500
 30
0.0000
  0
VERTEX
  8
0
 10
2.8492
 20
26.5838
 30
0.0000
  0
SEQEND
  0
LINE
  6
continous
  8
BYBLOCK
 10
-1.3648
 20
29.2063
 30
0.0000
 11
1.3648
 21
29.2063
 31
0.0000
  0
LINE
  6
continous
  8
BYBLOCK
 10
-5.9000
 20
15.7500
 30
0.0000
 11
-6.9920
 21
16.3805
 31
0.0000
  0
ARC
  6
continous
  8
BYBLOCK
 10
-9.2420
 20
15.8575
 30
0.0000
 40
2.3100
 50
13.0844
 51
78.9689
  0
LINE
  6
continous
  8
BYBLOCK
 10
-8.8000
 20
18.1248
 30
0.0000
 11
-8.8000
 21
19.9550
 31
0.0000
  0
LINE
  6
continous
  8
BYBLOCK
 10
-8.8000
 20
19.9550
 30
0.0000
 11
-8.3050
 21
20.4500
 31
0.0000
  0
LINE
  6
continous
  8
BYBLOCK
 10
-8.3050
 20
20.4500
 30
0.0000
 11
8.3050
 21
20.4500
 31
0.0000
  0
LINE
  6
continous
  8
BYBLOCK
 10
8.3050
 20
20.4500
 30
0.0000
 11
8.8000
 21
19.9550
 31
0.0000
  0
LINE
  6
continous
  8
BYBLOCK
 10
8.8000
 20
19.9550
 30
0.0000
 11
8.8000
 21
18.1248
 31
0.0000
  0
ARC
  6
continous
  8
BYBLOCK
 10
9.2420
 20
15.8575
 30
0.0000
 40
2.3100
 50
101.0311
 51
166.9156
  0
LINE
  6
continous
  8
BYBLOCK
 10
6.9920
 20
16.3805
 30
0.0000
 11
5.9000
 21
15.7500
 31
0.0000
  0
LINE
  6
continous
  8
BYBLOCK
 10
5.9000
 20
15.7500
 30
0.0000
 11
5.9000
 21
8.8500
 31
0.0000
  0
LINE
  6
continous
  8
BYBLOCK
 10
5.9000
 20
8.8500
 30
0.0000
 11
6.9920
 21
8.2195
 31
0.0000
  0
ARC
  6
continous
  8
BYBLOCK
 10
9.2420
 20
8.7425
 30
0.0000
 40
2.3100
 50
193.0844
 51
258.9689
  0
LINE
  6
continous
  8
BYBLOCK
 10
8.8000
 20
6.4752
 30
0.0000
 11
8.8000
 21
4.4000
 31
0.0000
  0
LINE
  6
continous
  8
BYBLOCK
 10
8.8000
 20
4.4000
 30
0.0000
 11
10.0000
 21
3.7072
 31
0.0000
  0
LINE
  6
continous
  8
BYBLOCK
 10
10.0000
 20
3.7072
 30
0.0000
 11
10.0000
 21
1.2000
 31
0.0000
  0
LINE
  6
continous
  8
BYBLOCK
 10
10.0000
 20
1.2000
 30
0.0000
 11
8.8000
 21
0.0000
 31
0.0000
  0
LINE
  6
continous
  8
BYBLOCK
 10
8.8000
 20
0.0000
 30
0.0000
 11
-8.8000
 21
0.0000
 31
0.0000
  0
LINE
  6
continous
  8
BYBLOCK
 10
-8.8000
 20
0.0000
 30
0.0000
 11
-10.0000
 21
1.2000
 31
0.0000
  0
LINE
  6
continous
  8
BYBLOCK
 10
-10.0000
 20
1.2000
 30
0.0000
 11
-10.0000
 21
3.7072
 31
0.0000
  0
LINE
  6
continous
  8
BYBLOCK
 10
-10.0000
 20
3.7072
 30
0.0000
 11
-8.8000
 21
4.4000
 31
0.0000
  0
LINE
  6
continous
  8
BYBLOCK
 10
-8.8000
 20
4.4000
 30
0.0000
 11
-8.8000
 21
6.4752
 31
0.0000
  0
ARC
  6
continous
  8
BYBLOCK
 10
-9.2420
 20
8.7425
 30
0.0000
 40
2.3100
 50
281.0311
 51
346.9156
  0
LINE
  6
continous
  8
BYBLOCK
 10
-6.9920
 20
8.2195
 30
0.0000
 11
-5.9000
 21
8.8500
 31
0.0000
  0
LINE
  6
continous
  8
BYBLOCK
 10
-5.9000
 20
8.8500
 30
0.0000
 11
-5.9000
 21
15.7500
 31
0.0000
  0
LINE
  6
continous
  8
BYBLOCK
 10
-21.2500
 20
26.6500
 30
0.0000
 11
-21.2500
 21
25.5250
 31
0.0000
  0
LINE
  6
continous
  8
BYBLOCK
 10
-21.2500
 20
27.7750
 30
0.0000
 11
-21.2500
 21
26.6500
 31
0.0000
  0
POLYLINE
  6
continous
  8
BYBLOCK
 70
0
 66
1
  0
VERTEX
  8
0
 10
-17.4500
 20
22.7000
 30
0.0000
  0
VERTEX
  8
0
 10
-17.4228
 20
22.4461
 30
0.0000
  0
VERTEX
  8
0
 10
-17.3426
 20
22.2037
 30
0.0000
  0
VERTEX
  8
0
 10
-17.2128
 20
21.9838
 30
0.0000
  0
VERTEX
  8
0
 10
-17.0395
 20
21.7963
 30
0.0000
  0
VERTEX
  8
0
 10
-16.8305
 20
21.6497
 30
0.0000
  0
VERTEX
  8
0
 10
-16.5951
 20
21.5507
 30
0.0000
  0
VERTEX
  8
0
 10
-16.3442
 20
21.5037
 30
0.0000
  0
VERTEX
  8
0
 10
-16.0889
 20
21.5109
 30
0.0000
  0
VERTEX
  8
0
 10
-15.8410
 20
21.5719
 30
0.0000
  0
VERTEX
  8
0
 10
-15.6116
 20
21.6839
 30
0.0000
  0
VERTEX
  8
0
 10
-15.4110
 20
21.8420
 30
0.0000
  0
VERTEX
  8
0
 10
-15.2485
 20
22.0389
 30
0.0000
  0
VERTEX
  8
0
 10
-15.1313
 20
22.2658
 30
0.0000
  0
VERTEX
  8
0
 10
-15.0648
 20
22.5123
 30
0.0000
  0
VERTEX
  8
0
 10
-15.0500
 20
22.7000
 30
0.0000
  0
SEQEND
  0
ARC
  6
continous
  8
BYBLOCK
 10
-16.2500
 20
22.7000
 30
0.0000
 40
1.5000
 50
0.0000
 51
180.0000
  0
ARC
  6
continous
  8
BYBLOCK
 10
-16.2500
 20
22.7000
 30
0.0000
 40
1.5000
 50
180.0000
 51
360.0000
  0
POLYLINE
  6
continous
  8
BYBLOCK
 70
0
 66
1
  0
VERTEX
  8
0
 10
15.0500
 20
22.7000
 30
0.0000
  0
VERTEX
  8
0
 10
15.0772
 20
22.4461
 30
0.0000
  0
VERTEX
  8
0
 10
15.1574
 20
22.2037
 30
0.0000
  0
VERTEX
  8
0
 10
15.2872
 20
21.9838
 30
0.0000
  0
VERTEX
  8
0
 10
15.4605
 20
21.7963
 30
0.0000
  0
VERTEX
  8
0
 10
15.6695
 20
21.6497
 30
0.0000
  0
VERTEX
  8
0
 10
15.9049
 20
21.5507
 30
0.0000
  0
VERTEX
  8
0
 10
16.1558
 20
21.5037
 30
0.0000
  0
VERTEX
  8
0
 10
16.4111
 20
21.5109
 30
0.0000
  0
VERTEX
  8
0
 10
16.6590
 20
21.5719
 30
0.0000
  0
VERTEX
  8
0
 10
16.8884
 20
21.6839
 30
0.0000
  0
VERTEX
  8
0
 10
17.0890
 20
21.8420
 30
0.0000
  0
VERTEX
  8
0
 10
17.2515
 20
22.0389
 30
0.0000
  0
VERTEX
  8
0
 10
17.3687
 20
22.2658
 30
0.0000
  0
VERTEX
  8
0
 10
17.4352
 20
22.5123
 30
0.0000
  0
VERTEX
  8
0
 10
17.4500
 20
22.7000
 30
0.0000
  0
SEQEND
  0
ARC
  6
continous
  8
BYBLOCK
 10
16.2500
 20
22.7000
 30
0.0000
 40
1.5000
 50
0.0000
 51
180.0000
  0
ARC
  6
continous
  8
BYBLOCK
 10
16.2500
 20
22.7000
 30
0.0000
 40
1.5000
 50
180.0000
 51
360.0000
  0
LINE
  6
continous
  8
BYBLOCK
 10
21.2500
 20
28.3800
 30
0.0000
 11
21.4500
 21
28.3800
 31
0.0000
  0
LINE
  6
continous
  8
BYBLOCK
 10
21.4500
 20
24.9583
 30
0.0000
 11
21.2500
 21
24.9583
 31
0.0000
  0
LINE
  6
continous
  8
BYBLOCK
 10
-21.4500
 20
28.3800
 30
0.0000
 11
-21.2500
 21
28.3800
 31
0.0000
  0
LINE
  6
continous
  8
BYBLOCK
 10
-21.2500
 20
24.9583
 30
0.0000
 11
-21.4500
 21
24.9583
 31
0.0000
  0
LINE
  6
continous
  8
BYBLOCK
 10
-16.2500
 20
22.7000
 30
0.0000
 11
-15.0500
 21
22.7000
 31
0.0000
  0
LINE
  6
continous
  8
BYBLOCK
 10
-16.2500
 20
22.7000
 30
0.0000
 11
-17.4500
 21
22.7000
 31
0.0000
  0
LINE
  6
continous
  8
BYBLOCK
 10
16.2500
 20
22.7000
 30
0.0000
 11
17.4500
 21
22.7000
 31
0.0000
  0
LINE
  6
continous
  8
BYBLOCK
 10
16.2500
 20
22.7000
 30
0.0000
 11
15.0500
 21
22.7000
 31
0.0000
  0
ARC
  6
continous
  8
BYBLOCK
 10
-16.2500
 20
22.7000
 30
0.0000
 40
3.9000
 50
180.0000
 51
360.0000
  0
ARC
  6
continous
  8
BYBLOCK
 10
-16.2500
 20
22.7000
 30
0.0000
 40
3.9000
 50
0.0000
 51
180.0000
  0
LINE
  6
continous
  8
BYBLOCK
 10
-21.4500
 20
20.5000
 30
0.0000
 11
-20.0605
 21
20.5000
 31
0.0000
  0
LINE
  6
continous
  8
BYBLOCK
 10
-21.4500
 20
24.9000
 30
0.0000
 11
-20.0605
 21
24.9000
 31
0.0000
  0
ARC
  6
continous
  8
BYBLOCK
 10
-16.2500
 20
22.7000
 30
0.0000
 40
4.4000
 50
360.0000
 51
150.0000
  0
LINE
  6
continous
  8
BYBLOCK
 10
4.3358
 20
28.4500
 30
0.0000
 11
4.0858
 21
28.7000
 31
0.0000
  0
LINE
  6
continous
  8
BYBLOCK
 10
-1.7343
 20
28.7000
 30
0.0000
 11
-4.0858
 21
28.7000
 31
0.0000
  0
LINE
  6
continous
  8
BYBLOCK
 10
4.0858
 20
28.7000
 30
0.0000
 11
1.7343
 21
28.7000
 31
0.0000
  0
LINE
  6
continous
  8
BYBLOCK
 10
-4.0858
 20
28.7000
 30
0.0000
 11
-4.3358
 21
28.4500
 31
0.0000
  0
ARC
  6
continous
  8
BYBLOCK
 10
-21.1500
 20
29.4000
 30
0.0000
 40
0.3000
 50
170.4059
 51
180.0000
  0
LINE
  6
continous
  8
BYBLOCK
 10
-21.4458
 20
29.4500
 30
0.0000
 11
-4.7500
 21
29.4500
 31
0.0000
  0
LINE
  6
continous
  8
BYBLOCK
 10
-4.7500
 20
29.4500
 30
0.0000
 11
-4.5000
 21
29.7000
 31
0.0000
  0
LINE
  6
continous
  8
BYBLOCK
 10
4.5000
 20
29.7000
 30
0.0000
 11
-4.5000
 21
29.7000
 31
0.0000
  0
LINE
  6
continous
  8
BYBLOCK
 10
21.4500
 20
28.4500
 30
0.0000
 11
4.3358
 21
28.4500
 31
0.0000
  0
ARC
  6
continous
  8
BYBLOCK
 10
16.2500
 20
22.7000
 30
0.0000
 40
3.9000
 50
180.0000
 51
360.0000
  0
ARC
  6
continous
  8
BYBLOCK
 10
16.2500
 20
22.7000
 30
0.0000
 40
3.9000
 50
0.0000
 51
180.0000
  0
ARC
  6
continous
  8
BYBLOCK
 10
16.2500
 20
22.7000
 30
0.0000
 40
4.4000
 50
30.0000
 51
180.0000
  0
LINE
  6
continous
  8
BYBLOCK
 10
21.4500
 20
24.9000
 30
0.0000
 11
20.0605
 21
24.9000
 31
0.0000
  0
LINE
  6
continous
  8
BYBLOCK
 10
21.4500
 20
20.5000
 30
0.0000
 11
20.0605
 21
20.5000
 31
0.0000
  0
LINE
  6
continous
  8
BYBLOCK
 10
19.2929
 20
5.3571
 30
0.0000
 11
21.4500
 21
7.5142
 31
0.0000
  0
LINE
  6
continous
  8
BYBLOCK
 10
20.0000
 20
4.6500
 30
0.0000
 11
21.4500
 21
6.1000
 31
0.0000
  0
LINE
  6
continous
  8
BYBLOCK
 10
8.8000
 20
4.6500
 30
0.0000
 11
20.0000
 21
4.6500
 31
0.0000
  0
LINE
  6
continous
  8
BYBLOCK
 10
8.8000
 20
6.4752
 30
0.0000
 11
8.8000
 21
6.5752
 31
0.0000
  0
ARC
  6
continous
  8
BYBLOCK
 10
9.2420
 20
8.8425
 30
0.0000
 40
2.3100
 50
193.0844
 51
258.9689
  0
LINE
  6
continous
  8
BYBLOCK
 10
6.9920
 20
8.3195
 30
0.0000
 11
5.9000
 21
8.9500
 31
0.0000
  0
LINE
  6
continous
  8
BYBLOCK
 10
8.8000
 20
19.9550
 30
0.0000
 11
8.8000
 21
20.0550
 31
0.0000
  0
LINE
  6
continous
  8
BYBLOCK
 10
8.8000
 20
20.0550
 30
0.0000
 11
8.3050
 21
20.5500
 31
0.0000
  0
LINE
  6
continous
  8
BYBLOCK
 10
8.3050
 20
20.5500
 30
0.0000
 11
-8.3050
 21
20.5500
 31
0.0000
  0
LINE
  6
continous
  8
BYBLOCK
 10
-8.3050
 20
20.5500
 30
0.0000
 11
-8.8000
 21
20.0550
 31
0.0000
  0
LINE
  6
continous
  8
BYBLOCK
 10
-8.8000
 20
20.0550
 30
0.0000
 11
-8.8000
 21
18.2248
 31
0.0000
  0
LINE
  6
continous
  8
BYBLOCK
 10
-5.9000
 20
15.7500
 30
0.0000
 11
-5.9000
 21
8.9500
 31
0.0000
  0
LINE
  6
continous
  8
BYBLOCK
 10
-5.9000
 20
8.9500
 30
0.0000
 11
-6.9920
 21
8.3195
 31
0.0000
  0
ARC
  6
continous
  8
BYBLOCK
 10
-9.2420
 20
8.8425
 30
0.0000
 40
2.3100
 50
281.0311
 51
346.9156
  0
LINE
  6
continous
  8
BYBLOCK
 10
-8.8000
 20
4.6500
 30
0.0000
 11
-8.8000
 21
6.5752
 31
0.0000
  0
LINE
  6
continous
  8
BYBLOCK
 10
-20.0000
 20
4.6500
 30
0.0000
 11
-8.8000
 21
4.6500
 31
0.0000
  0
LINE
  6
continous
  8
BYBLOCK
 10
-21.4500
 20
6.1000
 30
0.0000
 11
-20.0000
 21
4.6500
 31
0.0000
  0
LINE
  6
continous
  8
BYBLOCK
 10
-21.4500
 20
7.5142
 30
0.0000
 11
-19.2929
 21
5.3571
 31
0.0000
  0
LINE
  6
continous
  8
BYBLOCK
 10
-19.2929
 20
5.3571
 30
0.0000
 11
-9.3000
 21
5.3571
 31
0.0000
  0
LINE
  6
continous
  8
BYBLOCK
 10
-9.3000
 20
5.3571
 30
0.0000
 11
-9.3000
 21
7.0334
 31
0.0000
  0
ARC
  6
continous
  8
BYBLOCK
 10
-9.2420
 20
8.8425
 30
0.0000
 40
1.8100
 50
268.1637
 51
353.4499
  0
LINE
  6
continous
  8
BYBLOCK
 10
-7.4438
 20
8.6360
 30
0.0000
 11
-6.4000
 21
9.2387
 31
0.0000
  0
LINE
  6
continous
  8
BYBLOCK
 10
-6.4000
 20
9.2387
 30
0.0000
 11
-6.4000
 21
15.5613
 31
0.0000
  0
LINE
  6
continous
  8
BYBLOCK
 10
-6.4000
 20
15.5613
 30
0.0000
 11
-7.4438
 21
16.1640
 31
0.0000
  0
ARC
  6
continous
  8
BYBLOCK
 10
-9.2420
 20
15.9575
 30
0.0000
 40
1.8100
 50
6.5501
 51
91.8363
  0
LINE
  6
continous
  8
BYBLOCK
 10
-9.3000
 20
17.7666
 30
0.0000
 11
-9.3000
 21
20.2621
 31
0.0000
  0
LINE
  6
continous
  8
BYBLOCK
 10
-9.3000
 20
20.2621
 30
0.0000
 11
-8.5121
 21
21.0500
 31
0.0000
  0
LINE
  6
continous
  8
BYBLOCK
 10
-8.5121
 20
21.0500
 30
0.0000
 11
8.5121
 21
21.0500
 31
0.0000
  0
LINE
  6
continous
  8
BYBLOCK
 10
8.5121
 20
21.0500
 30
0.0000
 11
9.3000
 21
20.2621
 31
0.0000
  0
LINE
  6
continous
  8
BYBLOCK
 10
9.3000
 20
20.2621
 30
0.0000
 11
9.3000
 21
17.7666
 31
0.0000
  0
ARC
  6
continous
  8
BYBLOCK
 10
9.2420
 20
15.9575
 30
0.0000
 40
1.8100
 50
88.1637
 51
173.4499
  0
LINE
  6
continous
  8
BYBLOCK
 10
7.4438
 20
16.1640
 30
0.0000
 11
6.4000
 21
15.5613
 31
0.0000
  0
LINE
  6
continous
  8
BYBLOCK
 10
6.4000
 20
15.5613
 30
0.0000
 11
6.4000
 21
9.2387
 31
0.0000
  0
LINE
  6
continous
  8
BYBLOCK
 10
6.4000
 20
9.2387
 30
0.0000
 11
7.4438
 21
8.6360
 31
0.0000
  0
ARC
  6
continous
  8
BYBLOCK
 10
9.2420
 20
8.8425
 30
0.0000
 40
1.8100
 50
186.5501
 51
271.8363
  0
LINE
  6
continous
  8
BYBLOCK
 10
9.3000
 20
7.0334
 30
0.0000
 11
9.3000
 21
5.3571
 31
0.0000
  0
LINE
  6
continous
  8
BYBLOCK
 10
9.3000
 20
5.3571
 30
0.0000
 11
19.2929
 21
5.3571
 31
0.0000
  0
ARC
  6
continous
  8
BYBLOCK
 10
-16.2500
 20
22.7000
 30
0.0000
 40
1.2000
 50
0.0000
 51
180.0000
  0
ARC
  6
continous
  8
BYBLOCK
 10
-16.2500
 20
22.7000
 30
0.0000
 40
1.2000
 50
180.0000
 51
360.0000
  0
LINE
  6
continous
  8
BYBLOCK
 10
-13.3632
 20
22.7000
 30
0.0000
 11
-14.8066
 21
20.2000
 31
0.0000
  0
LINE
  6
continous
  8
BYBLOCK
 10
-14.8066
 20
20.2000
 30
0.0000
 11
-17.6934
 21
20.2000
 31
0.0000
  0
LINE
  6
continous
  8
BYBLOCK
 10
-17.6934
 20
20.2000
 30
0.0000
 11
-19.1368
 21
22.7000
 31
0.0000
  0
LINE
  6
continous
  8
BYBLOCK
 10
-19.1368
 20
22.7000
 30
0.0000
 11
-17.6934
 21
25.2000
 31
0.0000
  0
LINE
  6
continous
  8
BYBLOCK
 10
-17.6934
 20
25.2000
 30
0.0000
 11
-14.8066
 21
25.2000
 31
0.0000
  0
LINE
  6
continous
  8
BYBLOCK
 10
-14.8066
 20
25.2000
 30
0.0000
 11
-13.3632
 21
22.7000
 31
0.0000
  0
ARC
  6
continous
  8
BYBLOCK
 10
16.2500
 20
22.7000
 30
0.0000
 40
1.2000
 50
0.0000
 51
180.0000
  0
ARC
  6
continous
  8
BYBLOCK
 10
16.2500
 20
22.7000
 30
0.0000
 40
1.2000
 50
180.0000
 51
360.0000
  0
LINE
  6
continous
  8
BYBLOCK
 10
17.6934
 20
25.2000
 30
0.0000
 11
19.1368
 21
22.7000
 31
0.0000
  0
LINE
  6
continous
  8
BYBLOCK
 10
19.1368
 20
22.7000
 30
0.0000
 11
17.6934
 21
20.2000
 31
0.0000
  0
LINE
  6
continous
  8
BYBLOCK
 10
17.6934
 20
20.2000
 30
0.0000
 11
14.8066
 21
20.2000
 31
0.0000
  0
LINE
  6
continous
  8
BYBLOCK
 10
14.8066
 20
20.2000
 30
0.0000
 11
13.3632
 21
22.7000
 31
0.0000
  0
LINE
  6
continous
  8
BYBLOCK
 10
13.3632
 20
22.7000
 30
0.0000
 11
14.8066
 21
25.2000
 31
0.0000
  0
LINE
  6
continous
  8
BYBLOCK
 10
14.8066
 20
25.2000
 30
0.0000
 11
17.6934
 21
25.2000
 31
0.0000
  0
LINE
  6
continous
  8
BYBLOCK
 10
-21.4500
 20
28.4500
 30
0.0000
 11
-4.3358
 21
28.4500
 31
0.0000
  0
LINE
  6
continous
  8
BYBLOCK
 10
-21.4500
 20
24.9000
 30
0.0000
 11
-21.4500
 21
20.5000
 31
0.0000
  0
LINE
  6
continous
  8
BYBLOCK
 10
-21.4500
 20
20.5000
 30
0.0000
 11
-21.4500
 21
19.5000
 31
0.0000
  0
LINE
  6
continous
  8
BYBLOCK
 10
-21.4500
 20
7.5142
 30
0.0000
 11
-21.4500
 21
6.1000
 31
0.0000
  0
LINE
  6
continous
  8
BYBLOCK
 10
-21.4500
 20
29.4000
 30
0.0000
 11
-21.4500
 21
28.4500
 31
0.0000
  0
LINE
  6
continous
  8
BYBLOCK
 10
-21.4500
 20
28.3800
 30
0.0000
 11
-21.4500
 21
28.4500
 31
0.0000
  0
LINE
  6
continous
  8
BYBLOCK
 10
-21.4500
 20
28.3800
 30
0.0000
 11
-21.4500
 21
26.6500
 31
0.0000
  0
LINE
  6
continous
  8
BYBLOCK
 10
-21.4500
 20
24.9000
 30
0.0000
 11
-21.4500
 21
24.9583
 31
0.0000
  0
LINE
  6
continous
  8
BYBLOCK
 10
21.2500
 20
24.9000
 30
0.0000
 11
21.2500
 21
28.4500
 31
0.0000
  0
LINE
  6
continous
  8
BYBLOCK
 10
21.2500
 20
7.5142
 30
0.0000
 11
21.2500
 21
20.5000
 31
0.0000
  0
LINE
  6
continous
  8
BYBLOCK
 10
-21.2500
 20
7.5142
 30
0.0000
 11
-21.2500
 21
20.5000
 31
0.0000
  0
LINE
  6
continous
  8
BYBLOCK
 10
-21.2500
 20
24.9000
 30
0.0000
 11
-21.2500
 21
28.4500
 31
0.0000
  0
LINE
  6
continous
  8
BYBLOCK
 10
21.4500
 20
7.5142
 30
0.0000
 11
21.2500
 21
7.5142
 31
0.0000
  0
LINE
  6
continous
  8
BYBLOCK
 10
21.4500
 20
19.5000
 30
0.0000
 11
21.4500
 21
20.5000
 31
0.0000
  0
LINE
  6
continous
  8
BYBLOCK
 10
21.4500
 20
20.5000
 30
0.0000
 11
21.4500
 21
24.9000
 31
0.0000
  0
LINE
  6
continous
  8
BYBLOCK
 10
21.4500
 20
24.9583
 30
0.0000
 11
21.4500
 21
24.9000
 31
0.0000
  0
LINE
  6
continous
  8
BYBLOCK
 10
21.4500
 20
26.6500
 30
0.0000
 11
21.4500
 21
28.3800
 31
0.0000
  0
LINE
  6
continous
  8
BYBLOCK
 10
21.4500
 20
28.4500
 30
0.0000
 11
21.4500
 21
28.3800
 31
0.0000
  0
LINE
  6
continous
  8
BYBLOCK
 10
21.4500
 20
28.4500
 30
0.0000
 11
21.4500
 21
29.4000
 31
0.0000
  0
LINE
  6
continous
  8
BYBLOCK
 10
21.4500
 20
6.1000
 30
0.0000
 11
21.4500
 21
7.5142
 31
0.0000
  0
LINE
  6
continous
  8
BYBLOCK
 10
21.4500
 20
7.5142
 30
0.0000
 11
21.4500
 21
19.1053
 31
0.0000
  0
ARC
  6
continous
  8
BYBLOCK
 10
21.1500
 20
29.4000
 30
0.0000
 40
0.3000
 50
0.0000
 51
9.5941
  0
LINE
  6
continous
  8
BYBLOCK
 10
21.4458
 20
29.4500
 30
0.0000
 11
4.7500
 21
29.4500
 31
0.0000
  0
LINE
  6
continous
  8
BYBLOCK
 10
4.5000
 20
29.7000
 30
0.0000
 11
4.7500
 21
29.4500
 31
0.0000
  0
LINE
  6
continous
  8
BYBLOCK
 10
-21.4500
 20
26.6500
 30
0.0000
 11
-21.4500
 21
24.8999
 31
0.0000
  0
ARC
  6
continous
  8
BYBLOCK
 10
16.2500
 20
22.7000
 30
0.0000
 40
4.4000
 50
180.0000
 51
330.0000
  0
LINE
  6
continous
  8
BYBLOCK
 10
21.4500
 20
24.9583
 30
0.0000
 11
21.4500
 21
26.6500
 31
0.0000
  0
LINE
  6
continous
  8
BYBLOCK
 10
21.4500
 20
19.1053
 30
0.0000
 11
21.2500
 21
19.1053
 31
0.0000
  0
LINE
  6
continous
  8
BYBLOCK
 10
21.4500
 20
19.1053
 30
0.0000
 11
21.4500
 21
19.5000
 31
0.0000
  0
ARC
  6
continous
  8
BYBLOCK
 10
-16.2500
 20
22.7000
 30
0.0000
 40
4.4000
 50
210.0000
 51
360.0000
  0
LINE
  6
continous
  8
BYBLOCK
 10
-21.4500
 20
19.5000
 30
0.0000
 11
-21.4500
 21
19.1053
 31
0.0000
  0
LINE
  6
continous
  8
BYBLOCK
 10
-21.4500
 20
19.1053
 30
0.0000
 11
-21.2500
 21
19.1053
 31
0.0000
  0
LINE
  6
continous
  8
BYBLOCK
 10
-21.4500
 20
7.5142
 30
0.0000
 11
-21.2500
 21
7.5142
 31
0.0000
  0
LINE
  6
continous
  8
BYBLOCK
 10
-21.4500
 20
19.1053
 30
0.0000
 11
-21.4500
 21
7.5142
 31
0.0000
  0
LINE
  6
continous
  8
BYBLOCK
 10
-21.7000
 20
6.3500
 30
0.0000
 11
-20.0000
 21
4.6500
 31
0.0000
  0
LINE
  6
continous
  8
BYBLOCK
 10
-21.7000
 20
24.0000
 30
0.0000
 11
-21.7000
 21
6.3500
 31
0.0000
  0
LINE
  6
continous
  8
BYBLOCK
 10
-22.0000
 20
24.3000
 30
0.0000
 11
-21.7000
 21
24.0000
 31
0.0000
  0
LINE
  6
continous
  8
BYBLOCK
 10
-22.0000
 20
29.2000
 30
0.0000
 11
-22.0000
 21
24.3000
 31
0.0000
  0
LINE
  6
continous
  8
BYBLOCK
 10
-21.2000
 20
30.0000
 30
0.0000
 11
-22.0000
 21
29.2000
 31
0.0000
  0
LINE
  6
continous
  8
BYBLOCK
 10
21.2000
 20
30.0000
 30
0.0000
 11
-21.2000
 21
30.0000
 31
0.0000
  0
LINE
  6
continous
  8
BYBLOCK
 10
22.0000
 20
29.2000
 30
0.0000
 11
21.2000
 21
30.0000
 31
0.0000
  0
LINE
  6
continous
  8
BYBLOCK
 10
22.0000
 20
6.6500
 30
0.0000
 11
22.0000
 21
29.2000
 31
0.0000
  0
LINE
  6
continous
  8
BYBLOCK
 10
21.4500
 20
6.1000
 30
0.0000
 11
22.0000
 21
6.6500
 31
0.0000
  0
ENDBLK
  8
0
  0
BLOCK
  8
REX_7
  2
1REX_MID_Jul_26_19-25-07
 70
0
 10
0.0000
 20
0.0000
 30
0.0000
  3
1REX_MID_Jul_26_19-25-07
  0
ENDBLK
  8
0
  0
BLOCK
  8
REX_1
  2
_VIEW_1_Jul_26_19-25-07
 70
0
 10
0.0000
 20
0.0000
 30
0.0000
  3
_VIEW_1_Jul_26_19-25-07
  0
INSERT
  8
REX_6
  2
1REX_MID_Jul_26_19-25-07
 10
0.0000
 20
0.0000
 30
0.0000
  0
LINE
  6
continous
  8
BYBLOCK
 10
-37.5454
 20
25.3508
 30
0.0000
 11
-37.5000
 21
25.3492
 31
0.0000
  0
LINE
  6
continous
  8
BYBLOCK
 10
-37.3000
 20
27.9438
 30
0.0000
 11
-37.4546
 21
27.9492
 31
0.0000
  0
LINE
  6
continous
  8
BYBLOCK
 10
-37.5023
 20
26.5838
 30
0.0000
 11
-37.5850
 21
24.2158
 31
0.0000
  0
LINE
  6
continous
  8
BYBLOCK
 10
-37.4371
 20
28.4500
 30
0.0000
 11
-37.4843
 21
27.1000
 31
0.0000
  0
LINE
  6
continous
  8
BYBLOCK
 10
-37.5000
 20
26.7163
 30
0.0000
 11
-39.0967
 21
26.7720
 31
0.0000
  0
LINE
  6
continous
  8
BYBLOCK
 10
-37.5850
 20
24.2158
 30
0.0000
 11
-39.1840
 21
24.2716
 31
0.0000
  0
LINE
  6
continous
  8
BYBLOCK
 10
-37.5873
 20
24.1496
 30
0.0000
 11
-37.5850
 21
24.2158
 31
0.0000
  0
LINE
  6
continous
  8
BYBLOCK
 10
-37.5873
 20
24.1496
 30
0.0000
 11
-39.1863
 21
24.2054
 31
0.0000
  0
LINE
  6
continous
  8
BYBLOCK
 10
-37.5000
 20
29.0872
 30
0.0000
 11
-39.0140
 21
29.1401
 31
0.0000
  0
LINE
  6
continous
  8
BYBLOCK
 10
-39.0140
 20
29.1401
 30
0.0000
 11
-39.0117
 21
29.2063
 31
0.0000
  0
LINE
  6
continous
  8
BYBLOCK
 10
-39.0140
 20
29.1401
 30
0.0000
 11
-39.0967
 21
26.7720
 31
0.0000
  0
LINE
  6
continous
  8
BYBLOCK
 10
-39.0990
 20
26.7058
 30
0.0000
 11
-39.0967
 21
26.7720
 31
0.0000
  0
LINE
  6
continous
  8
BYBLOCK
 10
-39.1013
 20
26.6397
 30
0.0000
 11
-39.1840
 21
24.2716
 31
0.0000
  0
LINE
  6
continous
  8
BYBLOCK
 10
-39.1863
 20
24.2054
 30
0.0000
 11
-39.1840
 21
24.2716
 31
0.0000
  0
LINE
  6
continous
  8
BYBLOCK
 10
-37.5023
 20
26.5838
 30
0.0000
 11
-39.1013
 21
26.6397
 31
0.0000
  0
LINE
  6
continous
  8
BYBLOCK
 10
-39.1013
 20
26.6397
 30
0.0000
 11
-39.0990
 21
26.7058
 31
0.0000
  0
LINE
  6
continous
  8
BYBLOCK
 10
-37.5000
 20
26.6500
 30
0.0000
 11
-37.5023
 21
26.5838
 31
0.0000
  0
LINE
  6
continous
  8
BYBLOCK
 10
-37.5000
 20
29.1535
 30
0.0000
 11
-39.0117
 21
29.2063
 31
0.0000
  0
LINE
  6
continous
  8
BYBLOCK
 10
37.4567
 20
27.1000
 30
0.0000
 11
37.4567
 21
27.8500
 31
0.0000
  0
LINE
  6
continous
  8
BYBLOCK
 10
37.5000
 20
27.7750
 30
0.0000
 11
37.3000
 21
28.1214
 31
0.0000
  0
LINE
  6
continous
  8
BYBLOCK
 10
37.5000
 20
27.1000
 30
0.0000
 11
37.5000
 21
27.7750
 31
0.0000
  0
LINE
  6
continous
  8
BYBLOCK
 10
37.5000
 20
18.1248
 30
0.0000
 11
56.6340
 21
18.1248
 31
0.0000
  0
LINE
  6
continous
  8
BYBLOCK
 10
-57.5000
 20
18.1248
 30
0.0000
 11
-37.5000
 21
18.1248
 31
0.0000
  0
LINE
  6
continous
  8
BYBLOCK
 10
56.6340
 20
0.0000
 30
0.0000
 11
57.5000
 21
0.5000
 31
0.0000
  0
LINE
  6
continous
  8
BYBLOCK
 10
-57.5000
 20
0.0000
 30
0.0000
 11
56.6340
 21
0.0000
 31
0.0000
  0
LINE
  6
continous
  8
BYBLOCK
 10
56.6340
 20
1.2000
 30
0.0000
 11
56.6340
 21
0.0000
 31
0.0000
  0
LINE
  6
continous
  8
BYBLOCK
 10
-57.5000
 20
1.2000
 30
0.0000
 11
56.6340
 21
1.2000
 31
0.0000
  0
LINE
  6
continous
  8
BYBLOCK
 10
56.6340
 20
1.2000
 30
0.0000
 11
57.5000
 21
1.4071
 31
0.0000
  0
LINE
  6
continous
  8
BYBLOCK
 10
56.6340
 20
3.7072
 30
0.0000
 11
56.6340
 21
1.2000
 31
0.0000
  0
LINE
  6
continous
  8
BYBLOCK
 10
56.6340
 20
3.7072
 30
0.0000
 11
57.5000
 21
3.4185
 31
0.0000
  0
LINE
  6
continous
  8
BYBLOCK
 10
-57.5000
 20
3.7072
 30
0.0000
 11
56.6340
 21
3.7072
 31
0.0000
  0
LINE
  6
continous
  8
BYBLOCK
 10
56.6340
 20
4.4000
 30
0.0000
 11
56.6340
 21
3.7072
 31
0.0000
  0
LINE
  6
continous
  8
BYBLOCK
 10
-57.5000
 20
4.4000
 30
0.0000
 11
56.6340
 21
4.4000
 31
0.0000
  0
LINE
  6
continous
  8
BYBLOCK
 10
56.6340
 20
4.4000
 30
0.0000
 11
57.5000
 21
4.1113
 31
0.0000
  0
LINE
  6
continous
  8
BYBLOCK
 10
56.6340
 20
6.4752
 30
0.0000
 11
56.6340
 21
4.4000
 31
0.0000
  0
POLYLINE
  6
continous
  8
BYBLOCK
 70
0
 66
1
  0
VERTEX
  8
0
 10
56.6340
 20
6.4752
 30
0.0000
  0
VERTEX
  8
0
 10
57.5000
 20
6.0951
 30
0.0000
  0
SEQEND
  0
LINE
  6
continous
  8
BYBLOCK
 10
37.5000
 20
6.4752
 30
0.0000
 11
56.6340
 21
6.4752
 31
0.0000
  0
LINE
  6
continous
  8
BYBLOCK
 10
-57.5000
 20
6.4752
 30
0.0000
 11
-37.5000
 21
6.4752
 31
0.0000
  0
LINE
  6
continous
  8
BYBLOCK
 10
56.6340
 20
6.4752
 30
0.0000
 11
56.6340
 21
8.2195
 31
0.0000
  0
LINE
  6
continous
  8
BYBLOCK
 10
37.5000
 20
8.2195
 30
0.0000
 11
56.6340
 21
8.2195
 31
0.0000
  0
LINE
  6
continous
  8
BYBLOCK
 10
-57.5000
 20
8.2195
 30
0.0000
 11
-37.5000
 21
8.2195
 31
0.0000
  0
POLYLINE
  6
continous
  8
BYBLOCK
 70
0
 66
1
  0
VERTEX
  8
0
 10
56.6340
 20
8.2195
 30
0.0000
  0
VERTEX
  8
0
 10
57.5000
 20
7.8888
 30
0.0000
  0
SEQEND
  0
LINE
  6
continous
  8
BYBLOCK
 10
56.6340
 20
8.8500
 30
0.0000
 11
56.6340
 21
8.2195
 31
0.0000
  0
LINE
  6
continous
  8
BYBLOCK
 10
56.6340
 20
8.8500
 30
0.0000
 11
57.5000
 21
8.5613
 31
0.0000
  0
LINE
  6
continous
  8
BYBLOCK
 10
37.5000
 20
8.8500
 30
0.0000
 11
56.6340
 21
8.8500
 31
0.0000
  0
LINE
  6
continous
  8
BYBLOCK
 10
-57.5000
 20
8.8500
 30
0.0000
 11
-37.5000
 21
8.8500
 31
0.0000
  0
LINE
  6
continous
  8
BYBLOCK
 10
56.6340
 20
15.7500
 30
0.0000
 11
56.6340
 21
8.8500
 31
0.0000
  0
LINE
  6
continous
  8
BYBLOCK
 10
37.5000
 20
15.7500
 30
0.0000
 11
56.6340
 21
15.7500
 31
0.0000
  0
LINE
  6
continous
  8
BYBLOCK
 10
-57.5000
 20
15.7500
 30
0.0000
 11
-37.5000
 21
15.7500
 31
0.0000
  0
LINE
  6
continous
  8
BYBLOCK
 10
37.5000
 20
16.3805
 30
0.0000
 11
56.6340
 21
16.3805
 31
0.0000
  0
LINE
  6
continous
  8
BYBLOCK
 10
-57.5000
 20
16.3805
 30
0.0000
 11
-37.5000
 21
16.3805
 31
0.0000
  0
LINE
  6
continous
  8
BYBLOCK
 10
56.6340
 20
15.7500
 30
0.0000
 11
57.5000
 21
16.0387
 31
0.0000
  0
LINE
  6
continous
  8
BYBLOCK
 10
56.6340
 20
16.3805
 30
0.0000
 11
56.6340
 21
15.7500
 31
0.0000
  0
POLYLINE
  6
continous
  8
BYBLOCK
 70
0
 66
1
  0
VERTEX
  8
0
 10
56.6340
 20
16.3804
 30
0.0000
  0
VERTEX
  8
0
 10
57.5000
 20
16.7112
 30
0.0000
  0
SEQEND
  0
LINE
  6
continous
  8
BYBLOCK
 10
56.6340
 20
16.3805
 30
0.0000
 11
56.6340
 21
18.1248
 31
0.0000
  0
POLYLINE
  6
continous
  8
BYBLOCK
 70
0
 66
1
  0
VERTEX
  8
0
 10
56.6340
 20
18.1248
 30
0.0000
  0
VERTEX
  8
0
 10
57.5000
 20
18.5049
 30
0.0000
  0
SEQEND
  0
LINE
  6
continous
  8
BYBLOCK
 10
56.6340
 20
19.9550
 30
0.0000
 11
56.6340
 21
18.1248
 31
0.0000
  0
LINE
  6
continous
  8
BYBLOCK
 10
56.6340
 20
19.9550
 30
0.0000
 11
57.0626
 21
20.2025
 31
0.0000
  0
LINE
  6
continous
  8
BYBLOCK
 10
37.5000
 20
19.9550
 30
0.0000
 11
56.6340
 21
19.9550
 31
0.0000
  0
LINE
  6
continous
  8
BYBLOCK
 10
-57.5000
 20
19.9550
 30
0.0000
 11
-37.5000
 21
19.9550
 31
0.0000
  0
LINE
  6
continous
  8
BYBLOCK
 10
37.5000
 20
20.4500
 30
0.0000
 11
56.6340
 21
20.4500
 31
0.0000
  0
LINE
  6
continous
  8
BYBLOCK
 10
-57.5000
 20
20.4500
 30
0.0000
 11
-37.5000
 21
20.4500
 31
0.0000
  0
LINE
  6
continous
  8
BYBLOCK
 10
57.0626
 20
20.2025
 30
0.0000
 11
57.5000
 21
19.9500
 31
0.0000
  0
LINE
  6
continous
  8
BYBLOCK
 10
57.0626
 20
20.2025
 30
0.0000
 11
56.6340
 21
20.4500
 31
0.0000
  0
LINE
  6
continous
  8
BYBLOCK
 10
57.5000
 20
1.4071
 30
0.0000
 11
57.5000
 21
0.5000
 31
0.0000
  0
LINE
  6
continous
  8
BYBLOCK
 10
57.5000
 20
3.4185
 30
0.0000
 11
57.5000
 21
1.4071
 31
0.0000
  0
LINE
  6
continous
  8
BYBLOCK
 10
57.5000
 20
4.1113
 30
0.0000
 11
57.5000
 21
3.4185
 31
0.0000
  0
LINE
  6
continous
  8
BYBLOCK
 10
57.5000
 20
6.0951
 30
0.0000
 11
57.5000
 21
4.1113
 31
0.0000
  0
LINE
  6
continous
  8
BYBLOCK
 10
57.5000
 20
7.8888
 30
0.0000
 11
57.5000
 21
6.0951
 31
0.0000
  0
LINE
  6
continous
  8
BYBLOCK
 10
57.5000
 20
8.5613
 30
0.0000
 11
57.5000
 21
7.8888
 31
0.0000
  0
LINE
  6
continous
  8
BYBLOCK
 10
57.5000
 20
16.0387
 30
0.0000
 11
57.5000
 21
8.5613
 31
0.0000
  0
LINE
  6
continous
  8
BYBLOCK
 10
57.5000
 20
16.7112
 30
0.0000
 11
57.5000
 21
16.0387
 31
0.0000
  0
LINE
  6
continous
  8
BYBLOCK
 10
57.5000
 20
18.5049
 30
0.0000
 11
57.5000
 21
16.7112
 31
0.0000
  0
LINE
  6
continous
  8
BYBLOCK
 10
57.5000
 20
19.9500
 30
0.0000
 11
57.5000
 21
18.5049
 31
0.0000
  0
LINE
  6
continous
  8
BYBLOCK
 10
-57.5000
 20
20.4500
 30
0.0000
 11
-57.5000
 21
19.9550
 31
0.0000
  0
LINE
  6
continous
  8
BYBLOCK
 10
-57.5000
 20
19.9550
 30
0.0000
 11
-57.5000
 21
18.1248
 31
0.0000
  0
LINE
  6
continous
  8
BYBLOCK
 10
-57.5000
 20
18.1248
 30
0.0000
 11
-57.5000
 21
16.3805
 31
0.0000
  0
LINE
  6
continous
  8
BYBLOCK
 10
-57.5000
 20
16.3805
 30
0.0000
 11
-57.5000
 21
15.7500
 31
0.0000
  0
LINE
  6
continous
  8
BYBLOCK
 10
-57.5000
 20
15.7500
 30
0.0000
 11
-57.5000
 21
8.8500
 31
0.0000
  0
LINE
  6
continous
  8
BYBLOCK
 10
-57.5000
 20
8.8500
 30
0.0000
 11
-57.5000
 21
8.2195
 31
0.0000
  0
LINE
  6
continous
  8
BYBLOCK
 10
-57.5000
 20
8.2195
 30
0.0000
 11
-57.5000
 21
6.4752
 31
0.0000
  0
LINE
  6
continous
  8
BYBLOCK
 10
-57.5000
 20
6.4752
 30
0.0000
 11
-57.5000
 21
4.4000
 31
0.0000
  0
LINE
  6
continous
  8
BYBLOCK
 10
-57.5000
 20
4.4000
 30
0.0000
 11
-57.5000
 21
3.7072
 31
0.0000
  0
LINE
  6
continous
  8
BYBLOCK
 10
-57.5000
 20
3.7072
 30
0.0000
 11
-57.5000
 21
1.2000
 31
0.0000
  0
LINE
  6
continous
  8
BYBLOCK
 10
-57.5000
 20
1.2000
 30
0.0000
 11
-57.5000
 21
0.0000
 31
0.0000
  0
ARC
  6
continous
  8
BYBLOCK
 10
-31.8000
 20
26.6500
 30
0.0000
 40
1.2000
 50
0.0000
 51
180.0000
  0
ARC
  6
continous
  8
BYBLOCK
 10
-31.8000
 20
26.6500
 30
0.0000
 40
1.2000
 50
180.0000
 51
360.0000
  0
LINE
  6
continous
  8
BYBLOCK
 10
-31.3670
 20
25.9000
 30
0.0000
 11
-32.2330
 21
25.9000
 31
0.0000
  0
LINE
  6
continous
  8
BYBLOCK
 10
-31.3670
 20
25.9000
 30
0.0000
 11
-30.9340
 21
26.6500
 31
0.0000
  0
LINE
  6
continous
  8
BYBLOCK
 10
-30.9340
 20
26.6500
 30
0.0000
 11
-31.3670
 21
27.4000
 31
0.0000
  0
LINE
  6
continous
  8
BYBLOCK
 10
-32.2330
 20
27.4000
 30
0.0000
 11
-31.3670
 21
27.4000
 31
0.0000
  0
LINE
  6
continous
  8
BYBLOCK
 10
-32.2330
 20
27.4000
 30
0.0000
 11
-32.6660
 21
26.6500
 31
0.0000
  0
LINE
  6
continous
  8
BYBLOCK
 10
-32.6660
 20
26.6500
 30
0.0000
 11
-32.2330
 21
25.9000
 31
0.0000
  0
ARC
  6
continous
  8
BYBLOCK
 10
-31.8000
 20
26.6500
 30
0.0000
 40
1.1250
 50
-180.0000
 51
0.0000
  0
ARC
  6
continous
  8
BYBLOCK
 10
-31.8000
 20
26.6500
 30
0.0000
 40
1.1250
 50
0.0000
 51
180.0000
  0
LINE
  6
continous
  8
BYBLOCK
 10
-32.9250
 20
26.6500
 30
0.0000
 11
-33.3000
 21
26.6500
 31
0.0000
  0
LINE
  6
continous
  8
BYBLOCK
 10
-30.6750
 20
26.6500
 30
0.0000
 11
-30.3000
 21
26.6500
 31
0.0000
  0
ARC
  6
continous
  8
BYBLOCK
 10
-31.8000
 20
26.6500
 30
0.0000
 40
1.5000
 50
0.0000
 51
180.0000
  0
ARC
  6
continous
  8
BYBLOCK
 10
31.8000
 20
26.6500
 30
0.0000
 40
1.2000
 50
0.0000
 51
180.0000
  0
ARC
  6
continous
  8
BYBLOCK
 10
31.8000
 20
26.6500
 30
0.0000
 40
1.2000
 50
180.0000
 51
360.0000
  0
LINE
  6
continous
  8
BYBLOCK
 10
32.2330
 20
25.9000
 30
0.0000
 11
31.3670
 21
25.9000
 31
0.0000
  0
LINE
  6
continous
  8
BYBLOCK
 10
32.2330
 20
25.9000
 30
0.0000
 11
32.6660
 21
26.6500
 31
0.0000
  0
LINE
  6
continous
  8
BYBLOCK
 10
32.6660
 20
26.6500
 30
0.0000
 11
32.2330
 21
27.4000
 31
0.0000
  0
LINE
  6
continous
  8
BYBLOCK
 10
31.3670
 20
27.4000
 30
0.0000
 11
32.2330
 21
27.4000
 31
0.0000
  0
LINE
  6
continous
  8
BYBLOCK
 10
31.3670
 20
27.4000
 30
0.0000
 11
30.9340
 21
26.6500
 31
0.0000
  0
LINE
  6
continous
  8
BYBLOCK
 10
30.9340
 20
26.6500
 30
0.0000
 11
31.3670
 21
25.9000
 31
0.0000
  0
ARC
  6
continous
  8
BYBLOCK
 10
31.8000
 20
26.6500
 30
0.0000
 40
1.1250
 50
-180.0000
 51
0.0000
  0
ARC
  6
continous
  8
BYBLOCK
 10
31.8000
 20
26.6500
 30
0.0000
 40
1.1250
 50
0.0000
 51
180.0000
  0
LINE
  6
continous
  8
BYBLOCK
 10
30.6750
 20
26.6500
 30
0.0000
 11
30.3000
 21
26.6500
 31
0.0000
  0
LINE
  6
continous
  8
BYBLOCK
 10
32.9250
 20
26.6500
 30
0.0000
 11
33.3000
 21
26.6500
 31
0.0000
  0
ARC
  6
continous
  8
BYBLOCK
 10
31.8000
 20
26.6500
 30
0.0000
 40
1.5000
 50
0.0000
 51
180.0000
  0
LINE
  6
continous
  8
BYBLOCK
 10
-37.5000
 20
22.7000
 30
0.0000
 11
-37.5000
 21
22.7000
 31
0.0000
  0
LINE
  6
continous
  8
BYBLOCK
 10
-37.5000
 20
22.7000
 30
0.0000
 11
-37.5000
 21
22.7000
 31
0.0000
  0
LINE
  6
continous
  8
BYBLOCK
 10
-37.5000
 20
22.7000
 30
0.0000
 11
-37.5000
 21
22.7000
 31
0.0000
  0
LINE
  6
continous
  8
BYBLOCK
 10
-37.5000
 20
22.7000
 30
0.0000
 11
-37.5000
 21
22.7000
 31
0.0000
  0
LINE
  6
continous
  8
BYBLOCK
 10
-37.3000
 20
27.1000
 30
0.0000
 11
-37.5000
 21
27.1000
 31
0.0000
  0
LINE
  6
continous
  8
BYBLOCK
 10
-37.5000
 20
18.3000
 30
0.0000
 11
-37.3000
 21
18.3000
 31
0.0000
  0
ARC
  6
continous
  8
BYBLOCK
 10
-31.8000
 20
26.6500
 30
0.0000
 40
1.5000
 50
0.0000
 51
180.0000
  0
ARC
  6
continous
  8
BYBLOCK
 10
-31.8000
 20
26.6500
 30
0.0000
 40
1.5000
 50
-180.0000
 51
0.0000
  0
LINE
  6
continous
  8
BYBLOCK
 10
-24.8000
 20
4.6500
 30
0.0000
 11
-37.5000
 21
4.6500
 31
0.0000
  0
LINE
  6
continous
  8
BYBLOCK
 10
-37.5000
 20
17.7666
 30
0.0000
 11
-37.3000
 21
17.7666
 31
0.0000
  0
LINE
  6
continous
  8
BYBLOCK
 10
-37.5000
 20
16.1640
 30
0.0000
 11
-37.3000
 21
16.1640
 31
0.0000
  0
LINE
  6
continous
  8
BYBLOCK
 10
-37.5000
 20
15.5613
 30
0.0000
 11
-37.3000
 21
15.5613
 31
0.0000
  0
LINE
  6
continous
  8
BYBLOCK
 10
-37.5000
 20
9.2387
 30
0.0000
 11
-37.3000
 21
9.2387
 31
0.0000
  0
LINE
  6
continous
  8
BYBLOCK
 10
-37.5000
 20
8.6360
 30
0.0000
 11
-37.3000
 21
8.6360
 31
0.0000
  0
LINE
  6
continous
  8
BYBLOCK
 10
-37.5000
 20
24.9000
 30
0.0000
 11
-37.5000
 21
27.1000
 31
0.0000
  0
LINE
  6
continous
  8
BYBLOCK
 10
-37.5000
 20
4.6500
 30
0.0000
 11
-37.5000
 21
6.1000
 31
0.0000
  0
LINE
  6
continous
  8
BYBLOCK
 10
-37.5000
 20
21.0500
 30
0.0000
 11
-37.5000
 21
20.2621
 31
0.0000
  0
LINE
  6
continous
  8
BYBLOCK
 10
-37.5000
 20
20.2621
 30
0.0000
 11
-37.5000
 21
17.7666
 31
0.0000
  0
LINE
  6
continous
  8
BYBLOCK
 10
-37.5000
 20
17.7675
 30
0.0000
 11
-37.5000
 21
16.1640
 31
0.0000
  0
LINE
  6
continous
  8
BYBLOCK
 10
-37.5000
 20
16.1640
 30
0.0000
 11
-37.5000
 21
15.5613
 31
0.0000
  0
LINE
  6
continous
  8
BYBLOCK
 10
-37.5000
 20
15.5613
 30
0.0000
 11
-37.5000
 21
9.2387
 31
0.0000
  0
LINE
  6
continous
  8
BYBLOCK
 10
-37.5000
 20
9.2387
 30
0.0000
 11
-37.5000
 21
8.6360
 31
0.0000
  0
LINE
  6
continous
  8
BYBLOCK
 10
-37.5000
 20
8.6360
 30
0.0000
 11
-37.5000
 21
7.4725
 31
0.0000
  0
LINE
  6
continous
  8
BYBLOCK
 10
-37.5000
 20
25.2000
 30
0.0000
 11
-37.5000
 21
22.7000
 31
0.0000
  0
LINE
  6
continous
  8
BYBLOCK
 10
-37.5000
 20
22.7000
 30
0.0000
 11
-37.5000
 21
20.2000
 31
0.0000
  0
LINE
  6
continous
  8
BYBLOCK
 10
-37.3000
 20
24.9000
 30
0.0000
 11
-37.3000
 21
28.4500
 31
0.0000
  0
LINE
  6
continous
  8
BYBLOCK
 10
-37.3000
 20
7.5142
 30
0.0000
 11
-37.3000
 21
20.5000
 31
0.0000
  0
ARC
  6
continous
  8
BYBLOCK
 10
-33.2392
 20
19.5000
 30
0.0000
 40
1.0000
 50
360.0000
 51
90.0000
  0
LINE
  6
continous
  8
BYBLOCK
 10
-37.5000
 20
20.5000
 30
0.0000
 11
-33.2392
 21
20.5000
 31
0.0000
  0
LINE
  6
continous
  8
BYBLOCK
 10
-37.5000
 20
20.5000
 30
0.0000
 11
-37.5000
 21
24.9000
 31
0.0000
  0
LINE
  6
continous
  8
BYBLOCK
 10
-37.5000
 20
24.9000
 30
0.0000
 11
-37.3000
 21
24.9000
 31
0.0000
  0
ARC
  6
continous
  8
BYBLOCK
 10
-36.2220
 20
14.9583
 30
0.0000
 40
10.0000
 50
69.2828
 51
96.1888
  0
ARC
  6
continous
  8
BYBLOCK
 10
-31.8000
 20
26.6500
 30
0.0000
 40
2.5000
 50
360.0000
 51
110.2148
  0
ARC
  6
continous
  8
BYBLOCK
 10
-36.1193
 20
38.3800
 30
0.0000
 40
10.0000
 50
263.2190
 51
290.2148
  0
LINE
  6
continous
  8
BYBLOCK
 10
-37.5000
 20
28.4500
 30
0.0000
 11
-37.3000
 21
28.4500
 31
0.0000
  0
LINE
  6
continous
  8
BYBLOCK
 10
-37.5000
 20
28.4500
 30
0.0000
 11
-37.5000
 21
29.4000
 31
0.0000
  0
LINE
  6
continous
  8
BYBLOCK
 10
-24.8000
 20
6.1000
 30
0.0000
 11
-37.5000
 21
6.1000
 31
0.0000
  0
LINE
  6
continous
  8
BYBLOCK
 10
-37.5000
 20
6.1000
 30
0.0000
 11
-37.5000
 21
7.5142
 31
0.0000
  0
LINE
  6
continous
  8
BYBLOCK
 10
-37.5000
 20
7.5142
 30
0.0000
 11
-37.3000
 21
7.5142
 31
0.0000
  0
LINE
  6
continous
  8
BYBLOCK
 10
-37.3000
 20
7.5142
 30
0.0000
 11
-32.3204
 21
19.1053
 31
0.0000
  0
LINE
  6
continous
  8
BYBLOCK
 10
-37.5000
 20
29.4000
 30
0.0000
 11
-24.8000
 21
29.4000
 31
0.0000
  0
LINE
  6
continous
  8
BYBLOCK
 10
-37.5000
 20
29.4000
 30
0.0000
 11
-37.5000
 21
29.4500
 31
0.0000
  0
LINE
  6
continous
  8
BYBLOCK
 10
-37.5000
 20
29.4500
 30
0.0000
 11
-24.8000
 21
29.4500
 31
0.0000
  0
LINE
  6
continous
  8
BYBLOCK
 10
-37.5000
 20
29.7000
 30
0.0000
 11
-37.5000
 21
29.4500
 31
0.0000
  0
LINE
  6
continous
  8
BYBLOCK
 10
-24.8000
 20
29.7000
 30
0.0000
 11
-37.5000
 21
29.7000
 31
0.0000
  0
LINE
  6
continous
  8
BYBLOCK
 10
-24.8000
 20
4.6500
 30
0.0000
 11
-24.8000
 21
6.1000
 31
0.0000
  0
LINE
  6
continous
  8
BYBLOCK
 10
-24.8000
 20
6.1000
 30
0.0000
 11
-24.8000
 21
29.4000
 31
0.0000
  0
LINE
  6
continous
  8
BYBLOCK
 10
-24.8000
 20
29.4500
 30
0.0000
 11
-24.8000
 21
29.4000
 31
0.0000
  0
LINE
  6
continous
  8
BYBLOCK
 10
-24.8000
 20
29.7000
 30
0.0000
 11
-24.8000
 21
29.4500
 31
0.0000
  0
LINE
  6
continous
  8
BYBLOCK
 10
-37.5000
 20
18.3000
 30
0.0000
 11
-37.5000
 21
20.5000
 31
0.0000
  0
ARC
  6
continous
  8
BYBLOCK
 10
-31.8000
 20
26.6500
 30
0.0000
 40
2.5000
 50
249.2828
 51
360.0000
  0
ARC
  6
continous
  8
BYBLOCK
 10
-33.2392
 20
19.5000
 30
0.0000
 40
1.0000
 50
336.7511
 51
360.0000
  0
LINE
  6
continous
  8
BYBLOCK
 10
37.5000
 20
27.1000
 30
0.0000
 11
37.3000
 21
27.1000
 31
0.0000
  0
LINE
  6
continous
  8
BYBLOCK
 10
37.3000
 20
18.3000
 30
0.0000
 11
37.5000
 21
18.3000
 31
0.0000
  0
LINE
  6
continous
  8
BYBLOCK
 10
24.8000
 20
29.7000
 30
0.0000
 11
37.5000
 21
29.7000
 31
0.0000
  0
LINE
  6
continous
  8
BYBLOCK
 10
37.5000
 20
29.4500
 30
0.0000
 11
24.8000
 21
29.4500
 31
0.0000
  0
LINE
  6
continous
  8
BYBLOCK
 10
24.8000
 20
4.6500
 30
0.0000
 11
37.5000
 21
4.6500
 31
0.0000
  0
LINE
  6
continous
  8
BYBLOCK
 10
37.5000
 20
8.6360
 30
0.0000
 11
37.3000
 21
8.6360
 31
0.0000
  0
LINE
  6
continous
  8
BYBLOCK
 10
37.5000
 20
9.2387
 30
0.0000
 11
37.3000
 21
9.2387
 31
0.0000
  0
LINE
  6
continous
  8
BYBLOCK
 10
37.5000
 20
15.5613
 30
0.0000
 11
37.3000
 21
15.5613
 31
0.0000
  0
LINE
  6
continous
  8
BYBLOCK
 10
37.5000
 20
16.1640
 30
0.0000
 11
37.3000
 21
16.1640
 31
0.0000
  0
LINE
  6
continous
  8
BYBLOCK
 10
37.5000
 20
17.7666
 30
0.0000
 11
37.3000
 21
17.7666
 31
0.0000
  0
LINE
  6
continous
  8
BYBLOCK
 10
37.5000
 20
27.1000
 30
0.0000
 11
37.5000
 21
24.9000
 31
0.0000
  0
LINE
  6
continous
  8
BYBLOCK
 10
37.5000
 20
29.4500
 30
0.0000
 11
37.5000
 21
29.4000
 31
0.0000
  0
LINE
  6
continous
  8
BYBLOCK
 10
37.5000
 20
29.4500
 30
0.0000
 11
37.5000
 21
29.7000
 31
0.0000
  0
LINE
  6
continous
  8
BYBLOCK
 10
37.5000
 20
6.1000
 30
0.0000
 11
37.5000
 21
4.6500
 31
0.0000
  0
LINE
  6
continous
  8
BYBLOCK
 10
37.5000
 20
7.5142
 30
0.0000
 11
37.5000
 21
8.6360
 31
0.0000
  0
LINE
  6
continous
  8
BYBLOCK
 10
37.5000
 20
8.6360
 30
0.0000
 11
37.5000
 21
9.2387
 31
0.0000
  0
LINE
  6
continous
  8
BYBLOCK
 10
37.5000
 20
9.2387
 30
0.0000
 11
37.5000
 21
15.5613
 31
0.0000
  0
LINE
  6
continous
  8
BYBLOCK
 10
37.5000
 20
15.5613
 30
0.0000
 11
37.5000
 21
16.1640
 31
0.0000
  0
LINE
  6
continous
  8
BYBLOCK
 10
37.5000
 20
16.1640
 30
0.0000
 11
37.5000
 21
17.7666
 31
0.0000
  0
LINE
  6
continous
  8
BYBLOCK
 10
37.5000
 20
17.7666
 30
0.0000
 11
37.5000
 21
18.3000
 31
0.0000
  0
LINE
  6
continous
  8
BYBLOCK
 10
37.5000
 20
24.9000
 30
0.0000
 11
37.3000
 21
24.9000
 31
0.0000
  0
LINE
  6
continous
  8
BYBLOCK
 10
37.5000
 20
24.9000
 30
0.0000
 11
37.5000
 21
20.5000
 31
0.0000
  0
LINE
  6
continous
  8
BYBLOCK
 10
33.2392
 20
20.5000
 30
0.0000
 11
37.5000
 21
20.5000
 31
0.0000
  0
ARC
  6
continous
  8
BYBLOCK
 10
33.2392
 20
19.5000
 30
0.0000
 40
1.0000
 50
90.0000
 51
180.0000
  0
LINE
  6
continous
  8
BYBLOCK
 10
37.5000
 20
7.5142
 30
0.0000
 11
37.3000
 21
7.5142
 31
0.0000
  0
LINE
  6
continous
  8
BYBLOCK
 10
37.5000
 20
7.5142
 30
0.0000
 11
37.5000
 21
6.1000
 31
0.0000
  0
LINE
  6
continous
  8
BYBLOCK
 10
24.8000
 20
6.1000
 30
0.0000
 11
37.5000
 21
6.1000
 31
0.0000
  0
LINE
  6
continous
  8
BYBLOCK
 10
37.5000
 20
29.4000
 30
0.0000
 11
24.8000
 21
29.4000
 31
0.0000
  0
LINE
  6
continous
  8
BYBLOCK
 10
37.5000
 20
29.4000
 30
0.0000
 11
37.5000
 21
28.4500
 31
0.0000
  0
LINE
  6
continous
  8
BYBLOCK
 10
37.5000
 20
28.4500
 30
0.0000
 11
37.3000
 21
28.4500
 31
0.0000
  0
ARC
  6
continous
  8
BYBLOCK
 10
36.1193
 20
38.3800
 30
0.0000
 40
10.0000
 50
249.7852
 51
276.7810
  0
ARC
  6
continous
  8
BYBLOCK
 10
31.8000
 20
26.6500
 30
0.0000
 40
2.5000
 50
69.7852
 51
180.0000
  0
ARC
  6
continous
  8
BYBLOCK
 10
36.2220
 20
14.9583
 30
0.0000
 40
10.0000
 50
83.8112
 51
110.7172
  0
ARC
  6
continous
  8
BYBLOCK
 10
31.8000
 20
26.6500
 30
0.0000
 40
1.5000
 50
0.0000
 51
180.0000
  0
ARC
  6
continous
  8
BYBLOCK
 10
31.8000
 20
26.6500
 30
0.0000
 40
1.5000
 50
180.0000
 51
360.0000
  0
LINE
  6
continous
  8
BYBLOCK
 10
37.3000
 20
7.5142
 30
0.0000
 11
37.3000
 21
20.5000
 31
0.0000
  0
LINE
  6
continous
  8
BYBLOCK
 10
37.3000
 20
24.9000
 30
0.0000
 11
37.3000
 21
28.4500
 31
0.0000
  0
LINE
  6
continous
  8
BYBLOCK
 10
24.8000
 20
6.1000
 30
0.0000
 11
24.8000
 21
4.6500
 31
0.0000
  0
ARC
  6
continous
  8
BYBLOCK
 10
31.8000
 20
26.6500
 30
0.0000
 40
2.5000
 50
180.0000
 51
290.7172
  0
LINE
  6
continous
  8
BYBLOCK
 10
37.5000
 20
20.5000
 30
0.0000
 11
37.5000
 21
18.3000
 31
0.0000
  0
ARC
  6
continous
  8
BYBLOCK
 10
33.2392
 20
19.5000
 30
0.0000
 40
1.0000
 50
180.0000
 51
203.2489
  0
LINE
  6
continous
  8
BYBLOCK
 10
32.3204
 20
19.1053
 30
0.0000
 11
37.3000
 21
7.5142
 31
0.0000
  0
LINE
  6
continous
  8
BYBLOCK
 10
24.8000
 20
6.6500
 30
0.0000
 11
-24.8000
 21
6.6500
 31
0.0000
  0
LINE
  6
continous
  8
BYBLOCK
 10
24.8000
 20
29.2000
 30
0.0000
 11
-24.8000
 21
29.2000
 31
0.0000
  0
LINE
  6
continous
  8
BYBLOCK
 10
24.8000
 20
30.0000
 30
0.0000
 11
-24.8000
 21
30.0000
 31
0.0000
  0
LINE
  6
continous
  8
BYBLOCK
 10
-24.8000
 20
29.2000
 30
0.0000
 11
-24.8000
 21
30.0000
 31
0.0000
  0
LINE
  6
continous
  8
BYBLOCK
 10
-24.8000
 20
6.6500
 30
0.0000
 11
-24.8000
 21
29.2000
 31
0.0000
  0
LINE
  6
continous
  8
BYBLOCK
 10
-24.8000
 20
4.6500
 30
0.0000
 11
-24.8000
 21
6.6500
 31
0.0000
  0
LINE
  6
continous
  8
BYBLOCK
 10
24.8000
 20
4.6500
 30
0.0000
 11
-24.8000
 21
4.6500
 31
0.0000
  0
LINE
  6
continous
  8
BYBLOCK
 10
24.8000
 20
4.6500
 30
0.0000
 11
24.8000
 21
6.6500
 31
0.0000
  0
LINE
  6
continous
  8
BYBLOCK
 10
24.8000
 20
6.6500
 30
0.0000
 11
24.8000
 21
29.2000
 31
0.0000
  0
LINE
  6
continous
  8
BYBLOCK
 10
24.8000
 20
29.2000
 30
0.0000
 11
24.8000
 21
30.0000
 31
0.0000
  0
ENDBLK
  8
0
  0
BLOCK
  8
REX_7
  2
5REX_MID_Jul_26_19-25-07
 70
0
 10
0.0000
 20
0.0000
 30
0.0000
  3
5REX_MID_Jul_26_19-25-07
  0
ENDBLK
  8
0
  0
BLOCK
  8
REX_1
  2
_VIEW_5_Jul_26_19-25-07
 70
0
 10
0.0000
 20
0.0000
 30
0.0000
  3
_VIEW_5_Jul_26_19-25-07
  0
INSERT
  8
REX_6
  2
5REX_MID_Jul_26_19-25-07
 10
0.0000
 20
0.0000
 30
0.0000
  0
ARC
  6
continous
  8
BYBLOCK
 10
0.0000
 20
26.6500
 30
0.0000
 40
1.2000
 50
0.0000
 51
180.0000
  0
ARC
  6
continous
  8
BYBLOCK
 10
0.0000
 20
26.6500
 30
0.0000
 40
1.2000
 50
180.0000
 51
360.0000
  0
LINE
  6
continous
  8
BYBLOCK
 10
0.4330
 20
25.9000
 30
0.0000
 11
-0.4330
 21
25.9000
 31
0.0000
  0
LINE
  6
continous
  8
BYBLOCK
 10
0.4330
 20
25.9000
 30
0.0000
 11
0.8660
 21
26.6500
 31
0.0000
  0
LINE
  6
continous
  8
BYBLOCK
 10
0.8660
 20
26.6500
 30
0.0000
 11
0.4330
 21
27.4000
 31
0.0000
  0
LINE
  6
continous
  8
BYBLOCK
 10
-0.4330
 20
27.4000
 30
0.0000
 11
0.4330
 21
27.4000
 31
0.0000
  0
LINE
  6
continous
  8
BYBLOCK
 10
-0.4330
 20
27.4000
 30
0.0000
 11
-0.8660
 21
26.6500
 31
0.0000
  0
LINE
  6
continous
  8
BYBLOCK
 10
-0.8660
 20
26.6500
 30
0.0000
 11
-0.4330
 21
25.9000
 31
0.0000
  0
ARC
  6
continous
  8
BYBLOCK
 10
0.0000
 20
26.6500
 30
0.0000
 40
1.1250
 50
-180.0000
 51
0.0000
  0
ARC
  6
continous
  8
BYBLOCK
 10
0.0000
 20
26.6500
 30
0.0000
 40
1.1250
 50
0.0000
 51
180.0000
  0
LINE
  6
continous
  8
BYBLOCK
 10
-1.1250
 20
26.6500
 30
0.0000
 11
-1.5000
 21
26.6500
 31
0.0000
  0
LINE
  6
continous
  8
BYBLOCK
 10
1.1250
 20
26.6500
 30
0.0000
 11
1.5000
 21
26.6500
 31
0.0000
  0
ARC
  6
continous
  8
BYBLOCK
 10
0.0000
 20
26.6500
 30
0.0000
 40
1.5000
 50
0.0000
 51
180.0000
  0
ARC
  6
continous
  8
BYBLOCK
 10
9.2420
 20
15.8575
 30
0.0000
 40
2.3100
 50
101.0312
 51
166.9156
  0
POLYLINE
  6
continous
  8
BYBLOCK
 70
0
 66
1
  0
VERTEX
  8
0
 10
8.8000
 20
18.1248
 30
0.0000
  0
VERTEX
  8
0
 10
8.3000
 20
18.5049
 30
0.0000
  0
SEQEND
  0
LINE
  6
continous
  8
BYBLOCK
 10
8.8000
 20
18.1248
 30
0.0000
 11
8.8000
 21
19.9550
 31
0.0000
  0
LINE
  6
continous
  8
BYBLOCK
 10
8.5525
 20
20.2025
 30
0.0000
 11
8.8000
 21
19.9550
 31
0.0000
  0
ARC
  6
continous
  8
BYBLOCK
 10
9.2420
 20
8.7425
 30
0.0000
 40
2.3100
 50
193.0844
 51
258.9689
  0
POLYLINE
  6
continous
  8
BYBLOCK
 70
0
 66
1
  0
VERTEX
  8
0
 10
8.8000
 20
6.4752
 30
0.0000
  0
VERTEX
  8
0
 10
8.3000
 20
6.0951
 30
0.0000
  0
SEQEND
  0
LINE
  6
continous
  8
BYBLOCK
 10
8.8000
 20
4.4000
 30
0.0000
 11
8.8000
 21
6.4752
 31
0.0000
  0
LINE
  6
continous
  8
BYBLOCK
 10
8.8000
 20
4.4000
 30
0.0000
 11
8.3000
 21
4.1113
 31
0.0000
  0
LINE
  6
continous
  8
BYBLOCK
 10
10.0000
 20
3.7072
 30
0.0000
 11
8.8000
 21
4.4000
 31
0.0000
  0
LINE
  6
continous
  8
BYBLOCK
 10
10.0000
 20
3.7072
 30
0.0000
 11
9.5000
 21
3.4185
 31
0.0000
  0
LINE
  6
continous
  8
BYBLOCK
 10
10.0000
 20
1.2000
 30
0.0000
 11
10.0000
 21
3.7072
 31
0.0000
  0
LINE
  6
continous
  8
BYBLOCK
 10
10.0000
 20
1.2000
 30
0.0000
 11
9.5000
 21
1.4071
 31
0.0000
  0
LINE
  6
continous
  8
BYBLOCK
 10
8.8000
 20
0.0000
 30
0.0000
 11
10.0000
 21
1.2000
 31
0.0000
  0
LINE
  6
continous
  8
BYBLOCK
 10
8.8000
 20
0.0000
 30
0.0000
 11
8.5929
 21
0.5000
 31
0.0000
  0
LINE
  6
continous
  8
BYBLOCK
 10
-8.8000
 20
0.0000
 30
0.0000
 11
8.8000
 21
0.0000
 31
0.0000
  0
LINE
  6
continous
  8
BYBLOCK
 10
-8.8000
 20
0.0000
 30
0.0000
 11
-8.5929
 21
0.5000
 31
0.0000
  0
LINE
  6
continous
  8
BYBLOCK
 10
-10.0000
 20
1.2000
 30
0.0000
 11
-8.8000
 21
0.0000
 31
0.0000
  0
LINE
  6
continous
  8
BYBLOCK
 10
-10.0000
 20
1.2000
 30
0.0000
 11
-9.5000
 21
1.4071
 31
0.0000
  0
LINE
  6
continous
  8
BYBLOCK
 10
-10.0000
 20
3.7072
 30
0.0000
 11
-10.0000
 21
1.2000
 31
0.0000
  0
LINE
  6
continous
  8
BYBLOCK
 10
-10.0000
 20
3.7072
 30
0.0000
 11
-9.5000
 21
3.4185
 31
0.0000
  0
LINE
  6
continous
  8
BYBLOCK
 10
-8.8000
 20
4.4000
 30
0.0000
 11
-10.0000
 21
3.7072
 31
0.0000
  0
LINE
  6
continous
  8
BYBLOCK
 10
-8.8000
 20
4.4000
 30
0.0000
 11
-8.3000
 21
4.1113
 31
0.0000
  0
LINE
  6
continous
  8
BYBLOCK
 10
-8.8000
 20
6.4752
 30
0.0000
 11
-8.8000
 21
4.4000
 31
0.0000
  0
POLYLINE
  6
continous
  8
BYBLOCK
 70
0
 66
1
  0
VERTEX
  8
0
 10
-8.8000
 20
6.4752
 30
0.0000
  0
VERTEX
  8
0
 10
-8.3000
 20
6.0951
 30
0.0000
  0
SEQEND
  0
ARC
  6
continous
  8
BYBLOCK
 10
-9.2420
 20
8.7425
 30
0.0000
 40
2.3100
 50
281.0312
 51
346.9156
  0
POLYLINE
  6
continous
  8
BYBLOCK
 70
0
 66
1
  0
VERTEX
  8
0
 10
-6.9920
 20
8.2195
 30
0.0000
  0
VERTEX
  8
0
 10
-6.5648
 20
7.8888
 30
0.0000
  0
SEQEND
  0
LINE
  6
continous
  8
BYBLOCK
 10
-5.9000
 20
8.8500
 30
0.0000
 11
-6.9920
 21
8.2195
 31
0.0000
  0
LINE
  6
continous
  8
BYBLOCK
 10
-5.9000
 20
8.8500
 30
0.0000
 11
-5.4000
 21
8.5613
 31
0.0000
  0
LINE
  6
continous
  8
BYBLOCK
 10
-5.9000
 20
15.7500
 30
0.0000
 11
-5.9000
 21
8.8500
 31
0.0000
  0
LINE
  6
continous
  8
BYBLOCK
 10
-5.9000
 20
15.7500
 30
0.0000
 11
-5.4000
 21
16.0387
 31
0.0000
  0
LINE
  6
continous
  8
BYBLOCK
 10
-6.9920
 20
16.3805
 30
0.0000
 11
-5.9000
 21
15.7500
 31
0.0000
  0
POLYLINE
  6
continous
  8
BYBLOCK
 70
0
 66
1
  0
VERTEX
  8
0
 10
-6.9920
 20
16.3804
 30
0.0000
  0
VERTEX
  8
0
 10
-6.5648
 20
16.7112
 30
0.0000
  0
SEQEND
  0
ARC
  6
continous
  8
BYBLOCK
 10
-9.2420
 20
15.8575
 30
0.0000
 40
2.3100
 50
13.0844
 51
78.9689
  0
POLYLINE
  6
continous
  8
BYBLOCK
 70
0
 66
1
  0
VERTEX
  8
0
 10
-8.8000
 20
18.1248
 30
0.0000
  0
VERTEX
  8
0
 10
-8.3000
 20
18.5049
 30
0.0000
  0
SEQEND
  0
LINE
  6
continous
  8
BYBLOCK
 10
-8.8000
 20
19.9550
 30
0.0000
 11
-8.8000
 21
18.1248
 31
0.0000
  0
LINE
  6
continous
  8
BYBLOCK
 10
-8.8000
 20
19.9550
 30
0.0000
 11
-8.5525
 21
20.2025
 31
0.0000
  0
LINE
  6
continous
  8
BYBLOCK
 10
8.3050
 20
20.4500
 30
0.0000
 11
-8.3050
 21
20.4500
 31
0.0000
  0
LINE
  6
continous
  8
BYBLOCK
 10
8.3050
 20
20.4500
 30
0.0000
 11
8.5525
 21
20.2025
 31
0.0000
  0
LINE
  6
continous
  8
BYBLOCK
 10
8.5525
 20
20.2025
 30
0.0000
 11
8.3000
 21
19.9500
 31
0.0000
  0
LINE
  6
continous
  8
BYBLOCK
 10
-8.5525
 20
20.2025
 30
0.0000
 11
-8.3000
 21
19.9500
 31
0.0000
  0
LINE
  6
continous
  8
BYBLOCK
 10
-8.5525
 20
20.2025
 30
0.0000
 11
-8.3050
 21
20.4500
 31
0.0000
  0
LINE
  6
continous
  8
BYBLOCK
 10
8.3000
 20
18.5049
 30
0.0000
 11
8.3000
 21
19.9500
 31
0.0000
  0
ARC
  6
continous
  8
BYBLOCK
 10
9.2420
 20
15.8575
 30
0.0000
 40
2.8100
 50
109.5866
 51
162.3140
  0
ARC
  6
continous
  8
BYBLOCK
 10
9.2420
 20
8.7425
 30
0.0000
 40
2.8100
 50
197.6861
 51
250.4134
  0
LINE
  6
continous
  8
BYBLOCK
 10
8.3000
 20
4.1113
 30
0.0000
 11
8.3000
 21
6.0951
 31
0.0000
  0
LINE
  6
continous
  8
BYBLOCK
 10
9.5000
 20
3.4185
 30
0.0000
 11
8.3000
 21
4.1113
 31
0.0000
  0
LINE
  6
continous
  8
BYBLOCK
 10
9.5000
 20
1.4071
 30
0.0000
 11
9.5000
 21
3.4185
 31
0.0000
  0
LINE
  6
continous
  8
BYBLOCK
 10
8.5929
 20
0.5000
 30
0.0000
 11
9.5000
 21
1.4071
 31
0.0000
  0
LINE
  6
continous
  8
BYBLOCK
 10
-8.5929
 20
0.5000
 30
0.0000
 11
8.5929
 21
0.5000
 31
0.0000
  0
LINE
  6
continous
  8
BYBLOCK
 10
-9.5000
 20
1.4071
 30
0.0000
 11
-8.5929
 21
0.5000
 31
0.0000
  0
LINE
  6
continous
  8
BYBLOCK
 10
-9.5000
 20
3.4185
 30
0.0000
 11
-9.5000
 21
1.4071
 31
0.0000
  0
LINE
  6
continous
  8
BYBLOCK
 10
-8.3000
 20
4.1113
 30
0.0000
 11
-9.5000
 21
3.4185
 31
0.0000
  0
LINE
  6
continous
  8
BYBLOCK
 10
-8.3000
 20
6.0951
 30
0.0000
 11
-8.3000
 21
4.1113
 31
0.0000
  0
ARC
  6
continous
  8
BYBLOCK
 10
-9.2420
 20
8.7425
 30
0.0000
 40
2.8100
 50
289.5866
 51
342.3140
  0
LINE
  6
continous
  8
BYBLOCK
 10
-5.4000
 20
8.5613
 30
0.0000
 11
-6.5648
 21
7.8888
 31
0.0000
  0
LINE
  6
continous
  8
BYBLOCK
 10
-5.4000
 20
16.0387
 30
0.0000
 11
-5.4000
 21
8.5613
 31
0.0000
  0
LINE
  6
continous
  8
BYBLOCK
 10
-6.5648
 20
16.7112
 30
0.0000
 11
-5.4000
 21
16.0387
 31
0.0000
  0
ARC
  6
continous
  8
BYBLOCK
 10
-9.2420
 20
15.8575
 30
0.0000
 40
2.8100
 50
17.6861
 51
70.4134
  0
LINE
  6
continous
  8
BYBLOCK
 10
-8.3000
 20
19.9500
 30
0.0000
 11
-8.3000
 21
18.5049
 31
0.0000
  0
LINE
  6
continous
  8
BYBLOCK
 10
8.3000
 20
19.9500
 30
0.0000
 11
-8.3000
 21
19.9500
 31
0.0000
  0
LINE
  6
continous
  8
BYBLOCK
 10
6.9920
 20
8.2195
 30
0.0000
 11
5.9000
 21
8.8500
 31
0.0000
  0
POLYLINE
  6
continous
  8
BYBLOCK
 70
0
 66
1
  0
VERTEX
  8
0
 10
6.9920
 20
8.2196
 30
0.0000
  0
VERTEX
  8
0
 10
6.5648
 20
7.8888
 30
0.0000
  0
SEQEND
  0
LINE
  6
continous
  8
BYBLOCK
 10
6.5648
 20
7.8888
 30
0.0000
 11
5.4000
 21
8.5613
 31
0.0000
  0
LINE
  6
continous
  8
BYBLOCK
 10
5.9000
 20
8.8500
 30
0.0000
 11
5.4000
 21
8.5613
 31
0.0000
  0
LINE
  6
continous
  8
BYBLOCK
 10
5.4000
 20
8.5613
 30
0.0000
 11
5.4000
 21
16.0387
 31
0.0000
  0
LINE
  6
continous
  8
BYBLOCK
 10
5.9000
 20
8.8500
 30
0.0000
 11
5.9000
 21
15.7500
 31
0.0000
  0
LINE
  6
continous
  8
BYBLOCK
 10
5.9000
 20
15.7500
 30
0.0000
 11
5.4000
 21
16.0387
 31
0.0000
  0
LINE
  6
continous
  8
BYBLOCK
 10
5.4000
 20
16.0387
 30
0.0000
 11
6.5648
 21
16.7112
 31
0.0000
  0
POLYLINE
  6
continous
  8
BYBLOCK
 70
0
 66
1
  0
VERTEX
  8
0
 10
6.9920
 20
16.3805
 30
0.0000
  0
VERTEX
  8
0
 10
6.5648
 20
16.7112
 30
0.0000
  0
SEQEND
  0
LINE
  6
continous
  8
BYBLOCK
 10
5.9000
 20
15.7500
 30
0.0000
 11
6.9920
 21
16.3805
 31
0.0000
  0
LINE
  6
continous
  8
BYBLOCK
 10
-21.2500
 20
26.6500
 30
0.0000
 11
-21.2500
 21
25.5250
 31
0.0000
  0
LINE
  6
continous
  8
BYBLOCK
 10
-21.2500
 20
27.7750
 30
0.0000
 11
-21.2500
 21
26.6500
 31
0.0000
  0
POLYLINE
  6
continous
  8
BYBLOCK
 70
0
 66
1
  0
VERTEX
  8
0
 10
-15.0500
 20
22.7000
 30
0.0000
  0
VERTEX
  8
0
 10
-15.0772
 20
22.9539
 30
0.0000
  0
VERTEX
  8
0
 10
-15.1574
 20
23.1963
 30
0.0000
  0
VERTEX
  8
0
 10
-15.2872
 20
23.4162
 30
0.0000
  0
VERTEX
  8
0
 10
-15.4605
 20
23.6037
 30
0.0000
  0
VERTEX
  8
0
 10
-15.6695
 20
23.7503
 30
0.0000
  0
VERTEX
  8
0
 10
-15.9049
 20
23.8493
 30
0.0000
  0
VERTEX
  8
0
 10
-16.1558
 20
23.8963
 30
0.0000
  0
VERTEX
  8
0
 10
-16.4111
 20
23.8891
 30
0.0000
  0
VERTEX
  8
0
 10
-16.6590
 20
23.8281
 30
0.0000
  0
VERTEX
  8
0
 10
-16.8884
 20
23.7161
 30
0.0000
  0
VERTEX
  8
0
 10
-17.0890
 20
23.5580
 30
0.0000
  0
VERTEX
  8
0
 10
-17.2515
 20
23.3611
 30
0.0000
  0
VERTEX
  8
0
 10
-17.3687
 20
23.1342
 30
0.0000
  0
VERTEX
  8
0
 10
-17.4352
 20
22.8877
 30
0.0000
  0
VERTEX
  8
0
 10
-17.4500
 20
22.7000
 30
0.0000
  0
SEQEND
  0
ARC
  6
continous
  8
BYBLOCK
 10
-16.2500
 20
22.7000
 30
0.0000
 40
1.5000
 50
0.0000
 51
180.0000
  0
ARC
  6
continous
  8
BYBLOCK
 10
-16.2500
 20
22.7000
 30
0.0000
 40
1.5000
 50
180.0000
 51
360.0000
  0
POLYLINE
  6
continous
  8
BYBLOCK
 70
0
 66
1
  0
VERTEX
  8
0
 10
17.4500
 20
22.7000
 30
0.0000
  0
VERTEX
  8
0
 10
17.4228
 20
22.9539
 30
0.0000
  0
VERTEX
  8
0
 10
17.3426
 20
23.1963
 30
0.0000
  0
VERTEX
  8
0
 10
17.2128
 20
23.4162
 30
0.0000
  0
VERTEX
  8
0
 10
17.0395
 20
23.6037
 30
0.0000
  0
VERTEX
  8
0
 10
16.8305
 20
23.7503
 30
0.0000
  0
VERTEX
  8
0
 10
16.5951
 20
23.8493
 30
0.0000
  0
VERTEX
  8
0
 10
16.3442
 20
23.8963
 30
0.0000
  0
VERTEX
  8
0
 10
16.0889
 20
23.8891
 30
0.0000
  0
VERTEX
  8
0
 10
15.8410
 20
23.8281
 30
0.0000
  0
VERTEX
  8
0
 10
15.6116
 20
23.7161
 30
0.0000
  0
VERTEX
  8
0
 10
15.4110
 20
23.5580
 30
0.0000
  0
VERTEX
  8
0
 10
15.2485
 20
23.3611
 30
0.0000
  0
VERTEX
  8
0
 10
15.1313
 20
23.1342
 30
0.0000
  0
VERTEX
  8
0
 10
15.0648
 20
22.8877
 30
0.0000
  0
VERTEX
  8
0
 10
15.0500
 20
22.7000
 30
0.0000
  0
SEQEND
  0
ARC
  6
continous
  8
BYBLOCK
 10
16.2500
 20
22.7000
 30
0.0000
 40
1.5000
 50
0.0000
 51
180.0000
  0
ARC
  6
continous
  8
BYBLOCK
 10
16.2500
 20
22.7000
 30
0.0000
 40
1.5000
 50
180.0000
 51
360.0000
  0
LINE
  6
continous
  8
BYBLOCK
 10
21.2500
 20
28.3800
 30
0.0000
 11
21.4500
 21
28.3800
 31
0.0000
  0
LINE
  6
continous
  8
BYBLOCK
 10
21.4500
 20
24.9583
 30
0.0000
 11
21.2500
 21
24.9583
 31
0.0000
  0
LINE
  6
continous
  8
BYBLOCK
 10
-21.4500
 20
28.3800
 30
0.0000
 11
-21.2500
 21
28.3800
 31
0.0000
  0
LINE
  6
continous
  8
BYBLOCK
 10
-21.2500
 20
24.9583
 30
0.0000
 11
-21.4500
 21
24.9583
 31
0.0000
  0
LINE
  6
continous
  8
BYBLOCK
 10
-16.2500
 20
22.7000
 30
0.0000
 11
-15.0500
 21
22.7000
 31
0.0000
  0
LINE
  6
continous
  8
BYBLOCK
 10
-16.2500
 20
22.7000
 30
0.0000
 11
-17.4500
 21
22.7000
 31
0.0000
  0
LINE
  6
continous
  8
BYBLOCK
 10
16.2500
 20
22.7000
 30
0.0000
 11
17.4500
 21
22.7000
 31
0.0000
  0
LINE
  6
continous
  8
BYBLOCK
 10
16.2500
 20
22.7000
 30
0.0000
 11
15.0500
 21
22.7000
 31
0.0000
  0
ARC
  6
continous
  8
BYBLOCK
 10
-16.2500
 20
22.7000
 30
0.0000
 40
3.9000
 50
180.0000
 51
360.0000
  0
ARC
  6
continous
  8
BYBLOCK
 10
-16.2500
 20
22.7000
 30
0.0000
 40
3.9000
 50
0.0000
 51
180.0000
  0
LINE
  6
continous
  8
BYBLOCK
 10
-21.4500
 20
20.5000
 30
0.0000
 11
-20.0605
 21
20.5000
 31
0.0000
  0
LINE
  6
continous
  8
BYBLOCK
 10
-21.4500
 20
24.9000
 30
0.0000
 11
-20.0605
 21
24.9000
 31
0.0000
  0
ARC
  6
continous
  8
BYBLOCK
 10
-16.2500
 20
22.7000
 30
0.0000
 40
4.4000
 50
360.0000
 51
150.0000
  0
LINE
  6
continous
  8
BYBLOCK
 10
4.3358
 20
28.4500
 30
0.0000
 11
4.0858
 21
28.7000
 31
0.0000
  0
LINE
  6
continous
  8
BYBLOCK
 10
4.0858
 20
28.7000
 30
0.0000
 11
-4.0858
 21
28.7000
 31
0.0000
  0
LINE
  6
continous
  8
BYBLOCK
 10
-4.0858
 20
28.7000
 30
0.0000
 11
-4.3358
 21
28.4500
 31
0.0000
  0
ARC
  6
continous
  8
BYBLOCK
 10
-21.1500
 20
29.4000
 30
0.0000
 40
0.3000
 50
170.4059
 51
180.0000
  0
LINE
  6
continous
  8
BYBLOCK
 10
-21.4458
 20
29.4500
 30
0.0000
 11
-4.7500
 21
29.4500
 31
0.0000
  0
LINE
  6
continous
  8
BYBLOCK
 10
-4.7500
 20
29.4500
 30
0.0000
 11
-4.5000
 21
29.7000
 31
0.0000
  0
LINE
  6
continous
  8
BYBLOCK
 10
4.5000
 20
29.7000
 30
0.0000
 11
-4.5000
 21
29.7000
 31
0.0000
  0
LINE
  6
continous
  8
BYBLOCK
 10
21.4500
 20
28.4500
 30
0.0000
 11
4.3358
 21
28.4500
 31
0.0000
  0
ARC
  6
continous
  8
BYBLOCK
 10
16.2500
 20
22.7000
 30
0.0000
 40
3.9000
 50
180.0000
 51
360.0000
  0
ARC
  6
continous
  8
BYBLOCK
 10
16.2500
 20
22.7000
 30
0.0000
 40
3.9000
 50
0.0000
 51
180.0000
  0
ARC
  6
continous
  8
BYBLOCK
 10
16.2500
 20
22.7000
 30
0.0000
 40
4.4000
 50
30.0000
 51
180.0000
  0
LINE
  6
continous
  8
BYBLOCK
 10
21.4500
 20
24.9000
 30
0.0000
 11
20.0605
 21
24.9000
 31
0.0000
  0
LINE
  6
continous
  8
BYBLOCK
 10
21.4500
 20
20.5000
 30
0.0000
 11
20.0605
 21
20.5000
 31
0.0000
  0
LINE
  6
continous
  8
BYBLOCK
 10
19.2929
 20
5.3571
 30
0.0000
 11
21.4500
 21
7.5142
 31
0.0000
  0
LINE
  6
continous
  8
BYBLOCK
 10
20.0000
 20
4.6500
 30
0.0000
 11
21.4500
 21
6.1000
 31
0.0000
  0
LINE
  6
continous
  8
BYBLOCK
 10
8.8000
 20
4.6500
 30
0.0000
 11
20.0000
 21
4.6500
 31
0.0000
  0
LINE
  6
continous
  8
BYBLOCK
 10
8.8000
 20
6.4752
 30
0.0000
 11
8.8000
 21
6.5752
 31
0.0000
  0
ARC
  6
continous
  8
BYBLOCK
 10
9.2420
 20
8.8425
 30
0.0000
 40
2.3100
 50
193.0844
 51
258.9689
  0
LINE
  6
continous
  8
BYBLOCK
 10
6.9920
 20
8.3195
 30
0.0000
 11
5.9000
 21
8.9500
 31
0.0000
  0
LINE
  6
continous
  8
BYBLOCK
 10
8.8000
 20
19.9551
 30
0.0000
 11
8.8000
 21
20.0550
 31
0.0000
  0
LINE
  6
continous
  8
BYBLOCK
 10
8.8000
 20
20.0550
 30
0.0000
 11
8.3050
 21
20.5500
 31
0.0000
  0
LINE
  6
continous
  8
BYBLOCK
 10
8.3050
 20
20.5500
 30
0.0000
 11
-8.3050
 21
20.5500
 31
0.0000
  0
LINE
  6
continous
  8
BYBLOCK
 10
-8.3050
 20
20.5500
 30
0.0000
 11
-8.8000
 21
20.0550
 31
0.0000
  0
LINE
  6
continous
  8
BYBLOCK
 10
-8.8000
 20
20.0550
 30
0.0000
 11
-8.8000
 21
18.2248
 31
0.0000
  0
LINE
  6
continous
  8
BYBLOCK
 10
-5.9000
 20
15.7500
 30
0.0000
 11
-5.9000
 21
8.9500
 31
0.0000
  0
LINE
  6
continous
  8
BYBLOCK
 10
-5.9000
 20
8.9500
 30
0.0000
 11
-6.9920
 21
8.3195
 31
0.0000
  0
ARC
  6
continous
  8
BYBLOCK
 10
-9.2420
 20
8.8425
 30
0.0000
 40
2.3100
 50
281.0311
 51
346.9156
  0
LINE
  6
continous
  8
BYBLOCK
 10
-8.8000
 20
4.6500
 30
0.0000
 11
-8.8000
 21
6.5752
 31
0.0000
  0
LINE
  6
continous
  8
BYBLOCK
 10
-20.0000
 20
4.6500
 30
0.0000
 11
-8.8000
 21
4.6500
 31
0.0000
  0
LINE
  6
continous
  8
BYBLOCK
 10
-21.4500
 20
6.1000
 30
0.0000
 11
-20.0000
 21
4.6500
 31
0.0000
  0
LINE
  6
continous
  8
BYBLOCK
 10
-21.4500
 20
7.5142
 30
0.0000
 11
-19.2929
 21
5.3571
 31
0.0000
  0
LINE
  6
continous
  8
BYBLOCK
 10
-19.2929
 20
5.3571
 30
0.0000
 11
-9.3000
 21
5.3571
 31
0.0000
  0
LINE
  6
continous
  8
BYBLOCK
 10
-9.3000
 20
5.3571
 30
0.0000
 11
-9.3000
 21
7.0334
 31
0.0000
  0
ARC
  6
continous
  8
BYBLOCK
 10
-9.2420
 20
8.8425
 30
0.0000
 40
1.8100
 50
268.1637
 51
353.4499
  0
LINE
  6
continous
  8
BYBLOCK
 10
-7.4438
 20
8.6360
 30
0.0000
 11
-6.4000
 21
9.2387
 31
0.0000
  0
LINE
  6
continous
  8
BYBLOCK
 10
-6.4000
 20
9.2387
 30
0.0000
 11
-6.4000
 21
15.5613
 31
0.0000
  0
LINE
  6
continous
  8
BYBLOCK
 10
-6.4000
 20
15.5613
 30
0.0000
 11
-7.4438
 21
16.1640
 31
0.0000
  0
ARC
  6
continous
  8
BYBLOCK
 10
-9.2420
 20
15.9575
 30
0.0000
 40
1.8100
 50
6.5501
 51
91.8363
  0
LINE
  6
continous
  8
BYBLOCK
 10
-9.3000
 20
17.7666
 30
0.0000
 11
-9.3000
 21
20.2621
 31
0.0000
  0
LINE
  6
continous
  8
BYBLOCK
 10
-9.3000
 20
20.2621
 30
0.0000
 11
-8.5121
 21
21.0500
 31
0.0000
  0
LINE
  6
continous
  8
BYBLOCK
 10
-8.5121
 20
21.0500
 30
0.0000
 11
8.5121
 21
21.0500
 31
0.0000
  0
LINE
  6
continous
  8
BYBLOCK
 10
8.5121
 20
21.0500
 30
0.0000
 11
9.3000
 21
20.2621
 31
0.0000
  0
LINE
  6
continous
  8
BYBLOCK
 10
9.3000
 20
20.2621
 30
0.0000
 11
9.3000
 21
17.7666
 31
0.0000
  0
ARC
  6
continous
  8
BYBLOCK
 10
9.2420
 20
15.9575
 30
0.0000
 40
1.8100
 50
88.1637
 51
173.4499
  0
LINE
  6
continous
  8
BYBLOCK
 10
7.4438
 20
16.1640
 30
0.0000
 11
6.4000
 21
15.5613
 31
0.0000
  0
LINE
  6
continous
  8
BYBLOCK
 10
6.4000
 20
15.5613
 30
0.0000
 11
6.4000
 21
9.2387
 31
0.0000
  0
LINE
  6
continous
  8
BYBLOCK
 10
6.4000
 20
9.2387
 30
0.0000
 11
7.4438
 21
8.6360
 31
0.0000
  0
ARC
  6
continous
  8
BYBLOCK
 10
9.2420
 20
8.8425
 30
0.0000
 40
1.8100
 50
186.5501
 51
271.8363
  0
LINE
  6
continous
  8
BYBLOCK
 10
9.3000
 20
7.0334
 30
0.0000
 11
9.3000
 21
5.3571
 31
0.0000
  0
LINE
  6
continous
  8
BYBLOCK
 10
9.3000
 20
5.3571
 30
0.0000
 11
19.2929
 21
5.3571
 31
0.0000
  0
ARC
  6
continous
  8
BYBLOCK
 10
-16.2500
 20
22.7000
 30
0.0000
 40
1.2000
 50
0.0000
 51
180.0000
  0
ARC
  6
continous
  8
BYBLOCK
 10
-16.2500
 20
22.7000
 30
0.0000
 40
1.2000
 50
180.0000
 51
360.0000
  0
LINE
  6
continous
  8
BYBLOCK
 10
-13.3632
 20
22.7000
 30
0.0000
 11
-14.8066
 21
20.2000
 31
0.0000
  0
LINE
  6
continous
  8
BYBLOCK
 10
-14.8066
 20
20.2000
 30
0.0000
 11
-17.6934
 21
20.2000
 31
0.0000
  0
LINE
  6
continous
  8
BYBLOCK
 10
-17.6934
 20
20.2000
 30
0.0000
 11
-19.1368
 21
22.7000
 31
0.0000
  0
LINE
  6
continous
  8
BYBLOCK
 10
-19.1368
 20
22.7000
 30
0.0000
 11
-17.6934
 21
25.2000
 31
0.0000
  0
LINE
  6
continous
  8
BYBLOCK
 10
-17.6934
 20
25.2000
 30
0.0000
 11
-14.8066
 21
25.2000
 31
0.0000
  0
LINE
  6
continous
  8
BYBLOCK
 10
-14.8066
 20
25.2000
 30
0.0000
 11
-13.3632
 21
22.7000
 31
0.0000
  0
ARC
  6
continous
  8
BYBLOCK
 10
16.2500
 20
22.7000
 30
0.0000
 40
1.2000
 50
0.0000
 51
180.0000
  0
ARC
  6
continous
  8
BYBLOCK
 10
16.2500
 20
22.7000
 30
0.0000
 40
1.2000
 50
180.0000
 51
360.0000
  0
LINE
  6
continous
  8
BYBLOCK
 10
17.6934
 20
25.2000
 30
0.0000
 11
19.1368
 21
22.7000
 31
0.0000
  0
LINE
  6
continous
  8
BYBLOCK
 10
19.1368
 20
22.7000
 30
0.0000
 11
17.6934
 21
20.2000
 31
0.0000
  0
LINE
  6
continous
  8
BYBLOCK
 10
17.6934
 20
20.2000
 30
0.0000
 11
14.8066
 21
20.2000
 31
0.0000
  0
LINE
  6
continous
  8
BYBLOCK
 10
14.8066
 20
20.2000
 30
0.0000
 11
13.3632
 21
22.7000
 31
0.0000
  0
LINE
  6
continous
  8
BYBLOCK
 10
13.3632
 20
22.7000
 30
0.0000
 11
14.8066
 21
25.2000
 31
0.0000
  0
LINE
  6
continous
  8
BYBLOCK
 10
14.8066
 20
25.2000
 30
0.0000
 11
17.6934
 21
25.2000
 31
0.0000
  0
LINE
  6
continous
  8
BYBLOCK
 10
-21.4500
 20
28.4500
 30
0.0000
 11
-4.3358
 21
28.4500
 31
0.0000
  0
LINE
  6
continous
  8
BYBLOCK
 10
-21.4500
 20
24.9000
 30
0.0000
 11
-21.4500
 21
20.5000
 31
0.0000
  0
LINE
  6
continous
  8
BYBLOCK
 10
-21.4500
 20
20.5000
 30
0.0000
 11
-21.4500
 21
19.5000
 31
0.0000
  0
LINE
  6
continous
  8
BYBLOCK
 10
-21.4500
 20
7.5142
 30
0.0000
 11
-21.4500
 21
6.1000
 31
0.0000
  0
LINE
  6
continous
  8
BYBLOCK
 10
-21.4500
 20
29.4000
 30
0.0000
 11
-21.4500
 21
28.4500
 31
0.0000
  0
LINE
  6
continous
  8
BYBLOCK
 10
-21.4500
 20
28.3800
 30
0.0000
 11
-21.4500
 21
28.4500
 31
0.0000
  0
LINE
  6
continous
  8
BYBLOCK
 10
-21.4500
 20
28.3801
 30
0.0000
 11
-21.4500
 21
26.6500
 31
0.0000
  0
LINE
  6
continous
  8
BYBLOCK
 10
-21.4500
 20
24.9000
 30
0.0000
 11
-21.4500
 21
24.9583
 31
0.0000
  0
ARC
  6
continous
  8
BYBLOCK
 10
0.0000
 20
26.6500
 30
0.0000
 40
1.5000
 50
0.0000
 51
180.0000
  0
ARC
  6
continous
  8
BYBLOCK
 10
0.0000
 20
26.6500
 30
0.0000
 40
1.5000
 50
180.0000
 51
360.0000
  0
LINE
  6
continous
  8
BYBLOCK
 10
21.2500
 20
24.9000
 30
0.0000
 11
21.2500
 21
28.4500
 31
0.0000
  0
LINE
  6
continous
  8
BYBLOCK
 10
21.2500
 20
7.5142
 30
0.0000
 11
21.2500
 21
20.5000
 31
0.0000
  0
LINE
  6
continous
  8
BYBLOCK
 10
-21.2500
 20
7.5142
 30
0.0000
 11
-21.2500
 21
20.5000
 31
0.0000
  0
LINE
  6
continous
  8
BYBLOCK
 10
-21.2500
 20
24.9000
 30
0.0000
 11
-21.2500
 21
28.4500
 31
0.0000
  0
LINE
  6
continous
  8
BYBLOCK
 10
21.4500
 20
7.5142
 30
0.0000
 11
21.2500
 21
7.5142
 31
0.0000
  0
LINE
  6
continous
  8
BYBLOCK
 10
21.4500
 20
19.5000
 30
0.0000
 11
21.4500
 21
20.5000
 31
0.0000
  0
LINE
  6
continous
  8
BYBLOCK
 10
21.4500
 20
20.5000
 30
0.0000
 11
21.4500
 21
24.9000
 31
0.0000
  0
LINE
  6
continous
  8
BYBLOCK
 10
21.4500
 20
24.9583
 30
0.0000
 11
21.4500
 21
24.9000
 31
0.0000
  0
LINE
  6
continous
  8
BYBLOCK
 10
21.4500
 20
26.6500
 30
0.0000
 11
21.4500
 21
28.3800
 31
0.0000
  0
LINE
  6
continous
  8
BYBLOCK
 10
21.4500
 20
28.4500
 30
0.0000
 11
21.4500
 21
28.3800
 31
0.0000
  0
LINE
  6
continous
  8
BYBLOCK
 10
21.4500
 20
28.4500
 30
0.0000
 11
21.4500
 21
29.4000
 31
0.0000
  0
LINE
  6
continous
  8
BYBLOCK
 10
21.4500
 20
6.1000
 30
0.0000
 11
21.4500
 21
7.5142
 31
0.0000
  0
LINE
  6
continous
  8
BYBLOCK
 10
21.4500
 20
7.5142
 30
0.0000
 11
21.4500
 21
19.1053
 31
0.0000
  0
ARC
  6
continous
  8
BYBLOCK
 10
21.1500
 20
29.4000
 30
0.0000
 40
0.3000
 50
0.0000
 51
9.5941
  0
LINE
  6
continous
  8
BYBLOCK
 10
21.4458
 20
29.4500
 30
0.0000
 11
4.7500
 21
29.4500
 31
0.0000
  0
LINE
  6
continous
  8
BYBLOCK
 10
4.5000
 20
29.7000
 30
0.0000
 11
4.7500
 21
29.4500
 31
0.0000
  0
LINE
  6
continous
  8
BYBLOCK
 10
-21.4500
 20
26.6500
 30
0.0000
 11
-21.4500
 21
24.8999
 31
0.0000
  0
ARC
  6
continous
  8
BYBLOCK
 10
16.2500
 20
22.7000
 30
0.0000
 40
4.4000
 50
180.0000
 51
330.0000
  0
LINE
  6
continous
  8
BYBLOCK
 10
21.4500
 20
24.9583
 30
0.0000
 11
21.4500
 21
26.6500
 31
0.0000
  0
LINE
  6
continous
  8
BYBLOCK
 10
21.4500
 20
19.1053
 30
0.0000
 11
21.2500
 21
19.1053
 31
0.0000
  0
LINE
  6
continous
  8
BYBLOCK
 10
21.4500
 20
19.1053
 30
0.0000
 11
21.4500
 21
19.5000
 31
0.0000
  0
ARC
  6
continous
  8
BYBLOCK
 10
-16.2500
 20
22.7000
 30
0.0000
 40
4.4000
 50
210.0000
 51
360.0000
  0
LINE
  6
continous
  8
BYBLOCK
 10
-21.4500
 20
19.5000
 30
0.0000
 11
-21.4500
 21
19.1053
 31
0.0000
  0
LINE
  6
continous
  8
BYBLOCK
 10
-21.4500
 20
19.1053
 30
0.0000
 11
-21.2500
 21
19.1053
 31
0.0000
  0
LINE
  6
continous
  8
BYBLOCK
 10
-21.4500
 20
7.5142
 30
0.0000
 11
-21.2500
 21
7.5142
 31
0.0000
  0
LINE
  6
continous
  8
BYBLOCK
 10
-21.4500
 20
19.1053
 30
0.0000
 11
-21.4500
 21
7.5142
 31
0.0000
  0
LINE
  6
continous
  8
BYBLOCK
 10
-9.7500
 20
4.6500
 30
0.0000
 11
-20.0000
 21
4.6500
 31
0.0000
  0
LINE
  6
continous
  8
BYBLOCK
 10
-20.0000
 20
4.6500
 30
0.0000
 11
-22.0000
 21
6.6500
 31
0.0000
  0
LINE
  6
continous
  8
BYBLOCK
 10
-22.0000
 20
6.6500
 30
0.0000
 11
-22.0000
 21
29.2000
 31
0.0000
  0
LINE
  6
continous
  8
BYBLOCK
 10
-22.0000
 20
29.2000
 30
0.0000
 11
-21.2000
 21
30.0000
 31
0.0000
  0
LINE
  6
continous
  8
BYBLOCK
 10
-21.2000
 20
30.0000
 30
0.0000
 11
21.2000
 21
30.0000
 31
0.0000
  0
LINE
  6
continous
  8
BYBLOCK
 10
21.2000
 20
30.0000
 30
0.0000
 11
22.0000
 21
29.2000
 31
0.0000
  0
LINE
  6
continous
  8
BYBLOCK
 10
22.0000
 20
29.2000
 30
0.0000
 11
22.0000
 21
24.3000
 31
0.0000
  0
LINE
  6
continous
  8
BYBLOCK
 10
22.0000
 20
24.3000
 30
0.0000
 11
21.7000
 21
24.0000
 31
0.0000
  0
LINE
  6
continous
  8
BYBLOCK
 10
21.7000
 20
24.0000
 30
0.0000
 11
21.7000
 21
6.3500
 31
0.0000
  0
LINE
  6
continous
  8
BYBLOCK
 10
21.7000
 20
6.3500
 30
0.0000
 11
21.4500
 21
6.1000
 31
0.0000
  0
LINE
  6
continous
  8
BYBLOCK
 10
20.0000
 20
4.6500
 30
0.0000
 11
9.7500
 21
4.6500
 31
0.0000
  0
ENDBLK
  8
0
  0
BLOCK
  8
REX_7
  2
2REX_MID_Jul_26_19-25-07
 70
0
 10
0.0000
 20
0.0000
 30
0.0000
  3
2REX_MID_Jul_26_19-25-07
  0
ENDBLK
  8
0
  0
BLOCK
  8
REX_1
  2
_VIEW_2_Jul_26_19-25-07
 70
0
 10
0.0000
 20
0.0000
 30
0.0000
  3
_VIEW_2_Jul_26_19-25-07
  0
INSERT
  8
REX_6
  2
2REX_MID_Jul_26_19-25-07
 10
0.0000
 20
0.0000
 30
0.0000
  0
LINE
  6
continous
  8
BYBLOCK
 10
37.5000
 20
25.3492
 30
0.0000
 11
37.5454
 21
25.3508
 31
0.0000
  0
LINE
  6
continous
  8
BYBLOCK
 10
37.4546
 20
27.9492
 30
0.0000
 11
37.3000
 21
27.9438
 31
0.0000
  0
LINE
  6
continous
  8
BYBLOCK
 10
37.5850
 20
24.2158
 30
0.0000
 11
37.5023
 21
26.5838
 31
0.0000
  0
LINE
  6
continous
  8
BYBLOCK
 10
37.4843
 20
27.1000
 30
0.0000
 11
37.4371
 21
28.4500
 31
0.0000
  0
LINE
  6
continous
  8
BYBLOCK
 10
37.5873
 20
24.1496
 30
0.0000
 11
39.1863
 21
24.2054
 31
0.0000
  0
LINE
  6
continous
  8
BYBLOCK
 10
37.5850
 20
24.2158
 30
0.0000
 11
37.5873
 21
24.1496
 31
0.0000
  0
LINE
  6
continous
  8
BYBLOCK
 10
37.5850
 20
24.2158
 30
0.0000
 11
39.1840
 21
24.2716
 31
0.0000
  0
LINE
  6
continous
  8
BYBLOCK
 10
37.5000
 20
26.7163
 30
0.0000
 11
39.0967
 21
26.7720
 31
0.0000
  0
LINE
  6
continous
  8
BYBLOCK
 10
37.5000
 20
29.0872
 30
0.0000
 11
39.0140
 21
29.1401
 31
0.0000
  0
LINE
  6
continous
  8
BYBLOCK
 10
39.0967
 20
26.7720
 30
0.0000
 11
39.0990
 21
26.7058
 31
0.0000
  0
LINE
  6
continous
  8
BYBLOCK
 10
39.0967
 20
26.7720
 30
0.0000
 11
39.0140
 21
29.1401
 31
0.0000
  0
LINE
  6
continous
  8
BYBLOCK
 10
39.0117
 20
29.2063
 30
0.0000
 11
39.0140
 21
29.1401
 31
0.0000
  0
LINE
  6
continous
  8
BYBLOCK
 10
39.1840
 20
24.2716
 30
0.0000
 11
39.1863
 21
24.2054
 31
0.0000
  0
LINE
  6
continous
  8
BYBLOCK
 10
39.1840
 20
24.2716
 30
0.0000
 11
39.1013
 21
26.6397
 31
0.0000
  0
LINE
  6
continous
  8
BYBLOCK
 10
37.5023
 20
26.5838
 30
0.0000
 11
39.1013
 21
26.6397
 31
0.0000
  0
LINE
  6
continous
  8
BYBLOCK
 10
37.5023
 20
26.5838
 30
0.0000
 11
37.5000
 21
26.6500
 31
0.0000
  0
LINE
  6
continous
  8
BYBLOCK
 10
39.0990
 20
26.7058
 30
0.0000
 11
39.1013
 21
26.6397
 31
0.0000
  0
LINE
  6
continous
  8
BYBLOCK
 10
37.5000
 20
29.1535
 30
0.0000
 11
39.0117
 21
29.2063
 31
0.0000
  0
LINE
  6
continous
  8
BYBLOCK
 10
-37.4567
 20
27.8500
 30
0.0000
 11
-37.4567
 21
27.1000
 31
0.0000
  0
LINE
  6
continous
  8
BYBLOCK
 10
-37.3000
 20
28.1214
 30
0.0000
 11
-37.5000
 21
27.7750
 31
0.0000
  0
LINE
  6
continous
  8
BYBLOCK
 10
-37.5000
 20
27.7750
 30
0.0000
 11
-37.5000
 21
27.0805
 31
0.0000
  0
LINE
  6
continous
  8
BYBLOCK
 10
-37.5000
 20
16.3805
 30
0.0000
 11
-56.6340
 21
16.3805
 31
0.0000
  0
LINE
  6
continous
  8
BYBLOCK
 10
57.5000
 20
16.3805
 30
0.0000
 11
37.5000
 21
16.3805
 31
0.0000
  0
LINE
  6
continous
  8
BYBLOCK
 10
-56.6340
 20
18.1248
 30
0.0000
 11
-56.6340
 21
16.3805
 31
0.0000
  0
POLYLINE
  6
continous
  8
BYBLOCK
 70
0
 66
1
  0
VERTEX
  8
0
 10
-56.6340
 20
18.1248
 30
0.0000
  0
VERTEX
  8
0
 10
-57.5000
 20
18.5049
 30
0.0000
  0
SEQEND
  0
LINE
  6
continous
  8
BYBLOCK
 10
-37.5000
 20
18.1248
 30
0.0000
 11
-56.6340
 21
18.1248
 31
0.0000
  0
LINE
  6
continous
  8
BYBLOCK
 10
57.5000
 20
18.1248
 30
0.0000
 11
37.5000
 21
18.1248
 31
0.0000
  0
LINE
  6
continous
  8
BYBLOCK
 10
-56.6340
 20
18.1248
 30
0.0000
 11
-56.6340
 21
19.9550
 31
0.0000
  0
LINE
  6
continous
  8
BYBLOCK
 10
-37.5000
 20
19.9550
 30
0.0000
 11
-56.6340
 21
19.9550
 31
0.0000
  0
LINE
  6
continous
  8
BYBLOCK
 10
57.5000
 20
19.9550
 30
0.0000
 11
37.5000
 21
19.9550
 31
0.0000
  0
LINE
  6
continous
  8
BYBLOCK
 10
-57.0626
 20
20.2025
 30
0.0000
 11
-56.6340
 21
19.9550
 31
0.0000
  0
LINE
  6
continous
  8
BYBLOCK
 10
-37.5000
 20
20.4500
 30
0.0000
 11
-56.6340
 21
20.4500
 31
0.0000
  0
LINE
  6
continous
  8
BYBLOCK
 10
57.5000
 20
20.4500
 30
0.0000
 11
37.5000
 21
20.4500
 31
0.0000
  0
LINE
  6
continous
  8
BYBLOCK
 10
-37.5000
 20
8.2195
 30
0.0000
 11
-56.6340
 21
8.2195
 31
0.0000
  0
LINE
  6
continous
  8
BYBLOCK
 10
57.5000
 20
8.2195
 30
0.0000
 11
37.5000
 21
8.2195
 31
0.0000
  0
LINE
  6
continous
  8
BYBLOCK
 10
-56.6340
 20
8.2195
 30
0.0000
 11
-56.6340
 21
6.4752
 31
0.0000
  0
LINE
  6
continous
  8
BYBLOCK
 10
-37.5000
 20
6.4752
 30
0.0000
 11
-56.6340
 21
6.4752
 31
0.0000
  0
LINE
  6
continous
  8
BYBLOCK
 10
57.5000
 20
6.4752
 30
0.0000
 11
37.5000
 21
6.4752
 31
0.0000
  0
POLYLINE
  6
continous
  8
BYBLOCK
 70
0
 66
1
  0
VERTEX
  8
0
 10
-56.6340
 20
6.4752
 30
0.0000
  0
VERTEX
  8
0
 10
-57.5000
 20
6.0951
 30
0.0000
  0
SEQEND
  0
LINE
  6
continous
  8
BYBLOCK
 10
-56.6340
 20
4.4000
 30
0.0000
 11
-56.6340
 21
6.4752
 31
0.0000
  0
LINE
  6
continous
  8
BYBLOCK
 10
-56.6340
 20
4.4000
 30
0.0000
 11
-57.5000
 21
4.1113
 31
0.0000
  0
LINE
  6
continous
  8
BYBLOCK
 10
57.5000
 20
4.4000
 30
0.0000
 11
-56.6340
 21
4.4000
 31
0.0000
  0
LINE
  6
continous
  8
BYBLOCK
 10
-56.6340
 20
3.7072
 30
0.0000
 11
-56.6340
 21
4.4000
 31
0.0000
  0
LINE
  6
continous
  8
BYBLOCK
 10
57.5000
 20
3.7072
 30
0.0000
 11
-56.6340
 21
3.7072
 31
0.0000
  0
LINE
  6
continous
  8
BYBLOCK
 10
-56.6340
 20
3.7072
 30
0.0000
 11
-57.5000
 21
3.4185
 31
0.0000
  0
LINE
  6
continous
  8
BYBLOCK
 10
-56.6340
 20
1.2000
 30
0.0000
 11
-56.6340
 21
3.7072
 31
0.0000
  0
LINE
  6
continous
  8
BYBLOCK
 10
-56.6340
 20
1.2000
 30
0.0000
 11
-57.5000
 21
1.4071
 31
0.0000
  0
LINE
  6
continous
  8
BYBLOCK
 10
57.5000
 20
1.2000
 30
0.0000
 11
-56.6340
 21
1.2000
 31
0.0000
  0
LINE
  6
continous
  8
BYBLOCK
 10
-56.6340
 20
0.0000
 30
0.0000
 11
-56.6340
 21
1.2000
 31
0.0000
  0
LINE
  6
continous
  8
BYBLOCK
 10
57.5000
 20
0.0000
 30
0.0000
 11
-56.6340
 21
0.0000
 31
0.0000
  0
LINE
  6
continous
  8
BYBLOCK
 10
-56.6340
 20
0.0000
 30
0.0000
 11
-57.5000
 21
0.5000
 31
0.0000
  0
LINE
  6
continous
  8
BYBLOCK
 10
-56.6340
 20
20.4500
 30
0.0000
 11
-57.0626
 21
20.2025
 31
0.0000
  0
LINE
  6
continous
  8
BYBLOCK
 10
-57.0626
 20
20.2025
 30
0.0000
 11
-57.5000
 21
19.9500
 31
0.0000
  0
LINE
  6
continous
  8
BYBLOCK
 10
-57.5000
 20
18.5049
 30
0.0000
 11
-57.5000
 21
19.9500
 31
0.0000
  0
LINE
  6
continous
  8
BYBLOCK
 10
-57.5000
 20
16.7112
 30
0.0000
 11
-57.5000
 21
18.5049
 31
0.0000
  0
LINE
  6
continous
  8
BYBLOCK
 10
-57.5000
 20
6.0951
 30
0.0000
 11
-57.5000
 21
7.8888
 31
0.0000
  0
LINE
  6
continous
  8
BYBLOCK
 10
-57.5000
 20
4.1113
 30
0.0000
 11
-57.5000
 21
6.0951
 31
0.0000
  0
LINE
  6
continous
  8
BYBLOCK
 10
-57.5000
 20
3.4185
 30
0.0000
 11
-57.5000
 21
4.1113
 31
0.0000
  0
LINE
  6
continous
  8
BYBLOCK
 10
-57.5000
 20
1.4071
 30
0.0000
 11
-57.5000
 21
3.4185
 31
0.0000
  0
LINE
  6
continous
  8
BYBLOCK
 10
-57.5000
 20
0.5000
 30
0.0000
 11
-57.5000
 21
1.4071
 31
0.0000
  0
LINE
  6
continous
  8
BYBLOCK
 10
-56.6340
 20
8.2195
 30
0.0000
 11
-56.6340
 21
8.8500
 31
0.0000
  0
POLYLINE
  6
continous
  8
BYBLOCK
 70
0
 66
1
  0
VERTEX
  8
0
 10
-56.6340
 20
8.2196
 30
0.0000
  0
VERTEX
  8
0
 10
-57.5000
 20
7.8888
 30
0.0000
  0
SEQEND
  0
LINE
  6
continous
  8
BYBLOCK
 10
-57.5000
 20
7.8888
 30
0.0000
 11
-57.5000
 21
8.5613
 31
0.0000
  0
LINE
  6
continous
  8
BYBLOCK
 10
-56.6340
 20
8.8500
 30
0.0000
 11
-57.5000
 21
8.5613
 31
0.0000
  0
LINE
  6
continous
  8
BYBLOCK
 10
-57.5000
 20
8.5613
 30
0.0000
 11
-57.5000
 21
16.0387
 31
0.0000
  0
LINE
  6
continous
  8
BYBLOCK
 10
-37.5000
 20
15.7500
 30
0.0000
 11
-56.6340
 21
15.7500
 31
0.0000
  0
LINE
  6
continous
  8
BYBLOCK
 10
57.5000
 20
15.7500
 30
0.0000
 11
37.5000
 21
15.7500
 31
0.0000
  0
LINE
  6
continous
  8
BYBLOCK
 10
-37.5000
 20
8.8500
 30
0.0000
 11
-56.6340
 21
8.8500
 31
0.0000
  0
LINE
  6
continous
  8
BYBLOCK
 10
57.5000
 20
8.8500
 30
0.0000
 11
37.5000
 21
8.8500
 31
0.0000
  0
LINE
  6
continous
  8
BYBLOCK
 10
-56.6340
 20
8.8500
 30
0.0000
 11
-56.6340
 21
15.7500
 31
0.0000
  0
LINE
  6
continous
  8
BYBLOCK
 10
57.5000
 20
15.7500
 30
0.0000
 11
57.5000
 21
16.3805
 31
0.0000
  0
LINE
  6
continous
  8
BYBLOCK
 10
57.5000
 20
16.3805
 30
0.0000
 11
57.5000
 21
18.1248
 31
0.0000
  0
LINE
  6
continous
  8
BYBLOCK
 10
57.5000
 20
18.1248
 30
0.0000
 11
57.5000
 21
19.9550
 31
0.0000
  0
LINE
  6
continous
  8
BYBLOCK
 10
57.5000
 20
19.9550
 30
0.0000
 11
57.5000
 21
20.4500
 31
0.0000
  0
LINE
  6
continous
  8
BYBLOCK
 10
57.5000
 20
0.0000
 30
0.0000
 11
57.5000
 21
1.2000
 31
0.0000
  0
LINE
  6
continous
  8
BYBLOCK
 10
57.5000
 20
1.2000
 30
0.0000
 11
57.5000
 21
3.7072
 31
0.0000
  0
LINE
  6
continous
  8
BYBLOCK
 10
57.5000
 20
3.7072
 30
0.0000
 11
57.5000
 21
4.4000
 31
0.0000
  0
LINE
  6
continous
  8
BYBLOCK
 10
57.5000
 20
4.4000
 30
0.0000
 11
57.5000
 21
6.4752
 31
0.0000
  0
LINE
  6
continous
  8
BYBLOCK
 10
57.5000
 20
6.4752
 30
0.0000
 11
57.5000
 21
8.2195
 31
0.0000
  0
LINE
  6
continous
  8
BYBLOCK
 10
57.5000
 20
8.2195
 30
0.0000
 11
57.5000
 21
8.8500
 31
0.0000
  0
LINE
  6
continous
  8
BYBLOCK
 10
57.5000
 20
8.8500
 30
0.0000
 11
57.5000
 21
15.7500
 31
0.0000
  0
LINE
  6
continous
  8
BYBLOCK
 10
-56.6340
 20
15.7500
 30
0.0000
 11
-57.5000
 21
16.0387
 31
0.0000
  0
LINE
  6
continous
  8
BYBLOCK
 10
-57.5000
 20
16.0387
 30
0.0000
 11
-57.5000
 21
16.7112
 31
0.0000
  0
POLYLINE
  6
continous
  8
BYBLOCK
 70
0
 66
1
  0
VERTEX
  8
0
 10
-56.6340
 20
16.3805
 30
0.0000
  0
VERTEX
  8
0
 10
-57.5000
 20
16.7112
 30
0.0000
  0
SEQEND
  0
LINE
  6
continous
  8
BYBLOCK
 10
-56.6340
 20
15.7500
 30
0.0000
 11
-56.6340
 21
16.3805
 31
0.0000
  0
ARC
  6
continous
  8
BYBLOCK
 10
31.8000
 20
26.6500
 30
0.0000
 40
1.2000
 50
0.0000
 51
180.0000
  0
ARC
  6
continous
  8
BYBLOCK
 10
31.8000
 20
26.6500
 30
0.0000
 40
1.2000
 50
180.0000
 51
360.0000
  0
LINE
  6
continous
  8
BYBLOCK
 10
32.2330
 20
25.9000
 30
0.0000
 11
31.3670
 21
25.9000
 31
0.0000
  0
LINE
  6
continous
  8
BYBLOCK
 10
32.2330
 20
25.9000
 30
0.0000
 11
32.6660
 21
26.6500
 31
0.0000
  0
LINE
  6
continous
  8
BYBLOCK
 10
32.6660
 20
26.6500
 30
0.0000
 11
32.2330
 21
27.4000
 31
0.0000
  0
LINE
  6
continous
  8
BYBLOCK
 10
31.3670
 20
27.4000
 30
0.0000
 11
32.2330
 21
27.4000
 31
0.0000
  0
LINE
  6
continous
  8
BYBLOCK
 10
31.3670
 20
27.4000
 30
0.0000
 11
30.9340
 21
26.6500
 31
0.0000
  0
LINE
  6
continous
  8
BYBLOCK
 10
30.9340
 20
26.6500
 30
0.0000
 11
31.3670
 21
25.9000
 31
0.0000
  0
ARC
  6
continous
  8
BYBLOCK
 10
31.8000
 20
26.6500
 30
0.0000
 40
1.1250
 50
-180.0000
 51
0.0000
  0
ARC
  6
continous
  8
BYBLOCK
 10
31.8000
 20
26.6500
 30
0.0000
 40
1.1250
 50
0.0000
 51
180.0000
  0
LINE
  6
continous
  8
BYBLOCK
 10
30.6750
 20
26.6500
 30
0.0000
 11
30.3000
 21
26.6500
 31
0.0000
  0
LINE
  6
continous
  8
BYBLOCK
 10
32.9250
 20
26.6500
 30
0.0000
 11
33.3000
 21
26.6500
 31
0.0000
  0
ARC
  6
continous
  8
BYBLOCK
 10
31.8000
 20
26.6500
 30
0.0000
 40
1.5000
 50
-180.0000
 51
0.0000
  0
ARC
  6
continous
  8
BYBLOCK
 10
-31.8000
 20
26.6500
 30
0.0000
 40
1.2000
 50
0.0000
 51
180.0000
  0
ARC
  6
continous
  8
BYBLOCK
 10
-31.8000
 20
26.6500
 30
0.0000
 40
1.2000
 50
180.0000
 51
360.0000
  0
LINE
  6
continous
  8
BYBLOCK
 10
-31.3670
 20
25.9000
 30
0.0000
 11
-32.2330
 21
25.9000
 31
0.0000
  0
LINE
  6
continous
  8
BYBLOCK
 10
-31.3670
 20
25.9000
 30
0.0000
 11
-30.9340
 21
26.6500
 31
0.0000
  0
LINE
  6
continous
  8
BYBLOCK
 10
-30.9340
 20
26.6500
 30
0.0000
 11
-31.3670
 21
27.4000
 31
0.0000
  0
LINE
  6
continous
  8
BYBLOCK
 10
-32.2330
 20
27.4000
 30
0.0000
 11
-31.3670
 21
27.4000
 31
0.0000
  0
LINE
  6
continous
  8
BYBLOCK
 10
-32.2330
 20
27.4000
 30
0.0000
 11
-32.6660
 21
26.6500
 31
0.0000
  0
LINE
  6
continous
  8
BYBLOCK
 10
-32.6660
 20
26.6500
 30
0.0000
 11
-32.2330
 21
25.9000
 31
0.0000
  0
ARC
  6
continous
  8
BYBLOCK
 10
-31.8000
 20
26.6500
 30
0.0000
 40
1.1250
 50
-180.0000
 51
0.0000
  0
ARC
  6
continous
  8
BYBLOCK
 10
-31.8000
 20
26.6500
 30
0.0000
 40
1.1250
 50
0.0000
 51
180.0000
  0
LINE
  6
continous
  8
BYBLOCK
 10
-32.9250
 20
26.6500
 30
0.0000
 11
-33.3000
 21
26.6500
 31
0.0000
  0
LINE
  6
continous
  8
BYBLOCK
 10
-30.6750
 20
26.6500
 30
0.0000
 11
-30.3000
 21
26.6500
 31
0.0000
  0
ARC
  6
continous
  8
BYBLOCK
 10
-31.8000
 20
26.6500
 30
0.0000
 40
1.5000
 50
-180.0000
 51
0.0000
  0
LINE
  6
continous
  8
BYBLOCK
 10
37.5000
 20
27.1000
 30
0.0000
 11
37.3000
 21
27.1000
 31
0.0000
  0
LINE
  6
continous
  8
BYBLOCK
 10
37.3000
 20
18.3000
 30
0.0000
 11
37.5000
 21
18.3000
 31
0.0000
  0
LINE
  6
continous
  8
BYBLOCK
 10
24.8000
 20
29.7000
 30
0.0000
 11
37.5000
 21
29.7000
 31
0.0000
  0
LINE
  6
continous
  8
BYBLOCK
 10
37.5000
 20
29.4500
 30
0.0000
 11
24.8000
 21
29.4500
 31
0.0000
  0
LINE
  6
continous
  8
BYBLOCK
 10
24.8000
 20
4.6500
 30
0.0000
 11
37.5000
 21
4.6500
 31
0.0000
  0
LINE
  6
continous
  8
BYBLOCK
 10
37.5000
 20
8.6360
 30
0.0000
 11
37.3000
 21
8.6360
 31
0.0000
  0
LINE
  6
continous
  8
BYBLOCK
 10
37.5000
 20
9.2387
 30
0.0000
 11
37.3000
 21
9.2387
 31
0.0000
  0
LINE
  6
continous
  8
BYBLOCK
 10
37.5000
 20
15.5613
 30
0.0000
 11
37.3000
 21
15.5613
 31
0.0000
  0
LINE
  6
continous
  8
BYBLOCK
 10
37.5000
 20
16.1640
 30
0.0000
 11
37.3000
 21
16.1640
 31
0.0000
  0
LINE
  6
continous
  8
BYBLOCK
 10
37.5000
 20
17.7666
 30
0.0000
 11
37.3000
 21
17.7666
 31
0.0000
  0
LINE
  6
continous
  8
BYBLOCK
 10
37.5000
 20
27.1000
 30
0.0000
 11
37.5000
 21
24.9000
 31
0.0000
  0
LINE
  6
continous
  8
BYBLOCK
 10
37.5000
 20
29.4500
 30
0.0000
 11
37.5000
 21
29.4000
 31
0.0000
  0
LINE
  6
continous
  8
BYBLOCK
 10
37.5000
 20
29.4500
 30
0.0000
 11
37.5000
 21
29.7000
 31
0.0000
  0
LINE
  6
continous
  8
BYBLOCK
 10
37.5000
 20
6.1000
 30
0.0000
 11
37.5000
 21
4.6500
 31
0.0000
  0
LINE
  6
continous
  8
BYBLOCK
 10
37.5000
 20
7.5142
 30
0.0000
 11
37.5000
 21
8.6360
 31
0.0000
  0
LINE
  6
continous
  8
BYBLOCK
 10
37.5000
 20
8.6360
 30
0.0000
 11
37.5000
 21
9.2387
 31
0.0000
  0
LINE
  6
continous
  8
BYBLOCK
 10
37.5000
 20
9.2387
 30
0.0000
 11
37.5000
 21
15.5613
 31
0.0000
  0
LINE
  6
continous
  8
BYBLOCK
 10
37.5000
 20
15.5613
 30
0.0000
 11
37.5000
 21
16.1640
 31
0.0000
  0
LINE
  6
continous
  8
BYBLOCK
 10
37.5000
 20
16.1640
 30
0.0000
 11
37.5000
 21
17.7666
 31
0.0000
  0
LINE
  6
continous
  8
BYBLOCK
 10
37.5000
 20
17.7666
 30
0.0000
 11
37.5000
 21
18.3000
 31
0.0000
  0
LINE
  6
continous
  8
BYBLOCK
 10
37.5000
 20
24.9000
 30
0.0000
 11
37.3000
 21
24.9000
 31
0.0000
  0
LINE
  6
continous
  8
BYBLOCK
 10
37.5000
 20
24.9000
 30
0.0000
 11
37.5000
 21
20.5000
 31
0.0000
  0
LINE
  6
continous
  8
BYBLOCK
 10
33.2392
 20
20.5000
 30
0.0000
 11
37.5000
 21
20.5000
 31
0.0000
  0
ARC
  6
continous
  8
BYBLOCK
 10
33.2392
 20
19.5000
 30
0.0000
 40
1.0000
 50
90.0000
 51
180.0000
  0
LINE
  6
continous
  8
BYBLOCK
 10
37.5000
 20
7.5142
 30
0.0000
 11
37.3000
 21
7.5142
 31
0.0000
  0
LINE
  6
continous
  8
BYBLOCK
 10
37.5000
 20
7.5142
 30
0.0000
 11
37.5000
 21
6.1000
 31
0.0000
  0
LINE
  6
continous
  8
BYBLOCK
 10
24.8000
 20
6.1000
 30
0.0000
 11
37.5000
 21
6.1000
 31
0.0000
  0
LINE
  6
continous
  8
BYBLOCK
 10
37.5000
 20
29.4000
 30
0.0000
 11
24.8000
 21
29.4000
 31
0.0000
  0
LINE
  6
continous
  8
BYBLOCK
 10
37.5000
 20
29.4000
 30
0.0000
 11
37.5000
 21
28.4500
 31
0.0000
  0
LINE
  6
continous
  8
BYBLOCK
 10
37.5000
 20
28.4500
 30
0.0000
 11
37.3000
 21
28.4500
 31
0.0000
  0
ARC
  6
continous
  8
BYBLOCK
 10
36.1193
 20
38.3800
 30
0.0000
 40
10.0000
 50
249.7852
 51
276.7810
  0
ARC
  6
continous
  8
BYBLOCK
 10
31.8000
 20
26.6500
 30
0.0000
 40
2.5000
 50
69.7852
 51
180.0000
  0
ARC
  6
continous
  8
BYBLOCK
 10
36.2220
 20
14.9583
 30
0.0000
 40
10.0000
 50
83.8112
 51
110.7172
  0
ARC
  6
continous
  8
BYBLOCK
 10
31.8000
 20
26.6500
 30
0.0000
 40
1.5000
 50
0.0000
 51
180.0000
  0
ARC
  6
continous
  8
BYBLOCK
 10
31.8000
 20
26.6500
 30
0.0000
 40
1.5000
 50
180.0000
 51
360.0000
  0
LINE
  6
continous
  8
BYBLOCK
 10
37.3000
 20
7.5142
 30
0.0000
 11
37.3000
 21
20.5000
 31
0.0000
  0
LINE
  6
continous
  8
BYBLOCK
 10
37.3000
 20
24.9000
 30
0.0000
 11
37.3000
 21
28.4500
 31
0.0000
  0
LINE
  6
continous
  8
BYBLOCK
 10
24.8000
 20
6.1000
 30
0.0000
 11
24.8000
 21
4.6500
 31
0.0000
  0
ARC
  6
continous
  8
BYBLOCK
 10
31.8000
 20
26.6500
 30
0.0000
 40
2.5000
 50
180.0000
 51
290.7172
  0
LINE
  6
continous
  8
BYBLOCK
 10
37.5000
 20
20.5000
 30
0.0000
 11
37.5000
 21
18.3000
 31
0.0000
  0
ARC
  6
continous
  8
BYBLOCK
 10
33.2392
 20
19.5000
 30
0.0000
 40
1.0000
 50
180.0000
 51
203.2489
  0
LINE
  6
continous
  8
BYBLOCK
 10
32.3204
 20
19.1053
 30
0.0000
 11
37.3000
 21
7.5142
 31
0.0000
  0
LINE
  6
continous
  8
BYBLOCK
 10
-37.5000
 20
22.7000
 30
0.0000
 11
-37.5000
 21
22.7000
 31
0.0000
  0
LINE
  6
continous
  8
BYBLOCK
 10
-37.5000
 20
22.7000
 30
0.0000
 11
-37.5000
 21
22.7000
 31
0.0000
  0
LINE
  6
continous
  8
BYBLOCK
 10
-37.5000
 20
22.7000
 30
0.0000
 11
-37.5000
 21
22.7000
 31
0.0000
  0
LINE
  6
continous
  8
BYBLOCK
 10
-37.5000
 20
22.7000
 30
0.0000
 11
-37.5000
 21
22.7000
 31
0.0000
  0
LINE
  6
continous
  8
BYBLOCK
 10
-37.5000
 20
27.1000
 30
0.0000
 11
-37.5000
 21
27.1000
 31
0.0000
  0
LINE
  6
continous
  8
BYBLOCK
 10
-37.3000
 20
27.1000
 30
0.0000
 11
-37.5000
 21
27.1000
 31
0.0000
  0
LINE
  6
continous
  8
BYBLOCK
 10
-37.5000
 20
18.3000
 30
0.0000
 11
-37.3000
 21
18.3000
 31
0.0000
  0
ARC
  6
continous
  8
BYBLOCK
 10
-31.8000
 20
26.6500
 30
0.0000
 40
1.5000
 50
0.0000
 51
180.0000
  0
ARC
  6
continous
  8
BYBLOCK
 10
-31.8000
 20
26.6500
 30
0.0000
 40
1.5000
 50
-180.0000
 51
0.0000
  0
LINE
  6
continous
  8
BYBLOCK
 10
-24.8000
 20
4.6500
 30
0.0000
 11
-37.5000
 21
4.6500
 31
0.0000
  0
LINE
  6
continous
  8
BYBLOCK
 10
-37.5000
 20
17.7666
 30
0.0000
 11
-37.3000
 21
17.7666
 31
0.0000
  0
LINE
  6
continous
  8
BYBLOCK
 10
-37.5000
 20
16.1640
 30
0.0000
 11
-37.3000
 21
16.1640
 31
0.0000
  0
LINE
  6
continous
  8
BYBLOCK
 10
-37.5000
 20
15.5613
 30
0.0000
 11
-37.3000
 21
15.5613
 31
0.0000
  0
LINE
  6
continous
  8
BYBLOCK
 10
-37.5000
 20
9.2387
 30
0.0000
 11
-37.3000
 21
9.2387
 31
0.0000
  0
LINE
  6
continous
  8
BYBLOCK
 10
-37.5000
 20
8.6360
 30
0.0000
 11
-37.3000
 21
8.6360
 31
0.0000
  0
LINE
  6
continous
  8
BYBLOCK
 10
-37.5000
 20
24.9000
 30
0.0000
 11
-37.5000
 21
27.1000
 31
0.0000
  0
LINE
  6
continous
  8
BYBLOCK
 10
-37.5000
 20
4.6500
 30
0.0000
 11
-37.5000
 21
6.1000
 31
0.0000
  0
LINE
  6
continous
  8
BYBLOCK
 10
-37.5000
 20
21.0500
 30
0.0000
 11
-37.5000
 21
20.2621
 31
0.0000
  0
LINE
  6
continous
  8
BYBLOCK
 10
-37.5000
 20
20.2621
 30
0.0000
 11
-37.5000
 21
17.7666
 31
0.0000
  0
LINE
  6
continous
  8
BYBLOCK
 10
-37.5000
 20
17.7675
 30
0.0000
 11
-37.5000
 21
16.1640
 31
0.0000
  0
LINE
  6
continous
  8
BYBLOCK
 10
-37.5000
 20
16.1640
 30
0.0000
 11
-37.5000
 21
15.5613
 31
0.0000
  0
LINE
  6
continous
  8
BYBLOCK
 10
-37.5000
 20
15.5613
 30
0.0000
 11
-37.5000
 21
9.2387
 31
0.0000
  0
LINE
  6
continous
  8
BYBLOCK
 10
-37.5000
 20
9.2387
 30
0.0000
 11
-37.5000
 21
8.6360
 31
0.0000
  0
LINE
  6
continous
  8
BYBLOCK
 10
-37.5000
 20
8.6360
 30
0.0000
 11
-37.5000
 21
7.4725
 31
0.0000
  0
LINE
  6
continous
  8
BYBLOCK
 10
-37.5000
 20
25.2000
 30
0.0000
 11
-37.5000
 21
22.7000
 31
0.0000
  0
LINE
  6
continous
  8
BYBLOCK
 10
-37.5000
 20
22.7000
 30
0.0000
 11
-37.5000
 21
20.2000
 31
0.0000
  0
LINE
  6
continous
  8
BYBLOCK
 10
-37.3000
 20
24.9000
 30
0.0000
 11
-37.3000
 21
28.4500
 31
0.0000
  0
LINE
  6
continous
  8
BYBLOCK
 10
-37.3000
 20
7.5142
 30
0.0000
 11
-37.3000
 21
20.5000
 31
0.0000
  0
ARC
  6
continous
  8
BYBLOCK
 10
-33.2392
 20
19.5000
 30
0.0000
 40
1.0000
 50
360.0000
 51
90.0000
  0
LINE
  6
continous
  8
BYBLOCK
 10
-37.5000
 20
20.5000
 30
0.0000
 11
-33.2392
 21
20.5000
 31
0.0000
  0
LINE
  6
continous
  8
BYBLOCK
 10
-37.5000
 20
20.5000
 30
0.0000
 11
-37.5000
 21
24.9000
 31
0.0000
  0
LINE
  6
continous
  8
BYBLOCK
 10
-37.5000
 20
24.9000
 30
0.0000
 11
-37.3000
 21
24.9000
 31
0.0000
  0
ARC
  6
continous
  8
BYBLOCK
 10
-36.2220
 20
14.9583
 30
0.0000
 40
10.0000
 50
69.2828
 51
96.1888
  0
ARC
  6
continous
  8
BYBLOCK
 10
-31.8000
 20
26.6500
 30
0.0000
 40
2.5000
 50
360.0000
 51
110.2148
  0
ARC
  6
continous
  8
BYBLOCK
 10
-36.1193
 20
38.3800
 30
0.0000
 40
10.0000
 50
263.2190
 51
290.2148
  0
LINE
  6
continous
  8
BYBLOCK
 10
-37.5000
 20
28.4500
 30
0.0000
 11
-37.3000
 21
28.4500
 31
0.0000
  0
LINE
  6
continous
  8
BYBLOCK
 10
-37.5000
 20
28.4500
 30
0.0000
 11
-37.5000
 21
29.4000
 31
0.0000
  0
LINE
  6
continous
  8
BYBLOCK
 10
-24.8000
 20
6.1000
 30
0.0000
 11
-37.5000
 21
6.1000
 31
0.0000
  0
LINE
  6
continous
  8
BYBLOCK
 10
-37.5000
 20
6.1000
 30
0.0000
 11
-37.5000
 21
7.5142
 31
0.0000
  0
LINE
  6
continous
  8
BYBLOCK
 10
-37.5000
 20
7.5142
 30
0.0000
 11
-37.3000
 21
7.5142
 31
0.0000
  0
LINE
  6
continous
  8
BYBLOCK
 10
-37.3000
 20
7.5142
 30
0.0000
 11
-32.3204
 21
19.1053
 31
0.0000
  0
LINE
  6
continous
  8
BYBLOCK
 10
-37.5000
 20
29.4000
 30
0.0000
 11
-24.8000
 21
29.4000
 31
0.0000
  0
LINE
  6
continous
  8
BYBLOCK
 10
-37.5000
 20
29.4000
 30
0.0000
 11
-37.5000
 21
29.4500
 31
0.0000
  0
LINE
  6
continous
  8
BYBLOCK
 10
-37.5000
 20
29.4500
 30
0.0000
 11
-24.8000
 21
29.4500
 31
0.0000
  0
LINE
  6
continous
  8
BYBLOCK
 10
-37.5000
 20
29.7000
 30
0.0000
 11
-37.5000
 21
29.4500
 31
0.0000
  0
LINE
  6
continous
  8
BYBLOCK
 10
-24.8000
 20
29.7000
 30
0.0000
 11
-37.5000
 21
29.7000
 31
0.0000
  0
LINE
  6
continous
  8
BYBLOCK
 10
-24.8000
 20
4.6500
 30
0.0000
 11
-24.8000
 21
6.1000
 31
0.0000
  0
LINE
  6
continous
  8
BYBLOCK
 10
-24.8000
 20
6.1000
 30
0.0000
 11
-24.8000
 21
29.4000
 31
0.0000
  0
LINE
  6
continous
  8
BYBLOCK
 10
-24.8000
 20
29.4500
 30
0.0000
 11
-24.8000
 21
29.4000
 31
0.0000
  0
LINE
  6
continous
  8
BYBLOCK
 10
-24.8000
 20
29.7000
 30
0.0000
 11
-24.8000
 21
29.4500
 31
0.0000
  0
LINE
  6
continous
  8
BYBLOCK
 10
-37.5000
 20
18.3000
 30
0.0000
 11
-37.5000
 21
20.5000
 31
0.0000
  0
ARC
  6
continous
  8
BYBLOCK
 10
-31.8000
 20
26.6500
 30
0.0000
 40
2.5000
 50
249.2828
 51
360.0000
  0
ARC
  6
continous
  8
BYBLOCK
 10
-33.2392
 20
19.5000
 30
0.0000
 40
1.0000
 50
336.7511
 51
360.0000
  0
LINE
  6
continous
  8
BYBLOCK
 10
-24.8000
 20
30.0000
 30
0.0000
 11
24.8000
 21
30.0000
 31
0.0000
  0
LINE
  6
continous
  8
BYBLOCK
 10
-24.8000
 20
29.2000
 30
0.0000
 11
24.8000
 21
29.2000
 31
0.0000
  0
LINE
  6
continous
  8
BYBLOCK
 10
-24.8000
 20
24.3000
 30
0.0000
 11
24.8000
 21
24.3000
 31
0.0000
  0
LINE
  6
continous
  8
BYBLOCK
 10
-24.8000
 20
24.0000
 30
0.0000
 11
24.8000
 21
24.0000
 31
0.0000
  0
LINE
  6
continous
  8
BYBLOCK
 10
-24.8000
 20
6.3500
 30
0.0000
 11
24.8000
 21
6.3500
 31
0.0000
  0
LINE
  6
continous
  8
BYBLOCK
 10
24.8000
 20
6.3500
 30
0.0000
 11
24.8000
 21
4.6500
 31
0.0000
  0
LINE
  6
continous
  8
BYBLOCK
 10
24.8000
 20
24.0000
 30
0.0000
 11
24.8000
 21
6.3500
 31
0.0000
  0
LINE
  6
continous
  8
BYBLOCK
 10
24.8000
 20
24.3000
 30
0.0000
 11
24.8000
 21
24.0000
 31
0.0000
  0
LINE
  6
continous
  8
BYBLOCK
 10
24.8000
 20
29.2000
 30
0.0000
 11
24.8000
 21
24.3000
 31
0.0000
  0
LINE
  6
continous
  8
BYBLOCK
 10
24.8000
 20
30.0000
 30
0.0000
 11
24.8000
 21
29.2000
 31
0.0000
  0
LINE
  6
continous
  8
BYBLOCK
 10
-24.8000
 20
4.6500
 30
0.0000
 11
24.8000
 21
4.6500
 31
0.0000
  0
LINE
  6
continous
  8
BYBLOCK
 10
-24.8000
 20
30.0000
 30
0.0000
 11
-24.8000
 21
29.2000
 31
0.0000
  0
LINE
  6
continous
  8
BYBLOCK
 10
-24.8000
 20
29.2000
 30
0.0000
 11
-24.8000
 21
24.3000
 31
0.0000
  0
LINE
  6
continous
  8
BYBLOCK
 10
-24.8000
 20
24.3000
 30
0.0000
 11
-24.8000
 21
24.0000
 31
0.0000
  0
LINE
  6
continous
  8
BYBLOCK
 10
-24.8000
 20
24.0000
 30
0.0000
 11
-24.8000
 21
6.3500
 31
0.0000
  0
LINE
  6
continous
  8
BYBLOCK
 10
-24.8000
 20
6.3500
 30
0.0000
 11
-24.8000
 21
4.6500
 31
0.0000
  0
ENDBLK
  8
0
  0
BLOCK
  8
REX_7
  2
3REX_MID_Jul_26_19-25-07
 70
0
 10
0.0000
 20
0.0000
 30
0.0000
  3
3REX_MID_Jul_26_19-25-07
  0
ENDBLK
  8
0
  0
BLOCK
  8
REX_1
  2
_VIEW_3_Jul_26_19-25-07
 70
0
 10
0.0000
 20
0.0000
 30
0.0000
  3
_VIEW_3_Jul_26_19-25-07
  0
INSERT
  8
REX_6
  2
3REX_MID_Jul_26_19-25-07
 10
0.0000
 20
0.0000
 30
0.0000
  0
LINE
  6
continous
  8
BYBLOCK
 10
10.0000
 20
56.6340
 30
0.0000
 11
9.5000
 21
57.5000
 31
0.0000
  0
LINE
  6
continous
  8
BYBLOCK
 10
10.0000
 20
-57.5000
 30
0.0000
 11
10.0000
 21
56.6340
 31
0.0000
  0
LINE
  6
continous
  8
BYBLOCK
 10
8.8000
 20
56.6340
 30
0.0000
 11
10.0000
 21
56.6340
 31
0.0000
  0
LINE
  6
continous
  8
BYBLOCK
 10
8.8000
 20
-57.5000
 30
0.0000
 11
8.8000
 21
56.6340
 31
0.0000
  0
LINE
  6
continous
  8
BYBLOCK
 10
8.8000
 20
56.6340
 30
0.0000
 11
8.5929
 21
57.5000
 31
0.0000
  0
LINE
  6
continous
  8
BYBLOCK
 10
-8.8000
 20
56.6340
 30
0.0000
 11
8.8000
 21
56.6340
 31
0.0000
  0
LINE
  6
continous
  8
BYBLOCK
 10
-8.8000
 20
56.6340
 30
0.0000
 11
-8.5929
 21
57.5000
 31
0.0000
  0
LINE
  6
continous
  8
BYBLOCK
 10
-8.8000
 20
-57.5000
 30
0.0000
 11
-8.8000
 21
56.6340
 31
0.0000
  0
LINE
  6
continous
  8
BYBLOCK
 10
-10.0000
 20
56.6340
 30
0.0000
 11
-8.8000
 21
56.6340
 31
0.0000
  0
LINE
  6
continous
  8
BYBLOCK
 10
-10.0000
 20
-57.5000
 30
0.0000
 11
-10.0000
 21
56.6340
 31
0.0000
  0
LINE
  6
continous
  8
BYBLOCK
 10
-10.0000
 20
56.6340
 30
0.0000
 11
-9.5000
 21
57.5000
 31
0.0000
  0
LINE
  6
continous
  8
BYBLOCK
 10
8.5929
 20
57.5000
 30
0.0000
 11
9.5000
 21
57.5000
 31
0.0000
  0
LINE
  6
continous
  8
BYBLOCK
 10
-8.5929
 20
57.5000
 30
0.0000
 11
8.5929
 21
57.5000
 31
0.0000
  0
LINE
  6
continous
  8
BYBLOCK
 10
-9.5000
 20
57.5000
 30
0.0000
 11
-8.5929
 21
57.5000
 31
0.0000
  0
LINE
  6
continous
  8
BYBLOCK
 10
-10.0000
 20
-57.5000
 30
0.0000
 11
-8.8000
 21
-57.5000
 31
0.0000
  0
LINE
  6
continous
  8
BYBLOCK
 10
-8.8000
 20
-57.5000
 30
0.0000
 11
8.8000
 21
-57.5000
 31
0.0000
  0
LINE
  6
continous
  8
BYBLOCK
 10
8.8000
 20
-57.5000
 30
0.0000
 11
10.0000
 21
-57.5000
 31
0.0000
  0
LINE
  6
continous
  8
BYBLOCK
 10
17.7500
 20
-37.5000
 30
0.0000
 11
14.7500
 21
-37.5000
 31
0.0000
  0
LINE
  6
continous
  8
BYBLOCK
 10
14.7500
 20
-37.5000
 30
0.0000
 11
17.7500
 21
-37.5000
 31
0.0000
  0
LINE
  6
continous
  8
BYBLOCK
 10
-14.7500
 20
-37.5000
 30
0.0000
 11
-17.7500
 21
-37.5000
 31
0.0000
  0
LINE
  6
continous
  8
BYBLOCK
 10
-17.7500
 20
-37.5000
 30
0.0000
 11
-14.7500
 21
-37.5000
 31
0.0000
  0
LINE
  6
continous
  8
BYBLOCK
 10
20.0000
 20
-24.8000
 30
0.0000
 11
20.0000
 21
-37.5000
 31
0.0000
  0
LINE
  6
continous
  8
BYBLOCK
 10
-20.0000
 20
-24.8000
 30
0.0000
 11
-20.0000
 21
-37.5000
 31
0.0000
  0
LINE
  6
continous
  8
BYBLOCK
 10
21.4500
 20
-37.5000
 30
0.0000
 11
20.0605
 21
-37.5000
 31
0.0000
  0
LINE
  6
continous
  8
BYBLOCK
 10
-21.4500
 20
-37.5000
 30
0.0000
 11
-20.0605
 21
-37.5000
 31
0.0000
  0
LINE
  6
continous
  8
BYBLOCK
 10
-20.0000
 20
-37.5000
 30
0.0000
 11
-21.4500
 21
-37.5000
 31
0.0000
  0
LINE
  6
continous
  8
BYBLOCK
 10
-10.0000
 20
-37.5000
 30
0.0000
 11
-20.0000
 21
-37.5000
 31
0.0000
  0
LINE
  6
continous
  8
BYBLOCK
 10
20.0000
 20
-37.5000
 30
0.0000
 11
10.0000
 21
-37.5000
 31
0.0000
  0
LINE
  6
continous
  8
BYBLOCK
 10
21.4500
 20
-37.5000
 30
0.0000
 11
20.0000
 21
-37.5000
 31
0.0000
  0
LINE
  6
continous
  8
BYBLOCK
 10
13.3632
 20
-37.5000
 30
0.0000
 11
14.8066
 21
-37.5000
 31
0.0000
  0
LINE
  6
continous
  8
BYBLOCK
 10
14.8066
 20
-37.5000
 30
0.0000
 11
17.6934
 21
-37.5000
 31
0.0000
  0
LINE
  6
continous
  8
BYBLOCK
 10
17.6934
 20
-37.5000
 30
0.0000
 11
19.1368
 21
-37.5000
 31
0.0000
  0
LINE
  6
continous
  8
BYBLOCK
 10
-19.1368
 20
-37.5000
 30
0.0000
 11
-17.6934
 21
-37.5000
 31
0.0000
  0
LINE
  6
continous
  8
BYBLOCK
 10
-14.8066
 20
-37.5000
 30
0.0000
 11
-13.3632
 21
-37.5000
 31
0.0000
  0
LINE
  6
continous
  8
BYBLOCK
 10
21.4500
 20
-24.8000
 30
0.0000
 11
21.4500
 21
-37.5000
 31
0.0000
  0
LINE
  6
continous
  8
BYBLOCK
 10
-21.4500
 20
-24.8000
 30
0.0000
 11
-21.4500
 21
-37.5000
 31
0.0000
  0
LINE
  6
continous
  8
BYBLOCK
 10
21.4500
 20
-24.8000
 30
0.0000
 11
20.0000
 21
-24.8000
 31
0.0000
  0
LINE
  6
continous
  8
BYBLOCK
 10
20.0000
 20
-24.8000
 30
0.0000
 11
10.0000
 21
-24.8000
 31
0.0000
  0
LINE
  6
continous
  8
BYBLOCK
 10
-10.0000
 20
-24.8000
 30
0.0000
 11
-20.0000
 21
-24.8000
 31
0.0000
  0
LINE
  6
continous
  8
BYBLOCK
 10
-20.0000
 20
-24.8000
 30
0.0000
 11
-21.4500
 21
-24.8000
 31
0.0000
  0
LINE
  6
continous
  8
BYBLOCK
 10
-11.8500
 20
-37.5000
 30
0.0000
 11
-20.0605
 21
-37.5000
 31
0.0000
  0
LINE
  6
continous
  8
BYBLOCK
 10
20.0605
 20
-37.5000
 30
0.0000
 11
11.8500
 21
-37.5000
 31
0.0000
  0
LINE
  6
continous
  8
BYBLOCK
 10
-20.0000
 20
24.8000
 30
0.0000
 11
-20.0000
 21
37.5000
 31
0.0000
  0
LINE
  6
continous
  8
BYBLOCK
 10
20.0000
 20
24.8000
 30
0.0000
 11
20.0000
 21
37.5000
 31
0.0000
  0
LINE
  6
continous
  8
BYBLOCK
 10
20.0000
 20
37.5000
 30
0.0000
 11
21.4500
 21
37.5000
 31
0.0000
  0
LINE
  6
continous
  8
BYBLOCK
 10
10.0000
 20
37.5000
 30
0.0000
 11
20.0000
 21
37.5000
 31
0.0000
  0
LINE
  6
continous
  8
BYBLOCK
 10
-20.0000
 20
37.5000
 30
0.0000
 11
-10.0000
 21
37.5000
 31
0.0000
  0
LINE
  6
continous
  8
BYBLOCK
 10
-21.4500
 20
37.5000
 30
0.0000
 11
-20.0000
 21
37.5000
 31
0.0000
  0
LINE
  6
continous
  8
BYBLOCK
 10
-21.4500
 20
24.8000
 30
0.0000
 11
-21.4500
 21
37.5000
 31
0.0000
  0
LINE
  6
continous
  8
BYBLOCK
 10
21.4500
 20
24.8000
 30
0.0000
 11
21.4500
 21
37.5000
 31
0.0000
  0
LINE
  6
continous
  8
BYBLOCK
 10
-21.4500
 20
24.8000
 30
0.0000
 11
-20.0000
 21
24.8000
 31
0.0000
  0
LINE
  6
continous
  8
BYBLOCK
 10
-20.0000
 20
24.8000
 30
0.0000
 11
-10.0000
 21
24.8000
 31
0.0000
  0
LINE
  6
continous
  8
BYBLOCK
 10
10.0000
 20
24.8000
 30
0.0000
 11
20.0000
 21
24.8000
 31
0.0000
  0
LINE
  6
continous
  8
BYBLOCK
 10
20.0000
 20
24.8000
 30
0.0000
 11
21.4500
 21
24.8000
 31
0.0000
  0
LINE
  6
continous
  8
BYBLOCK
 10
-22.0000
 20
24.8000
 30
0.0000
 11
-22.0000
 21
-24.8000
 31
0.0000
  0
LINE
  6
continous
  8
BYBLOCK
 10
22.0000
 20
24.8000
 30
0.0000
 11
22.0000
 21
-24.8000
 31
0.0000
  0
LINE
  6
continous
  8
BYBLOCK
 10
21.7000
 20
24.8000
 30
0.0000
 11
21.7000
 21
-24.8000
 31
0.0000
  0
LINE
  6
continous
  8
BYBLOCK
 10
21.7000
 20
-24.8000
 30
0.0000
 11
20.0000
 21
-24.8000
 31
0.0000
  0
LINE
  6
continous
  8
BYBLOCK
 10
22.0000
 20
-24.8000
 30
0.0000
 11
21.7000
 21
-24.8000
 31
0.0000
  0
LINE
  6
continous
  8
BYBLOCK
 10
-20.0000
 20
-24.8000
 30
0.0000
 11
-22.0000
 21
-24.8000
 31
0.0000
  0
LINE
  6
continous
  8
BYBLOCK
 10
20.0000
 20
24.8000
 30
0.0000
 11
20.0000
 21
-24.8000
 31
0.0000
  0
LINE
  6
continous
  8
BYBLOCK
 10
20.0000
 20
-24.8000
 30
0.0000
 11
10.0000
 21
-24.8000
 31
0.0000
  0
LINE
  6
continous
  8
BYBLOCK
 10
-10.0000
 20
-24.8000
 30
0.0000
 11
-20.0000
 21
-24.8000
 31
0.0000
  0
LINE
  6
continous
  8
BYBLOCK
 10
-20.0000
 20
24.8000
 30
0.0000
 11
-20.0000
 21
-24.8000
 31
0.0000
  0
LINE
  6
continous
  8
BYBLOCK
 10
-10.0000
 20
24.8000
 30
0.0000
 11
-20.0000
 21
24.8000
 31
0.0000
  0
LINE
  6
continous
  8
BYBLOCK
 10
-20.0000
 20
24.8000
 30
0.0000
 11
-22.0000
 21
24.8000
 31
0.0000
  0
LINE
  6
continous
  8
BYBLOCK
 10
22.0000
 20
24.8000
 30
0.0000
 11
21.7000
 21
24.8000
 31
0.0000
  0
LINE
  6
continous
  8
BYBLOCK
 10
21.7000
 20
24.8000
 30
0.0000
 11
20.0000
 21
24.8000
 31
0.0000
  0
LINE
  6
continous
  8
BYBLOCK
 10
20.0000
 20
24.8000
 30
0.0000
 11
10.0000
 21
24.8000
 31
0.0000
  0
ENDBLK
  8
0
  0
BLOCK
  8
REX_1
  2
_VIEW_ALL_Jul_26_19-25-07
 70
0
 10
0.0000
 20
0.0000
 30
0.0000
  3
_VIEW_ALL_Jul_26_19-25-07
  0
INSERT
  8
REX_6
  2
_VIEW_4_Jul_26_19-25-07
 10
147.6000
 20
-228.5000
 30
0.0000
  0
INSERT
  8
REX_6
  2
_VIEW_6_Jul_26_19-25-07
 10
327.8000
 20
-158.0000
 30
0.0000
  0
INSERT
  8
REX_6
  2
_VIEW_1_Jul_26_19-25-07
 10
237.7000
 20
-158.0000
 30
0.0000
  0
INSERT
  8
REX_6
  2
_VIEW_5_Jul_26_19-25-07
 10
147.6000
 20
-158.0000
 30
0.0000
  0
INSERT
  8
REX_6
  2
_VIEW_2_Jul_26_19-25-07
 10
57.5000
 20
-158.0000
 30
0.0000
  0
INSERT
  8
REX_6
  2
_VIEW_3_Jul_26_19-25-07
 10
147.6000
 20
-57.5000
 30
0.0000
  0
ENDBLK
  8
0
  0
ENDSEC
  0
SECTION
  2
ENTITIES
  0
INSERT
  8
REX_6
  2
_VIEW_ALL_Jul_26_19-25-07
 10
0.0000
 20
0.0000
 30
0.0000
  0
ENDSEC
  0
EOF
