  0
SECTION
  2
HEADER
  9
$ACADVER
  1
AC1015
  9
$ACADMAINTVER
 70
     6
  9
$DWGCODEPAGE
  3
ANSI_1252
  9
$INSBASE
 10
0.0
 20
0.0
 30
0.0
  9
$EXTMIN
 10
0.0
 20
0.0
 30
0.0
  9
$EXTMAX
 10
297.0
 20
210.0
 30
0.0
  9
$LIMMIN
 10
0.0
 20
0.0
  9
$LIMMAX
 10
0.0
 20
0.0
  9
$ORTHOMODE
 70
     0
  9
$REGENMODE
 70
     1
  9
$FILLMODE
 70
     1
  9
$QTEXTMODE
 70
     0
  9
$MIRRTEXT
 70
     1
  9
$LTSCALE
 40
1.0
  9
$ATTMODE
 70
     1
  9
$TEXTSIZE
 40
3.5
  9
$TRACEWID
 40
1.0
  9
$TEXTSTYLE
  7
Standard
  9
$CLAYER
  8
0
  9
$CELTYPE
  6
ByLayer
  9
$CECOLOR
 62
   256
  9
$CELTSCALE
 40
1.0
  9
$DISPSILH
 70
     0
  9
$DIMSCALE
 40
1.0
  9
$DIMASZ
 40
6.0
  9
$DIMEXO
 40
1.0
  9
$DIMDLI
 40
3.75
  9
$DIMRND
 40
0.0
  9
$DIMDLE
 40
0.0
  9
$DIMEXE
 40
1.0
  9
$DIMTP
 40
0.0
  9
$DIMTM
 40
0.0
  9
$DIMTXT
 40
3.5
  9
$DIMCEN
 40
2.5
  9
$DIMTSZ
 40
0.0
  9
$DIMTOL
 70
     0
  9
$DIMLIM
 70
     0
  9
$DIMTIH
 70
     1
  9
$DIMTOH
 70
     1
  9
$DIMSE1
 70
     0
  9
$DIMSE2
 70
     0
  9
$DIMTAD
 70
     1
  9
$DIMZIN
 70
     0
  9
$DIMBLK
  1

  9
$DIMASO
 70
     1
  9
$DIMSHO
 70
     1
  9
$DIMPOST
  1

  9
$DIMAPOST
  1

  9
$DIMALT
 70
     0
  9
$DIMALTD
 70
     3
  9
$DIMALTF
 40
0.0393700787
  9
$DIMLFAC
 40
1.0
  9
$DIMTOFL
 70
     1
  9
$DIMTVP
 40
0.0
  9
$DIMTIX
 70
     0
  9
$DIMSOXD
 70
     0
  9
$DIMSAH
 70
     0
  9
$DIMBLK1
  1

  9
$DIMBLK2
  1

  9
$DIMSTYLE
  2
ISO-25
  9
$DIMCLRD
 70
     0
  9
$DIMCLRE
 70
     0
  9
$DIMCLRT
 70
     0
  9
$DIMTFAC
 40
1.0
  9
$DIMGAP
 40
1.524
  9
$DIMJUST
 70
     0
  9
$DIMSD1
 70
     0
  9
$DIMSD2
 70
     0
  9
$DIMTOLJ
 70
     0
  9
$DIMTZIN
 70
     0
  9
$DIMALTZ
 70
     0
  9
$DIMALTTZ
 70
     0
  9
$DIMUPT
 70
     0
  9
$DIMDEC
 70
     2
  9
$DIMTDEC
 70
     2
  9
$DIMALTU
 70
     2
  9
$DIMALTTD
 70
     3
  9
$DIMTXSTY
  7
Standard
  9
$DIMAUNIT
 70
     0
  9
$DIMADEC
 70
     0
  9
$DIMALTRND
 40
0.0
  9
$DIMAZIN
 70
     0
  9
$DIMDSEP
 70
    44
  9
$DIMATFIT
 70
     3
  9
$DIMFRAC
 70
     0
  9
$DIMLDRBLK
  1

  9
$DIMLUNIT
 70
     2
  9
$DIMLWD
 70
    -2
  9
$DIMLWE
 70
    -2
  9
$DIMTMOVE
 70
     0
  9
$LUNITS
 70
     2
  9
$LUPREC
 70
     2
  9
$SKETCHINC
 40
1.0
  9
$FILLETRAD
 40
10.0
  9
$AUNITS
 70
     0
  9
$AUPREC
 70
     0
  9
$MENU
  1
.
  9
$ELEVATION
 40
0.0
  9
$PELEVATION
 40
0.0
  9
$THICKNESS
 40
0.0
  9
$LIMCHECK
 70
     0
  9
$CHAMFERA
 40
10.0
  9
$CHAMFERB
 40
10.0
  9
$CHAMFERC
 40
20.0
  9
$CHAMFERD
 40
0.0
  9
$SKPOLY
 70
     0
  9
$TDCREATE
 40
2454167.417273391
  9
$TDUCREATE
 40
2454167.625606725
  9
$TDUPDATE
 40
2454167.417273403
  9
$TDUUPDATE
 40
2454167.625606736
  9
$TDINDWG
 40
0.0000000116
  9
$TDUSRTIMER
 40
0.0000000116
  9
$USRTIMER
 70
     1
  9
$ANGBASE
 50
0.0
  9
$ANGDIR
 70
     0
  9
$PDMODE
 70
     0
  9
$PDSIZE
 40
-1.0
  9
$PLINEWID
 40
0.0
  9
$SPLFRAME
 70
     0
  9
$SPLINETYPE
 70
     6
  9
$SPLINESEGS
 70
     8
  9
$HANDSEED
  5
28E
  9
$SURFTAB1
 70
     6
  9
$SURFTAB2
 70
     6
  9
$SURFTYPE
 70
     6
  9
$SURFU
 70
     6
  9
$SURFV
 70
     6
  9
$UCSBASE
  2

  9
$UCSNAME
  2

  9
$UCSORG
 10
0.0
 20
0.0
 30
0.0
  9
$UCSXDIR
 10
1.0
 20
0.0
 30
0.0
  9
$UCSYDIR
 10
0.0
 20
1.0
 30
0.0
  9
$UCSORTHOREF
  2

  9
$UCSORTHOVIEW
 70
     0
  9
$UCSORGTOP
 10
0.0
 20
0.0
 30
0.0
  9
$UCSORGBOTTOM
 10
0.0
 20
0.0
 30
0.0
  9
$UCSORGLEFT
 10
0.0
 20
0.0
 30
0.0
  9
$UCSORGRIGHT
 10
0.0
 20
0.0
 30
0.0
  9
$UCSORGFRONT
 10
0.0
 20
0.0
 30
0.0
  9
$UCSORGBACK
 10
0.0
 20
0.0
 30
0.0
  9
$PUCSBASE
  2

  9
$PUCSNAME
  2

  9
$PUCSORG
 10
0.0
 20
0.0
 30
0.0
  9
$PUCSXDIR
 10
1.0
 20
0.0
 30
0.0
  9
$PUCSYDIR
 10
0.0
 20
1.0
 30
0.0
  9
$PUCSORTHOREF
  2

  9
$PUCSORTHOVIEW
 70
     0
  9
$PUCSORGTOP
 10
0.0
 20
0.0
 30
0.0
  9
$PUCSORGBOTTOM
 10
0.0
 20
0.0
 30
0.0
  9
$PUCSORGLEFT
 10
0.0
 20
0.0
 30
0.0
  9
$PUCSORGRIGHT
 10
0.0
 20
0.0
 30
0.0
  9
$PUCSORGFRONT
 10
0.0
 20
0.0
 30
0.0
  9
$PUCSORGBACK
 10
0.0
 20
0.0
 30
0.0
  9
$USERI1
 70
     0
  9
$USERI2
 70
     0
  9
$USERI3
 70
     0
  9
$USERI4
 70
     0
  9
$USERI5
 70
     0
  9
$USERR1
 40
0.0
  9
$USERR2
 40
0.0
  9
$USERR3
 40
0.0
  9
$USERR4
 40
0.0
  9
$USERR5
 40
0.0
  9
$WORLDVIEW
 70
     1
  9
$SHADEDGE
 70
     3
  9
$SHADEDIF
 70
    70
  9
$TILEMODE
 70
     1
  9
$MAXACTVP
 70
    64
  9
$PINSBASE
 10
0.0
 20
0.0
 30
0.0
  9
$PLIMCHECK
 70
     0
  9
$PEXTMIN
 10
1.0000000000E+20
 20
1.0000000000E+20
 30
1.0000000000E+20
  9
$PEXTMAX
 10
-1.0000000000E+20
 20
-1.0000000000E+20
 30
-1.0000000000E+20
  9
$PLIMMIN
 10
0.0
 20
0.0
  9
$PLIMMAX
 10
420.0
 20
297.0
  9
$UNITMODE
 70
     0
  9
$VISRETAIN
 70
     1
  9
$PLINEGEN
 70
     0
  9
$PSLTSCALE
 70
     1
  9
$TREEDEPTH
 70
  3020
  9
$CMLSTYLE
  2
Standard
  9
$CMLJUST
 70
     0
  9
$CMLSCALE
 40
20.0
  9
$PROXYGRAPHICS
 70
     1
  9
$MEASUREMENT
 70
     1
  9
$CELWEIGHT
370
    -1
  9
$ENDCAPS
280
     0
  9
$JOINSTYLE
280
     0
  9
$LWDISPLAY
290
     1
  9
$INSUNITS
 70
     4
  9
$HYPERLINKBASE
  1

  9
$STYLESHEET
  1

  9
$XEDIT
290
     1
  9
$CEPSNTYPE
380
     0
  9
$PSTYLEMODE
290
     1
  9
$FINGERPRINTGUID
  2
{1466BC2A-9A87-44D5-86F7-C74D22F23A8D}
  9
$VERSIONGUID
  2
{FAEB1C32-E019-11D5-929B-00C0DF256EC4}
  9
$EXTNAMES
290
     1
  9
$PSVPSCALE
 40
0.0
  9
$OLESTARTUP
290
     0
  0
ENDSEC
  0
SECTION
  2
CLASSES
  0
CLASS
  1
ACDBDICTIONARYWDFLT
  2
AcDbDictionaryWithDefault
  3
ObjectDBX Classes
 90
        0
280
     0
281
     0
  0
CLASS
  1
ACDBPLACEHOLDER
  2
AcDbPlaceHolder
  3
ObjectDBX Classes
 90
        0
280
     0
281
     0
  0
CLASS
  1
LAYOUT
  2
AcDbLayout
  3
ObjectDBX Classes
 90
        0
280
     0
281
     0
  0
ENDSEC
  0
SECTION
  2
TABLES
  0
TABLE
  2
VPORT
  5
8
330
0
100
AcDbSymbolTable
 70
     1
  0
VPORT
  5
29
330
8
100
AcDbSymbolTableRecord
100
AcDbViewportTableRecord
  2
*Active
 70
     0
 10
0.0
 20
0.0
 11
1.0
 21
1.0
 12
148.5
 22
105.0
 13
0.0
 23
0.0
 14
10.0
 24
10.0
 15
10.0
 25
10.0
 16
0.0
 26
0.0
 36
1.0
 17
0.0
 27
0.0
 37
0.0
 40
210.0
 41
1.4142857143
 42
50.0
 43
0.0
 44
0.0
 50
0.0
 51
0.0
 71
     0
 72
  2000
 73
     1
 74
     3
 75
     0
 76
     0
 77
     0
 78
     0
281
     0
 65
     1
110
0.0
120
0.0
130
0.0
111
1.0
121
0.0
131
0.0
112
0.0
122
1.0
132
0.0
 79
     0
146
0.0
  0
ENDTAB
  0
TABLE
  2
LTYPE
  5
5
330
0
100
AcDbSymbolTable
 70
     6
  0
LTYPE
  5
14
330
5
100
AcDbSymbolTableRecord
100
AcDbLinetypeTableRecord
  2
ByBlock
 70
     0
  3

 72
    65
 73
     0
 40
0.0
  0
LTYPE
  5
15
330
5
100
AcDbSymbolTableRecord
100
AcDbLinetypeTableRecord
  2
ByLayer
 70
     0
  3

 72
    65
 73
     0
 40
0.0
  0
LTYPE
  5
16
330
5
100
AcDbSymbolTableRecord
100
AcDbLinetypeTableRecord
  2
Continuous
 70
     0
  3
Solid line
 72
    65
 73
     0
 40
0.0
  0
LTYPE
  5
2A
330
5
100
AcDbSymbolTableRecord
100
AcDbLinetypeTableRecord
  2
HIDDEN
 70
     0
  3
Hidden __ __ __ __ __ __ __ __ __ __ __ __ __ __
 72
    65
 73
     2
 40
1.905
 49
1.27
 74
     0
 49
-0.635
 74
     0
  0
LTYPE
  5
2B
330
5
100
AcDbSymbolTableRecord
100
AcDbLinetypeTableRecord
  2
PHANTOM
 70
     0
  3
Phantom ______  __  __  ______  __  __  ______
 72
    65
 73
     6
 40
12.7
 49
6.35
 74
     0
 49
-1.27
 74
     0
 49
1.27
 74
     0
 49
-1.27
 74
     0
 49
1.27
 74
     0
 49
-1.27
 74
     0
  0
LTYPE
  5
2C
330
5
100
AcDbSymbolTableRecord
100
AcDbLinetypeTableRecord
  2
CENTER
 70
     0
  3
Center ____ _ ____ _ ____ _ ____ _ ____ _ ____
 72
    65
 73
     4
 40
10.16
 49
6.35
 74
     0
 49
-1.27
 74
     0
 49
1.27
 74
     0
 49
-1.27
 74
     0
  0
LTYPE
  5
2D
330
5
100
AcDbSymbolTableRecord
100
AcDbLinetypeTableRecord
  2
CENTERX2
 70
     0
  3
Center (2x) ________  __  ________  __  _____
 72
    65
 73
     4
 40
20.32
 49
12.7
 74
     0
 49
-2.54
 74
     0
 49
2.54
 74
     0
 49
-2.54
 74
     0
  0
LTYPE
  5
2E
330
5
100
AcDbSymbolTableRecord
100
AcDbLinetypeTableRecord
  2
DOT2
 70
     0
  3
Dot (.5x) ........................................
 72
    65
 73
     2
 40
0.635
 49
0.0
 74
     0
 49
-0.635
 74
     0
  0
ENDTAB
  0
TABLE
  2
LAYER
  5
2
330
0
100
AcDbSymbolTable
 70
     1
  0
LAYER
  5
10
330
2
100
AcDbSymbolTableRecord
100
AcDbLayerTableRecord
  2
0
 70
     0
 62
     7
  6
Continuous
370
    -3
390
F
  0
ENDTAB
  0
TABLE
  2
STYLE
  5
3
330
0
100
AcDbSymbolTable
 70
     1
  0
STYLE
  5
11
330
3
100
AcDbSymbolTableRecord
100
AcDbTextStyleTableRecord
  2
Standard
 70
     0
 40
0.0
 41
1.0
 50
0.0
 71
     0
 42
2.5
  3
txt
  4

  0
ENDTAB
  0
TABLE
  2
VIEW
  5
6
330
0
100
AcDbSymbolTable
 70
     0
  0
ENDTAB
  0
TABLE
  2
UCS
  5
7
330
0
100
AcDbSymbolTable
 70
     0
  0
ENDTAB
  0
TABLE
  2
APPID
  5
9
330
0
100
AcDbSymbolTable
 70
     1
  0
APPID
  5
12
330
9
100
AcDbSymbolTableRecord
100
AcDbRegAppTableRecord
  2
ACAD
 70
     0
  0
ENDTAB
  0
TABLE
  2
DIMSTYLE
  5
A
330
0
100
AcDbSymbolTable
 70
     1
100
AcDbDimStyleTable
  0
DIMSTYLE
105
27
330
A
100
AcDbSymbolTableRecord
100
AcDbDimStyleTableRecord
  2
ISO-25
 70
     0
 41
2.5
 42
0.625
 43
3.75
 44
1.25
 73
     0
 74
     0
 77
     1
 78
     8
140
2.5
141
2.5
143
0.0393700787
147
0.625
171
     3
172
     1
271
     2
272
     2
274
     3
278
    44
283
     0
284
     8
340
11
  0
ENDTAB
  0
TABLE
  2
BLOCK_RECORD
  5
1
330
0
100
AcDbSymbolTable
 70
    16
  0
BLOCK_RECORD
  5
1F
330
1
100
AcDbSymbolTableRecord
100
AcDbBlockTableRecord
  2
*Model_Space
340
22
  0
BLOCK_RECORD
  5
1B
330
1
100
AcDbSymbolTableRecord
100
AcDbBlockTableRecord
  2
*Paper_Space
340
1E
  0
BLOCK_RECORD
  5
23
330
1
100
AcDbSymbolTableRecord
100
AcDbBlockTableRecord
  2
*Paper_Space0
340
26
  0
BLOCK_RECORD
  5
75
330
1
100
AcDbSymbolTableRecord
100
AcDbBlockTableRecord
  2
SW_CENTERMARKSYMBOL_0
340
0
102
{BLKREFS
331
80
102
}
1001
ACAD
1000
DesignCenter Data
1002
{
1070
     1
1070
     0
1002
}
  0
BLOCK_RECORD
  5
81
330
1
100
AcDbSymbolTableRecord
100
AcDbBlockTableRecord
  2
SW_CENTERMARKSYMBOL_1
340
0
102
{BLKREFS
331
8C
102
}
1001
ACAD
1000
DesignCenter Data
1002
{
1070
     1
1070
     0
1002
}
  0
BLOCK_RECORD
  5
8D
330
1
100
AcDbSymbolTableRecord
100
AcDbBlockTableRecord
  2
SW_CENTERMARKSYMBOL_2
340
0
102
{BLKREFS
331
98
102
}
1001
ACAD
1000
DesignCenter Data
1002
{
1070
     1
1070
     0
1002
}
  0
BLOCK_RECORD
  5
D1
330
1
100
AcDbSymbolTableRecord
100
AcDbBlockTableRecord
  2
SW_CENTERMARKSYMBOL_3
340
0
102
{BLKREFS
331
DC
102
}
1001
ACAD
1000
DesignCenter Data
1002
{
1070
     1
1070
     0
1002
}
  0
BLOCK_RECORD
  5
DD
330
1
100
AcDbSymbolTableRecord
100
AcDbBlockTableRecord
  2
SW_CENTERMARKSYMBOL_4
340
0
102
{BLKREFS
331
E8
102
}
1001
ACAD
1000
DesignCenter Data
1002
{
1070
     1
1070
     0
1002
}
  0
BLOCK_RECORD
  5
14F
330
1
100
AcDbSymbolTableRecord
100
AcDbBlockTableRecord
  2
SW_CENTERMARKSYMBOL_5
340
0
102
{BLKREFS
331
15A
102
}
1001
ACAD
1000
DesignCenter Data
1002
{
1070
     1
1070
     0
1002
}
  0
BLOCK_RECORD
  5
15B
330
1
100
AcDbSymbolTableRecord
100
AcDbBlockTableRecord
  2
SW_CENTERMARKSYMBOL_6
340
0
102
{BLKREFS
331
166
102
}
1001
ACAD
1000
DesignCenter Data
1002
{
1070
     1
1070
     0
1002
}
  0
BLOCK_RECORD
  5
167
330
1
100
AcDbSymbolTableRecord
100
AcDbBlockTableRecord
  2
SW_CENTERMARKSYMBOL_7
340
0
102
{BLKREFS
331
172
102
}
1001
ACAD
1000
DesignCenter Data
1002
{
1070
     1
1070
     0
1002
}
  0
BLOCK_RECORD
  5
173
330
1
100
AcDbSymbolTableRecord
100
AcDbBlockTableRecord
  2
SW_CENTERMARKSYMBOL_8
340
0
102
{BLKREFS
331
17E
102
}
1001
ACAD
1000
DesignCenter Data
1002
{
1070
     1
1070
     0
1002
}
  0
BLOCK_RECORD
  5
17F
330
1
100
AcDbSymbolTableRecord
100
AcDbBlockTableRecord
  2
SW_CENTERMARKSYMBOL_9
340
0
102
{BLKREFS
331
18A
102
}
1001
ACAD
1000
DesignCenter Data
1002
{
1070
     1
1070
     0
1002
}
  0
BLOCK_RECORD
  5
18B
330
1
100
AcDbSymbolTableRecord
100
AcDbBlockTableRecord
  2
SW_CENTERMARKSYMBOL_10
340
0
102
{BLKREFS
331
196
102
}
1001
ACAD
1000
DesignCenter Data
1002
{
1070
     1
1070
     0
1002
}
  0
BLOCK_RECORD
  5
197
330
1
100
AcDbSymbolTableRecord
100
AcDbBlockTableRecord
  2
SW_CENTERMARKSYMBOL_11
340
0
102
{BLKREFS
331
1A2
102
}
1001
ACAD
1000
DesignCenter Data
1002
{
1070
     1
1070
     0
1002
}
  0
BLOCK_RECORD
  5
1A3
330
1
100
AcDbSymbolTableRecord
100
AcDbBlockTableRecord
  2
SW_CENTERMARKSYMBOL_12
340
0
102
{BLKREFS
331
1AE
102
}
1001
ACAD
1000
DesignCenter Data
1002
{
1070
     1
1070
     0
1002
}
  0
BLOCK_RECORD
  5
1AF
330
1
100
AcDbSymbolTableRecord
100
AcDbBlockTableRecord
  2
SW_CENTERMARKSYMBOL_13
340
0
102
{BLKREFS
331
1BA
102
}
1001
ACAD
1000
DesignCenter Data
1002
{
1070
     1
1070
     0
1002
}
  0
BLOCK_RECORD
  5
1BB
330
1
100
AcDbSymbolTableRecord
100
AcDbBlockTableRecord
  2
SW_CENTERMARKSYMBOL_14
340
0
102
{BLKREFS
331
1C6
102
}
1001
ACAD
1000
DesignCenter Data
1002
{
1070
     1
1070
     0
1002
}
  0
ENDTAB
  0
ENDSEC
  0
SECTION
  2
BLOCKS
  0
BLOCK
  5
20
330
1F
100
AcDbEntity
  8
0
100
AcDbBlockBegin
  2
*Model_Space
 70
     0
 71
     0
 10
0.0
 20
0.0
 30
0.0
  3
*Model_Space
  1

  0
ENDBLK
  5
21
330
1F
100
AcDbEntity
  8
0
100
AcDbBlockEnd
  0
BLOCK
  5
1C
330
1B
100
AcDbEntity
 67
     1
  8
0
100
AcDbBlockBegin
  2
*Paper_Space
 70
     0
 71
     0
 10
0.0
 20
0.0
 30
0.0
  3
*Paper_Space
  1

  0
ENDBLK
  5
1D
330
1B
100
AcDbEntity
 67
     1
  8
0
100
AcDbBlockEnd
  0
BLOCK
  5
24
330
23
100
AcDbEntity
  8
0
100
AcDbBlockBegin
  2
*Paper_Space0
 70
     0
 71
     0
 10
0.0
 20
0.0
 30
0.0
  3
*Paper_Space0
  1

  0
ENDBLK
  5
25
330
23
100
AcDbEntity
  8
0
100
AcDbBlockEnd
  0
BLOCK
  5
76
330
75
100
AcDbEntity
  8
0
100
AcDbBlockBegin
  2
SW_CENTERMARKSYMBOL_0
 70
     0
 71
     0
 10
0.0
 20
0.0
 30
0.0
  3
SW_CENTERMARKSYMBOL_0
  1

  0
LINE
  5
78
330
75
100
AcDbEntity
  8
0
  6
Continuous
 62
     0
370
     0
100
AcDbLine
 10
0.0
 20
0.0
 30
0.0
 11
0.0
 21
2.5
 31
0.0
  0
LINE
  5
79
330
75
100
AcDbEntity
  8
0
  6
Continuous
 62
     0
370
     0
100
AcDbLine
 10
0.0
 20
0.0
 30
0.0
 11
-2.5
 21
0.0
 31
0.0
  0
LINE
  5
7A
330
75
100
AcDbEntity
  8
0
  6
Continuous
 62
     0
370
     0
100
AcDbLine
 10
0.0
 20
0.0
 30
0.0
 11
0.0
 21
-2.5
 31
0.0
  0
LINE
  5
7B
330
75
100
AcDbEntity
  8
0
  6
Continuous
 62
     0
370
     0
100
AcDbLine
 10
0.0
 20
0.0
 30
0.0
 11
2.5
 21
0.0
 31
0.0
  0
LINE
  5
7C
330
75
100
AcDbEntity
  8
0
  6
Continuous
 62
     0
370
     0
100
AcDbLine
 10
0.0
 20
2.5
 30
0.0
 11
0.0
 21
3.525
 31
0.0
  0
LINE
  5
7D
330
75
100
AcDbEntity
  8
0
  6
Continuous
 62
     0
370
     0
100
AcDbLine
 10
-2.5
 20
0.0
 30
0.0
 11
-3.525
 21
0.0
 31
0.0
  0
LINE
  5
7E
330
75
100
AcDbEntity
  8
0
  6
Continuous
 62
     0
370
     0
100
AcDbLine
 10
0.0
 20
-2.5
 30
0.0
 11
0.0
 21
-3.525
 31
0.0
  0
LINE
  5
7F
330
75
100
AcDbEntity
  8
0
  6
Continuous
 62
     0
370
     0
100
AcDbLine
 10
2.5
 20
0.0
 30
0.0
 11
3.525
 21
0.0
 31
0.0
  0
ENDBLK
  5
77
330
75
100
AcDbEntity
  8
0
100
AcDbBlockEnd
  0
BLOCK
  5
82
330
81
100
AcDbEntity
  8
0
100
AcDbBlockBegin
  2
SW_CENTERMARKSYMBOL_1
 70
     0
 71
     0
 10
0.0
 20
0.0
 30
0.0
  3
SW_CENTERMARKSYMBOL_1
  1

  0
LINE
  5
84
330
81
100
AcDbEntity
  8
0
  6
Continuous
 62
     0
370
     0
100
AcDbLine
 10
0.0
 20
0.0
 30
0.0
 11
0.0
 21
2.5
 31
0.0
  0
LINE
  5
85
330
81
100
AcDbEntity
  8
0
  6
Continuous
 62
     0
370
     0
100
AcDbLine
 10
0.0
 20
0.0
 30
0.0
 11
-2.5
 21
0.0
 31
0.0
  0
LINE
  5
86
330
81
100
AcDbEntity
  8
0
  6
Continuous
 62
     0
370
     0
100
AcDbLine
 10
0.0
 20
0.0
 30
0.0
 11
0.0
 21
-2.5
 31
0.0
  0
LINE
  5
87
330
81
100
AcDbEntity
  8
0
  6
Continuous
 62
     0
370
     0
100
AcDbLine
 10
0.0
 20
0.0
 30
0.0
 11
2.5
 21
0.0
 31
0.0
  0
LINE
  5
88
330
81
100
AcDbEntity
  8
0
  6
Continuous
 62
     0
370
     0
100
AcDbLine
 10
0.0
 20
2.5
 30
0.0
 11
0.0
 21
3.525
 31
0.0
  0
LINE
  5
89
330
81
100
AcDbEntity
  8
0
  6
Continuous
 62
     0
370
     0
100
AcDbLine
 10
-2.5
 20
0.0
 30
0.0
 11
-3.525
 21
0.0
 31
0.0
  0
LINE
  5
8A
330
81
100
AcDbEntity
  8
0
  6
Continuous
 62
     0
370
     0
100
AcDbLine
 10
0.0
 20
-2.5
 30
0.0
 11
0.0
 21
-3.525
 31
0.0
  0
LINE
  5
8B
330
81
100
AcDbEntity
  8
0
  6
Continuous
 62
     0
370
     0
100
AcDbLine
 10
2.5
 20
0.0
 30
0.0
 11
3.525
 21
0.0
 31
0.0
  0
ENDBLK
  5
83
330
81
100
AcDbEntity
  8
0
100
AcDbBlockEnd
  0
BLOCK
  5
8E
330
8D
100
AcDbEntity
  8
0
100
AcDbBlockBegin
  2
SW_CENTERMARKSYMBOL_2
 70
     0
 71
     0
 10
0.0
 20
0.0
 30
0.0
  3
SW_CENTERMARKSYMBOL_2
  1

  0
LINE
  5
90
330
8D
100
AcDbEntity
  8
0
  6
Continuous
 62
     0
370
     0
100
AcDbLine
 10
0.0
 20
0.0
 30
0.0
 11
0.0
 21
2.5
 31
0.0
  0
LINE
  5
91
330
8D
100
AcDbEntity
  8
0
  6
Continuous
 62
     0
370
     0
100
AcDbLine
 10
0.0
 20
0.0
 30
0.0
 11
-2.5
 21
0.0
 31
0.0
  0
LINE
  5
92
330
8D
100
AcDbEntity
  8
0
  6
Continuous
 62
     0
370
     0
100
AcDbLine
 10
0.0
 20
0.0
 30
0.0
 11
0.0
 21
-2.5
 31
0.0
  0
LINE
  5
93
330
8D
100
AcDbEntity
  8
0
  6
Continuous
 62
     0
370
     0
100
AcDbLine
 10
0.0
 20
0.0
 30
0.0
 11
2.5
 21
0.0
 31
0.0
  0
LINE
  5
94
330
8D
100
AcDbEntity
  8
0
  6
Continuous
 62
     0
370
     0
100
AcDbLine
 10
0.0
 20
2.5
 30
0.0
 11
0.0
 21
3.75
 31
0.0
  0
LINE
  5
95
330
8D
100
AcDbEntity
  8
0
  6
Continuous
 62
     0
370
     0
100
AcDbLine
 10
-2.5
 20
0.0
 30
0.0
 11
-3.75
 21
0.0
 31
0.0
  0
LINE
  5
96
330
8D
100
AcDbEntity
  8
0
  6
Continuous
 62
     0
370
     0
100
AcDbLine
 10
0.0
 20
-2.5
 30
0.0
 11
0.0
 21
-3.75
 31
0.0
  0
LINE
  5
97
330
8D
100
AcDbEntity
  8
0
  6
Continuous
 62
     0
370
     0
100
AcDbLine
 10
2.5
 20
0.0
 30
0.0
 11
3.75
 21
0.0
 31
0.0
  0
ENDBLK
  5
8F
330
8D
100
AcDbEntity
  8
0
100
AcDbBlockEnd
  0
BLOCK
  5
D2
330
D1
100
AcDbEntity
  8
0
100
AcDbBlockBegin
  2
SW_CENTERMARKSYMBOL_3
 70
     0
 71
     0
 10
0.0
 20
0.0
 30
0.0
  3
SW_CENTERMARKSYMBOL_3
  1

  0
LINE
  5
D4
330
D1
100
AcDbEntity
  8
0
  6
Continuous
 62
     0
370
     0
100
AcDbLine
 10
0.0
 20
0.0
 30
0.0
 11
0.0
 21
2.5
 31
0.0
  0
LINE
  5
D5
330
D1
100
AcDbEntity
  8
0
  6
Continuous
 62
     0
370
     0
100
AcDbLine
 10
0.0
 20
0.0
 30
0.0
 11
-2.5
 21
0.0
 31
0.0
  0
LINE
  5
D6
330
D1
100
AcDbEntity
  8
0
  6
Continuous
 62
     0
370
     0
100
AcDbLine
 10
0.0
 20
0.0
 30
0.0
 11
0.0
 21
-2.5
 31
0.0
  0
LINE
  5
D7
330
D1
100
AcDbEntity
  8
0
  6
Continuous
 62
     0
370
     0
100
AcDbLine
 10
0.0
 20
0.0
 30
0.0
 11
2.5
 21
0.0
 31
0.0
  0
LINE
  5
D8
330
D1
100
AcDbEntity
  8
0
  6
Continuous
 62
     0
370
     0
100
AcDbLine
 10
0.0
 20
2.5
 30
0.0
 11
0.0
 21
3.75
 31
0.0
  0
LINE
  5
D9
330
D1
100
AcDbEntity
  8
0
  6
Continuous
 62
     0
370
     0
100
AcDbLine
 10
-2.5
 20
0.0
 30
0.0
 11
-3.75
 21
0.0
 31
0.0
  0
LINE
  5
DA
330
D1
100
AcDbEntity
  8
0
  6
Continuous
 62
     0
370
     0
100
AcDbLine
 10
0.0
 20
-2.5
 30
0.0
 11
0.0
 21
-3.75
 31
0.0
  0
LINE
  5
DB
330
D1
100
AcDbEntity
  8
0
  6
Continuous
 62
     0
370
     0
100
AcDbLine
 10
2.5
 20
0.0
 30
0.0
 11
3.75
 21
0.0
 31
0.0
  0
ENDBLK
  5
D3
330
D1
100
AcDbEntity
  8
0
100
AcDbBlockEnd
  0
BLOCK
  5
DE
330
DD
100
AcDbEntity
  8
0
100
AcDbBlockBegin
  2
SW_CENTERMARKSYMBOL_4
 70
     0
 71
     0
 10
0.0
 20
0.0
 30
0.0
  3
SW_CENTERMARKSYMBOL_4
  1

  0
LINE
  5
E0
330
DD
100
AcDbEntity
  8
0
  6
Continuous
 62
     0
370
     0
100
AcDbLine
 10
0.0
 20
0.0
 30
0.0
 11
0.0
 21
2.5
 31
0.0
  0
LINE
  5
E1
330
DD
100
AcDbEntity
  8
0
  6
Continuous
 62
     0
370
     0
100
AcDbLine
 10
0.0
 20
0.0
 30
0.0
 11
-2.5
 21
0.0
 31
0.0
  0
LINE
  5
E2
330
DD
100
AcDbEntity
  8
0
  6
Continuous
 62
     0
370
     0
100
AcDbLine
 10
0.0
 20
0.0
 30
0.0
 11
0.0
 21
-2.5
 31
0.0
  0
LINE
  5
E3
330
DD
100
AcDbEntity
  8
0
  6
Continuous
 62
     0
370
     0
100
AcDbLine
 10
0.0
 20
0.0
 30
0.0
 11
2.5
 21
0.0
 31
0.0
  0
LINE
  5
E4
330
DD
100
AcDbEntity
  8
0
  6
Continuous
 62
     0
370
     0
100
AcDbLine
 10
0.0
 20
2.5
 30
0.0
 11
0.0
 21
3.75
 31
0.0
  0
LINE
  5
E5
330
DD
100
AcDbEntity
  8
0
  6
Continuous
 62
     0
370
     0
100
AcDbLine
 10
-2.5
 20
0.0
 30
0.0
 11
-3.75
 21
0.0
 31
0.0
  0
LINE
  5
E6
330
DD
100
AcDbEntity
  8
0
  6
Continuous
 62
     0
370
     0
100
AcDbLine
 10
0.0
 20
-2.5
 30
0.0
 11
0.0
 21
-3.75
 31
0.0
  0
LINE
  5
E7
330
DD
100
AcDbEntity
  8
0
  6
Continuous
 62
     0
370
     0
100
AcDbLine
 10
2.5
 20
0.0
 30
0.0
 11
3.75
 21
0.0
 31
0.0
  0
ENDBLK
  5
DF
330
DD
100
AcDbEntity
  8
0
100
AcDbBlockEnd
  0
BLOCK
  5
150
330
14F
100
AcDbEntity
  8
0
100
AcDbBlockBegin
  2
SW_CENTERMARKSYMBOL_5
 70
     0
 71
     0
 10
0.0
 20
0.0
 30
0.0
  3
SW_CENTERMARKSYMBOL_5
  1

  0
LINE
  5
152
330
14F
100
AcDbEntity
  8
0
  6
Continuous
 62
     0
370
     0
100
AcDbLine
 10
0.0
 20
0.0
 30
0.0
 11
0.0
 21
2.5
 31
0.0
  0
LINE
  5
153
330
14F
100
AcDbEntity
  8
0
  6
Continuous
 62
     0
370
     0
100
AcDbLine
 10
0.0
 20
0.0
 30
0.0
 11
-2.5
 21
0.0
 31
0.0
  0
LINE
  5
154
330
14F
100
AcDbEntity
  8
0
  6
Continuous
 62
     0
370
     0
100
AcDbLine
 10
0.0
 20
0.0
 30
0.0
 11
0.0
 21
-2.5
 31
0.0
  0
LINE
  5
155
330
14F
100
AcDbEntity
  8
0
  6
Continuous
 62
     0
370
     0
100
AcDbLine
 10
0.0
 20
0.0
 30
0.0
 11
2.5
 21
0.0
 31
0.0
  0
LINE
  5
156
330
14F
100
AcDbEntity
  8
0
  6
Continuous
 62
     0
370
     0
100
AcDbLine
 10
0.0
 20
2.5
 30
0.0
 11
0.0
 21
4.5
 31
0.0
  0
LINE
  5
157
330
14F
100
AcDbEntity
  8
0
  6
Continuous
 62
     0
370
     0
100
AcDbLine
 10
-2.5
 20
0.0
 30
0.0
 11
-4.5
 21
0.0
 31
0.0
  0
LINE
  5
158
330
14F
100
AcDbEntity
  8
0
  6
Continuous
 62
     0
370
     0
100
AcDbLine
 10
0.0
 20
-2.5
 30
0.0
 11
0.0
 21
-4.5
 31
0.0
  0
LINE
  5
159
330
14F
100
AcDbEntity
  8
0
  6
Continuous
 62
     0
370
     0
100
AcDbLine
 10
2.5
 20
0.0
 30
0.0
 11
4.5
 21
0.0
 31
0.0
  0
ENDBLK
  5
151
330
14F
100
AcDbEntity
  8
0
100
AcDbBlockEnd
  0
BLOCK
  5
15C
330
15B
100
AcDbEntity
  8
0
100
AcDbBlockBegin
  2
SW_CENTERMARKSYMBOL_6
 70
     0
 71
     0
 10
0.0
 20
0.0
 30
0.0
  3
SW_CENTERMARKSYMBOL_6
  1

  0
LINE
  5
15E
330
15B
100
AcDbEntity
  8
0
  6
Continuous
 62
     0
370
     0
100
AcDbLine
 10
0.0
 20
0.0
 30
0.0
 11
0.0
 21
2.5
 31
0.0
  0
LINE
  5
15F
330
15B
100
AcDbEntity
  8
0
  6
Continuous
 62
     0
370
     0
100
AcDbLine
 10
0.0
 20
0.0
 30
0.0
 11
-2.5
 21
0.0
 31
0.0
  0
LINE
  5
160
330
15B
100
AcDbEntity
  8
0
  6
Continuous
 62
     0
370
     0
100
AcDbLine
 10
0.0
 20
0.0
 30
0.0
 11
0.0
 21
-2.5
 31
0.0
  0
LINE
  5
161
330
15B
100
AcDbEntity
  8
0
  6
Continuous
 62
     0
370
     0
100
AcDbLine
 10
0.0
 20
0.0
 30
0.0
 11
2.5
 21
0.0
 31
0.0
  0
LINE
  5
162
330
15B
100
AcDbEntity
  8
0
  6
Continuous
 62
     0
370
     0
100
AcDbLine
 10
0.0
 20
2.5
 30
0.0
 11
0.0
 21
2.9
 31
0.0
  0
LINE
  5
163
330
15B
100
AcDbEntity
  8
0
  6
Continuous
 62
     0
370
     0
100
AcDbLine
 10
-2.5
 20
0.0
 30
0.0
 11
-2.9
 21
0.0
 31
0.0
  0
LINE
  5
164
330
15B
100
AcDbEntity
  8
0
  6
Continuous
 62
     0
370
     0
100
AcDbLine
 10
0.0
 20
-2.5
 30
0.0
 11
0.0
 21
-2.9
 31
0.0
  0
LINE
  5
165
330
15B
100
AcDbEntity
  8
0
  6
Continuous
 62
     0
370
     0
100
AcDbLine
 10
2.5
 20
0.0
 30
0.0
 11
2.9
 21
0.0
 31
0.0
  0
ENDBLK
  5
15D
330
15B
100
AcDbEntity
  8
0
100
AcDbBlockEnd
  0
BLOCK
  5
168
330
167
100
AcDbEntity
  8
0
100
AcDbBlockBegin
  2
SW_CENTERMARKSYMBOL_7
 70
     0
 71
     0
 10
0.0
 20
0.0
 30
0.0
  3
SW_CENTERMARKSYMBOL_7
  1

  0
LINE
  5
16A
330
167
100
AcDbEntity
  8
0
  6
Continuous
 62
     0
370
     0
100
AcDbLine
 10
0.0
 20
0.0
 30
0.0
 11
0.0
 21
2.5
 31
0.0
  0
LINE
  5
16B
330
167
100
AcDbEntity
  8
0
  6
Continuous
 62
     0
370
     0
100
AcDbLine
 10
0.0
 20
0.0
 30
0.0
 11
-2.5
 21
0.0
 31
0.0
  0
LINE
  5
16C
330
167
100
AcDbEntity
  8
0
  6
Continuous
 62
     0
370
     0
100
AcDbLine
 10
0.0
 20
0.0
 30
0.0
 11
0.0
 21
-2.5
 31
0.0
  0
LINE
  5
16D
330
167
100
AcDbEntity
  8
0
  6
Continuous
 62
     0
370
     0
100
AcDbLine
 10
0.0
 20
0.0
 30
0.0
 11
2.5
 21
0.0
 31
0.0
  0
LINE
  5
16E
330
167
100
AcDbEntity
  8
0
  6
Continuous
 62
     0
370
     0
100
AcDbLine
 10
0.0
 20
2.5
 30
0.0
 11
0.0
 21
4.65
 31
0.0
  0
LINE
  5
16F
330
167
100
AcDbEntity
  8
0
  6
Continuous
 62
     0
370
     0
100
AcDbLine
 10
-2.5
 20
0.0
 30
0.0
 11
-4.65
 21
0.0
 31
0.0
  0
LINE
  5
170
330
167
100
AcDbEntity
  8
0
  6
Continuous
 62
     0
370
     0
100
AcDbLine
 10
0.0
 20
-2.5
 30
0.0
 11
0.0
 21
-4.65
 31
0.0
  0
LINE
  5
171
330
167
100
AcDbEntity
  8
0
  6
Continuous
 62
     0
370
     0
100
AcDbLine
 10
2.5
 20
0.0
 30
0.0
 11
4.65
 21
0.0
 31
0.0
  0
ENDBLK
  5
169
330
167
100
AcDbEntity
  8
0
100
AcDbBlockEnd
  0
BLOCK
  5
174
330
173
100
AcDbEntity
  8
0
100
AcDbBlockBegin
  2
SW_CENTERMARKSYMBOL_8
 70
     0
 71
     0
 10
0.0
 20
0.0
 30
0.0
  3
SW_CENTERMARKSYMBOL_8
  1

  0
LINE
  5
176
330
173
100
AcDbEntity
  8
0
  6
Continuous
 62
     0
370
     0
100
AcDbLine
 10
0.0
 20
0.0
 30
0.0
 11
0.0
 21
2.5
 31
0.0
  0
LINE
  5
177
330
173
100
AcDbEntity
  8
0
  6
Continuous
 62
     0
370
     0
100
AcDbLine
 10
0.0
 20
0.0
 30
0.0
 11
-2.5
 21
0.0
 31
0.0
  0
LINE
  5
178
330
173
100
AcDbEntity
  8
0
  6
Continuous
 62
     0
370
     0
100
AcDbLine
 10
0.0
 20
0.0
 30
0.0
 11
0.0
 21
-2.5
 31
0.0
  0
LINE
  5
179
330
173
100
AcDbEntity
  8
0
  6
Continuous
 62
     0
370
     0
100
AcDbLine
 10
0.0
 20
0.0
 30
0.0
 11
2.5
 21
0.0
 31
0.0
  0
LINE
  5
17A
330
173
100
AcDbEntity
  8
0
  6
Continuous
 62
     0
370
     0
100
AcDbLine
 10
0.0
 20
2.5
 30
0.0
 11
0.0
 21
4.65
 31
0.0
  0
LINE
  5
17B
330
173
100
AcDbEntity
  8
0
  6
Continuous
 62
     0
370
     0
100
AcDbLine
 10
-2.5
 20
0.0
 30
0.0
 11
-4.65
 21
0.0
 31
0.0
  0
LINE
  5
17C
330
173
100
AcDbEntity
  8
0
  6
Continuous
 62
     0
370
     0
100
AcDbLine
 10
0.0
 20
-2.5
 30
0.0
 11
0.0
 21
-4.65
 31
0.0
  0
LINE
  5
17D
330
173
100
AcDbEntity
  8
0
  6
Continuous
 62
     0
370
     0
100
AcDbLine
 10
2.5
 20
0.0
 30
0.0
 11
4.65
 21
0.0
 31
0.0
  0
ENDBLK
  5
175
330
173
100
AcDbEntity
  8
0
100
AcDbBlockEnd
  0
BLOCK
  5
180
330
17F
100
AcDbEntity
  8
0
100
AcDbBlockBegin
  2
SW_CENTERMARKSYMBOL_9
 70
     0
 71
     0
 10
0.0
 20
0.0
 30
0.0
  3
SW_CENTERMARKSYMBOL_9
  1

  0
LINE
  5
182
330
17F
100
AcDbEntity
  8
0
  6
Continuous
 62
     0
370
     0
100
AcDbLine
 10
0.0
 20
0.0
 30
0.0
 11
0.0
 21
2.5
 31
0.0
  0
LINE
  5
183
330
17F
100
AcDbEntity
  8
0
  6
Continuous
 62
     0
370
     0
100
AcDbLine
 10
0.0
 20
0.0
 30
0.0
 11
-2.5
 21
0.0
 31
0.0
  0
LINE
  5
184
330
17F
100
AcDbEntity
  8
0
  6
Continuous
 62
     0
370
     0
100
AcDbLine
 10
0.0
 20
0.0
 30
0.0
 11
0.0
 21
-2.5
 31
0.0
  0
LINE
  5
185
330
17F
100
AcDbEntity
  8
0
  6
Continuous
 62
     0
370
     0
100
AcDbLine
 10
0.0
 20
0.0
 30
0.0
 11
2.5
 21
0.0
 31
0.0
  0
LINE
  5
186
330
17F
100
AcDbEntity
  8
0
  6
Continuous
 62
     0
370
     0
100
AcDbLine
 10
0.0
 20
2.5
 30
0.0
 11
0.0
 21
4.65
 31
0.0
  0
LINE
  5
187
330
17F
100
AcDbEntity
  8
0
  6
Continuous
 62
     0
370
     0
100
AcDbLine
 10
-2.5
 20
0.0
 30
0.0
 11
-4.65
 21
0.0
 31
0.0
  0
LINE
  5
188
330
17F
100
AcDbEntity
  8
0
  6
Continuous
 62
     0
370
     0
100
AcDbLine
 10
0.0
 20
-2.5
 30
0.0
 11
0.0
 21
-4.65
 31
0.0
  0
LINE
  5
189
330
17F
100
AcDbEntity
  8
0
  6
Continuous
 62
     0
370
     0
100
AcDbLine
 10
2.5
 20
0.0
 30
0.0
 11
4.65
 21
0.0
 31
0.0
  0
ENDBLK
  5
181
330
17F
100
AcDbEntity
  8
0
100
AcDbBlockEnd
  0
BLOCK
  5
18C
330
18B
100
AcDbEntity
  8
0
100
AcDbBlockBegin
  2
SW_CENTERMARKSYMBOL_10
 70
     0
 71
     0
 10
0.0
 20
0.0
 30
0.0
  3
SW_CENTERMARKSYMBOL_10
  1

  0
LINE
  5
18E
330
18B
100
AcDbEntity
  8
0
  6
Continuous
 62
     0
370
     0
100
AcDbLine
 10
0.0
 20
0.0
 30
0.0
 11
0.0
 21
2.5
 31
0.0
  0
LINE
  5
18F
330
18B
100
AcDbEntity
  8
0
  6
Continuous
 62
     0
370
     0
100
AcDbLine
 10
0.0
 20
0.0
 30
0.0
 11
-2.5
 21
0.0
 31
0.0
  0
LINE
  5
190
330
18B
100
AcDbEntity
  8
0
  6
Continuous
 62
     0
370
     0
100
AcDbLine
 10
0.0
 20
0.0
 30
0.0
 11
0.0
 21
-2.5
 31
0.0
  0
LINE
  5
191
330
18B
100
AcDbEntity
  8
0
  6
Continuous
 62
     0
370
     0
100
AcDbLine
 10
0.0
 20
0.0
 30
0.0
 11
2.5
 21
0.0
 31
0.0
  0
LINE
  5
192
330
18B
100
AcDbEntity
  8
0
  6
Continuous
 62
     0
370
     0
100
AcDbLine
 10
0.0
 20
2.5
 30
0.0
 11
0.0
 21
4.65
 31
0.0
  0
LINE
  5
193
330
18B
100
AcDbEntity
  8
0
  6
Continuous
 62
     0
370
     0
100
AcDbLine
 10
-2.5
 20
0.0
 30
0.0
 11
-4.65
 21
0.0
 31
0.0
  0
LINE
  5
194
330
18B
100
AcDbEntity
  8
0
  6
Continuous
 62
     0
370
     0
100
AcDbLine
 10
0.0
 20
-2.5
 30
0.0
 11
0.0
 21
-4.65
 31
0.0
  0
LINE
  5
195
330
18B
100
AcDbEntity
  8
0
  6
Continuous
 62
     0
370
     0
100
AcDbLine
 10
2.5
 20
0.0
 30
0.0
 11
4.65
 21
0.0
 31
0.0
  0
ENDBLK
  5
18D
330
18B
100
AcDbEntity
  8
0
100
AcDbBlockEnd
  0
BLOCK
  5
198
330
197
100
AcDbEntity
  8
0
100
AcDbBlockBegin
  2
SW_CENTERMARKSYMBOL_11
 70
     0
 71
     0
 10
0.0
 20
0.0
 30
0.0
  3
SW_CENTERMARKSYMBOL_11
  1

  0
LINE
  5
19A
330
197
100
AcDbEntity
  8
0
  6
Continuous
 62
     0
370
     0
100
AcDbLine
 10
0.0
 20
0.0
 30
0.0
 11
0.0
 21
2.5
 31
0.0
  0
LINE
  5
19B
330
197
100
AcDbEntity
  8
0
  6
Continuous
 62
     0
370
     0
100
AcDbLine
 10
0.0
 20
0.0
 30
0.0
 11
-2.5
 21
0.0
 31
0.0
  0
LINE
  5
19C
330
197
100
AcDbEntity
  8
0
  6
Continuous
 62
     0
370
     0
100
AcDbLine
 10
0.0
 20
0.0
 30
0.0
 11
0.0
 21
-2.5
 31
0.0
  0
LINE
  5
19D
330
197
100
AcDbEntity
  8
0
  6
Continuous
 62
     0
370
     0
100
AcDbLine
 10
0.0
 20
0.0
 30
0.0
 11
2.5
 21
0.0
 31
0.0
  0
LINE
  5
19E
330
197
100
AcDbEntity
  8
0
  6
Continuous
 62
     0
370
     0
100
AcDbLine
 10
0.0
 20
2.5
 30
0.0
 11
0.0
 21
4.65
 31
0.0
  0
LINE
  5
19F
330
197
100
AcDbEntity
  8
0
  6
Continuous
 62
     0
370
     0
100
AcDbLine
 10
-2.5
 20
0.0
 30
0.0
 11
-4.65
 21
0.0
 31
0.0
  0
LINE
  5
1A0
330
197
100
AcDbEntity
  8
0
  6
Continuous
 62
     0
370
     0
100
AcDbLine
 10
0.0
 20
-2.5
 30
0.0
 11
0.0
 21
-4.65
 31
0.0
  0
LINE
  5
1A1
330
197
100
AcDbEntity
  8
0
  6
Continuous
 62
     0
370
     0
100
AcDbLine
 10
2.5
 20
0.0
 30
0.0
 11
4.65
 21
0.0
 31
0.0
  0
ENDBLK
  5
199
330
197
100
AcDbEntity
  8
0
100
AcDbBlockEnd
  0
BLOCK
  5
1A4
330
1A3
100
AcDbEntity
  8
0
100
AcDbBlockBegin
  2
SW_CENTERMARKSYMBOL_12
 70
     0
 71
     0
 10
0.0
 20
0.0
 30
0.0
  3
SW_CENTERMARKSYMBOL_12
  1

  0
LINE
  5
1A6
330
1A3
100
AcDbEntity
  8
0
  6
Continuous
 62
     0
370
     0
100
AcDbLine
 10
0.0
 20
0.0
 30
0.0
 11
0.0
 21
2.5
 31
0.0
  0
LINE
  5
1A7
330
1A3
100
AcDbEntity
  8
0
  6
Continuous
 62
     0
370
     0
100
AcDbLine
 10
0.0
 20
0.0
 30
0.0
 11
-2.5
 21
0.0
 31
0.0
  0
LINE
  5
1A8
330
1A3
100
AcDbEntity
  8
0
  6
Continuous
 62
     0
370
     0
100
AcDbLine
 10
0.0
 20
0.0
 30
0.0
 11
0.0
 21
-2.5
 31
0.0
  0
LINE
  5
1A9
330
1A3
100
AcDbEntity
  8
0
  6
Continuous
 62
     0
370
     0
100
AcDbLine
 10
0.0
 20
0.0
 30
0.0
 11
2.5
 21
0.0
 31
0.0
  0
LINE
  5
1AA
330
1A3
100
AcDbEntity
  8
0
  6
Continuous
 62
     0
370
     0
100
AcDbLine
 10
0.0
 20
2.5
 30
0.0
 11
0.0
 21
4.65
 31
0.0
  0
LINE
  5
1AB
330
1A3
100
AcDbEntity
  8
0
  6
Continuous
 62
     0
370
     0
100
AcDbLine
 10
-2.5
 20
0.0
 30
0.0
 11
-4.65
 21
0.0
 31
0.0
  0
LINE
  5
1AC
330
1A3
100
AcDbEntity
  8
0
  6
Continuous
 62
     0
370
     0
100
AcDbLine
 10
0.0
 20
-2.5
 30
0.0
 11
0.0
 21
-4.65
 31
0.0
  0
LINE
  5
1AD
330
1A3
100
AcDbEntity
  8
0
  6
Continuous
 62
     0
370
     0
100
AcDbLine
 10
2.5
 20
0.0
 30
0.0
 11
4.65
 21
0.0
 31
0.0
  0
ENDBLK
  5
1A5
330
1A3
100
AcDbEntity
  8
0
100
AcDbBlockEnd
  0
BLOCK
  5
1B0
330
1AF
100
AcDbEntity
  8
0
100
AcDbBlockBegin
  2
SW_CENTERMARKSYMBOL_13
 70
     0
 71
     0
 10
0.0
 20
0.0
 30
0.0
  3
SW_CENTERMARKSYMBOL_13
  1

  0
LINE
  5
1B2
330
1AF
100
AcDbEntity
  8
0
  6
Continuous
 62
     0
370
     0
100
AcDbLine
 10
0.0
 20
0.0
 30
0.0
 11
0.0
 21
2.5
 31
0.0
  0
LINE
  5
1B3
330
1AF
100
AcDbEntity
  8
0
  6
Continuous
 62
     0
370
     0
100
AcDbLine
 10
0.0
 20
0.0
 30
0.0
 11
-2.5
 21
0.0
 31
0.0
  0
LINE
  5
1B4
330
1AF
100
AcDbEntity
  8
0
  6
Continuous
 62
     0
370
     0
100
AcDbLine
 10
0.0
 20
0.0
 30
0.0
 11
0.0
 21
-2.5
 31
0.0
  0
LINE
  5
1B5
330
1AF
100
AcDbEntity
  8
0
  6
Continuous
 62
     0
370
     0
100
AcDbLine
 10
0.0
 20
0.0
 30
0.0
 11
2.5
 21
0.0
 31
0.0
  0
LINE
  5
1B6
330
1AF
100
AcDbEntity
  8
0
  6
Continuous
 62
     0
370
     0
100
AcDbLine
 10
0.0
 20
2.5
 30
0.0
 11
0.0
 21
4.5
 31
0.0
  0
LINE
  5
1B7
330
1AF
100
AcDbEntity
  8
0
  6
Continuous
 62
     0
370
     0
100
AcDbLine
 10
-2.5
 20
0.0
 30
0.0
 11
-4.5
 21
0.0
 31
0.0
  0
LINE
  5
1B8
330
1AF
100
AcDbEntity
  8
0
  6
Continuous
 62
     0
370
     0
100
AcDbLine
 10
0.0
 20
-2.5
 30
0.0
 11
0.0
 21
-4.5
 31
0.0
  0
LINE
  5
1B9
330
1AF
100
AcDbEntity
  8
0
  6
Continuous
 62
     0
370
     0
100
AcDbLine
 10
2.5
 20
0.0
 30
0.0
 11
4.5
 21
0.0
 31
0.0
  0
ENDBLK
  5
1B1
330
1AF
100
AcDbEntity
  8
0
100
AcDbBlockEnd
  0
BLOCK
  5
1BC
330
1BB
100
AcDbEntity
  8
0
100
AcDbBlockBegin
  2
SW_CENTERMARKSYMBOL_14
 70
     0
 71
     0
 10
0.0
 20
0.0
 30
0.0
  3
SW_CENTERMARKSYMBOL_14
  1

  0
LINE
  5
1BE
330
1BB
100
AcDbEntity
  8
0
  6
Continuous
 62
     0
370
     0
100
AcDbLine
 10
0.0
 20
0.0
 30
0.0
 11
0.0
 21
2.5
 31
0.0
  0
LINE
  5
1BF
330
1BB
100
AcDbEntity
  8
0
  6
Continuous
 62
     0
370
     0
100
AcDbLine
 10
0.0
 20
0.0
 30
0.0
 11
-2.5
 21
0.0
 31
0.0
  0
LINE
  5
1C0
330
1BB
100
AcDbEntity
  8
0
  6
Continuous
 62
     0
370
     0
100
AcDbLine
 10
0.0
 20
0.0
 30
0.0
 11
0.0
 21
-2.5
 31
0.0
  0
LINE
  5
1C1
330
1BB
100
AcDbEntity
  8
0
  6
Continuous
 62
     0
370
     0
100
AcDbLine
 10
0.0
 20
0.0
 30
0.0
 11
2.5
 21
0.0
 31
0.0
  0
LINE
  5
1C2
330
1BB
100
AcDbEntity
  8
0
  6
Continuous
 62
     0
370
     0
100
AcDbLine
 10
0.0
 20
2.5
 30
0.0
 11
0.0
 21
2.9
 31
0.0
  0
LINE
  5
1C3
330
1BB
100
AcDbEntity
  8
0
  6
Continuous
 62
     0
370
     0
100
AcDbLine
 10
-2.5
 20
0.0
 30
0.0
 11
-2.9
 21
0.0
 31
0.0
  0
LINE
  5
1C4
330
1BB
100
AcDbEntity
  8
0
  6
Continuous
 62
     0
370
     0
100
AcDbLine
 10
0.0
 20
-2.5
 30
0.0
 11
0.0
 21
-2.9
 31
0.0
  0
LINE
  5
1C5
330
1BB
100
AcDbEntity
  8
0
  6
Continuous
 62
     0
370
     0
100
AcDbLine
 10
2.5
 20
0.0
 30
0.0
 11
2.9
 21
0.0
 31
0.0
  0
ENDBLK
  5
1BD
330
1BB
100
AcDbEntity
  8
0
100
AcDbBlockEnd
  0
ENDSEC
  0
SECTION
  2
ENTITIES
  0
ARC
  5
2F
330
1F
100
AcDbEntity
  8
0
  6
Continuous
 62
     7
370
     0
100
AcDbCircle
 10
106.6521833353
 20
56.8999054808
 30
0.0
 40
1.649999999999998
100
AcDbArc
 50
193.9203983675
 51
261.4257519998
  0
LINE
  5
30
330
1F
100
AcDbEntity
  8
0
  6
Continuous
 62
     7
370
     0
100
AcDbLine
 10
105.0506423596
 20
56.5029590071
 30
0.0
 11
104.3561833096
 21
56.9039055761
 31
0.0
  0
LINE
  5
31
330
1F
100
AcDbEntity
  8
0
  6
Continuous
 62
     7
370
     0
100
AcDbLine
 10
104.3561833096
 20
56.9039055761
 30
0.0
 11
104.3561833096
 21
62.1039054761
 31
0.0
  0
LINE
  5
32
330
1F
100
AcDbEntity
  8
0
  6
Continuous
 62
     7
370
     0
100
AcDbLine
 10
104.3561833096
 20
62.1039054761
 30
0.0
 11
105.0506423596
 21
62.5048520452
 31
0.0
  0
ARC
  5
33
330
1F
100
AcDbEntity
  8
0
  6
Continuous
 62
     7
370
     0
100
AcDbCircle
 10
106.6521833353
 20
62.1079055714
 30
0.0
 40
1.649999999999986
100
AcDbArc
 50
98.5742477314
 51
166.0796016325
  0
LINE
  5
34
330
1F
100
AcDbEntity
  8
0
  6
Continuous
 62
     7
370
     0
100
AcDbLine
 10
106.4061833172
 20
63.7394643326
 30
0.0
 11
106.4061833172
 21
64.4039055726
 31
0.0
  0
LINE
  5
35
330
1F
100
AcDbEntity
  8
0
  6
Continuous
 62
     7
370
     0
100
AcDbLine
 10
106.4061833172
 20
64.4039055726
 30
0.0
 11
106.3011322872
 21
64.5089566026
 31
0.0
  0
LINE
  5
36
330
1F
100
AcDbEntity
  8
0
  6
Continuous
 62
     7
370
     0
100
AcDbLine
 10
106.3011322872
 20
64.5089566026
 30
0.0
 11
106.7686899546
 21
66.2539055726
 31
0.0
  0
LINE
  5
37
330
1F
100
AcDbEntity
  8
0
  6
Continuous
 62
     7
370
     0
100
AcDbLine
 10
106.7686899546
 20
66.2539055726
 30
0.0
 11
92.4436766646
 21
66.2539055726
 31
0.0
  0
LINE
  5
38
330
1F
100
AcDbEntity
  8
0
  6
Continuous
 62
     7
370
     0
100
AcDbLine
 10
92.4436766646
 20
66.2539055726
 30
0.0
 11
92.9112343319
 21
64.5089566026
 31
0.0
  0
LINE
  5
39
330
1F
100
AcDbEntity
  8
0
  6
Continuous
 62
     7
370
     0
100
AcDbLine
 10
92.9112343319
 20
64.5089566026
 30
0.0
 11
92.8061833019
 21
64.4039055726
 31
0.0
  0
LINE
  5
3A
330
1F
100
AcDbEntity
  8
0
  6
Continuous
 62
     7
370
     0
100
AcDbLine
 10
92.8061833019
 20
64.4039055726
 30
0.0
 11
92.8061833019
 21
63.7394643326
 31
0.0
  0
ARC
  5
3B
330
1F
100
AcDbEntity
  8
0
  6
Continuous
 62
     7
370
     0
100
AcDbCircle
 10
92.5601832838
 20
62.1079055714
 30
0.0
 40
1.649999999999986
100
AcDbArc
 50
13.9203983675
 51
81.4257522686
  0
LINE
  5
3C
330
1F
100
AcDbEntity
  8
0
  6
Continuous
 62
     7
370
     0
100
AcDbLine
 10
94.1617242596
 20
62.5048520452
 30
0.0
 11
94.8561833096
 21
62.1039054761
 31
0.0
  0
LINE
  5
3D
330
1F
100
AcDbEntity
  8
0
  6
Continuous
 62
     7
370
     0
100
AcDbLine
 10
94.8561833096
 20
62.1039054761
 30
0.0
 11
94.8561833096
 21
56.9039055761
 31
0.0
  0
LINE
  5
3E
330
1F
100
AcDbEntity
  8
0
  6
Continuous
 62
     7
370
     0
100
AcDbLine
 10
94.8561833096
 20
56.9039055761
 30
0.0
 11
94.1617242596
 21
56.5029590071
 31
0.0
  0
ARC
  5
3F
330
1F
100
AcDbEntity
  8
0
  6
Continuous
 62
     7
370
     0
100
AcDbCircle
 10
92.5601832838
 20
56.8999054808
 30
0.0
 40
1.649999999999998
100
AcDbArc
 50
278.5742480002
 51
346.0796016325
  0
LINE
  5
40
330
1F
100
AcDbEntity
  8
0
  6
Continuous
 62
     7
370
     0
100
AcDbLine
 10
92.8061833096
 20
55.2683467208
 30
0.0
 11
92.8061833096
 21
53.8038855808
 31
0.0
  0
LINE
  5
41
330
1F
100
AcDbEntity
  8
0
  6
Continuous
 62
     7
370
     0
100
AcDbLine
 10
83.4061833096
 20
55.9248855808
 30
0.0
 11
85.5271833096
 21
53.8038855808
 31
0.0
  0
LINE
  5
42
330
1F
100
AcDbEntity
  8
0
  6
Continuous
 62
     7
370
     0
100
AcDbLine
 10
83.4061833096
 20
72.0538855808
 30
0.0
 11
83.4061833096
 21
55.9248855808
 31
0.0
  0
ARC
  5
43
330
1F
100
AcDbEntity
  8
0
  6
Continuous
 62
     7
370
     0
100
AcDbCircle
 10
84.4061833096
 20
72.0538855808
 30
0.0
 40
1.0
100
AcDbArc
 50
90.0
 51
180.0
  0
LINE
  5
44
330
1F
100
AcDbEntity
  8
0
  6
Continuous
 62
     7
370
     0
100
AcDbLine
 10
94.3061833096
 20
73.0538855808
 30
0.0
 11
84.4061833096
 21
73.0538855808
 31
0.0
  0
LINE
  5
45
330
1F
100
AcDbEntity
  8
0
  6
Continuous
 62
     7
370
     0
100
AcDbLine
 10
94.5561833096
 20
73.3038855808
 30
0.0
 11
94.3061833096
 21
73.0538855808
 31
0.0
  0
LINE
  5
46
330
1F
100
AcDbEntity
  8
0
  6
Continuous
 62
     7
370
     0
100
AcDbLine
 10
104.6561833096
 20
73.3038855808
 30
0.0
 11
94.5561833096
 21
73.3038855808
 31
0.0
  0
LINE
  5
47
330
1F
100
AcDbEntity
  8
0
  6
Continuous
 62
     7
370
     0
100
AcDbLine
 10
104.9061833096
 20
73.0538855808
 30
0.0
 11
104.6561833096
 21
73.3038855808
 31
0.0
  0
LINE
  5
48
330
1F
100
AcDbEntity
  8
0
  6
Continuous
 62
     7
370
     0
100
AcDbLine
 10
114.8061833096
 20
73.0538855808
 30
0.0
 11
104.9061833096
 21
73.0538855808
 31
0.0
  0
ARC
  5
49
330
1F
100
AcDbEntity
  8
0
  6
Continuous
 62
     7
370
     0
100
AcDbCircle
 10
114.8061833096
 20
72.0538855808
 30
0.0
 40
1.000000000000014
100
AcDbArc
 50
0.0
 51
90.0
  0
LINE
  5
4A
330
1F
100
AcDbEntity
  8
0
  6
Continuous
 62
     7
370
     0
100
AcDbLine
 10
115.8061833096
 20
55.9248855808
 30
0.0
 11
115.8061833096
 21
72.0538855808
 31
0.0
  0
LINE
  5
4B
330
1F
100
AcDbEntity
  8
0
  6
Continuous
 62
     7
370
     0
100
AcDbLine
 10
113.6851833096
 20
53.8038855808
 30
0.0
 11
115.8061833096
 21
55.9248855808
 31
0.0
  0
LINE
  5
4C
330
1F
100
AcDbEntity
  8
0
  6
Continuous
 62
     7
370
     0
100
AcDbLine
 10
106.4061833096
 20
53.8038855808
 30
0.0
 11
113.6851833096
 21
53.8038855808
 31
0.0
  0
LINE
  5
4D
330
1F
100
AcDbEntity
  8
0
  6
Continuous
 62
     7
370
     0
100
AcDbLine
 10
106.4061833096
 20
53.8038855808
 30
0.0
 11
106.4061833096
 21
55.2683467208
 31
0.0
  0
CIRCLE
  5
4E
330
1F
100
AcDbEntity
  8
0
  6
Continuous
 62
     7
370
     0
100
AcDbCircle
 10
87.3311833096
 20
66.9538855808
 30
0.0
 40
1.324999999999989
  0
CIRCLE
  5
4F
330
1F
100
AcDbEntity
  8
0
  6
Continuous
 62
     7
370
     0
100
AcDbCircle
 10
111.8811833096
 20
66.9538855808
 30
0.0
 40
1.324999999999989
  0
CIRCLE
  5
50
330
1F
100
AcDbEntity
  8
0
  6
Continuous
 62
     7
370
     0
100
AcDbCircle
 10
99.6061833096
 20
70.4538855808
 30
0.0
 40
1.549999999999997
  0
LINE
  5
51
330
1F
100
AcDbEntity
  8
0
  6
Continuous
 62
     7
370
     0
100
AcDbLine
 10
85.5271833096
 20
53.8038855808
 30
0.0
 11
92.8061833096
 21
53.8038855808
 31
0.0
  0
CIRCLE
  5
52
330
1F
100
AcDbEntity
  8
0
  6
Continuous
 62
     7
370
     0
100
AcDbCircle
 10
111.8811833096
 20
66.9538855808
 30
0.0
 40
1.025000000000006
  0
CIRCLE
  5
53
330
1F
100
AcDbEntity
  8
0
  6
Continuous
 62
     7
370
     0
100
AcDbCircle
 10
87.3311833096
 20
66.9538855808
 30
0.0
 40
1.024999999999991
  0
CIRCLE
  5
54
330
1F
100
AcDbEntity
  8
0
  6
Continuous
 62
     7
370
     0
100
AcDbCircle
 10
99.6061833096
 20
70.4538855808
 30
0.0
 40
1.25
  0
LINE
  5
55
330
1F
100
AcDbEntity
  8
0
  6
Continuous
 62
     7
370
     0
100
AcDbLine
 10
76.5061833096
 20
68.6538855808
 30
0.0
 11
83.4061833096
 21
68.6538855808
 31
0.0
  0
LINE
  5
56
330
1F
100
AcDbEntity
  8
0
  6
Continuous
 62
     7
370
     0
100
AcDbLine
 10
85.1061833096
 20
73.6538855808
 30
0.0
 11
77.0061833096
 21
73.6538855808
 31
0.0
  0
LINE
  5
57
330
1F
100
AcDbEntity
  8
0
  6
Continuous
 62
     7
370
     0
100
AcDbLine
 10
94.6061833096
 20
73.6538855808
 30
0.0
 11
94.2061833096
 21
73.2538855808
 31
0.0
  0
LINE
  5
58
330
1F
100
AcDbEntity
  8
0
  6
Continuous
 62
     7
370
     0
100
AcDbLine
 10
104.6061833096
 20
73.6538855808
 30
0.0
 11
94.6061833096
 21
73.6538855808
 31
0.0
  0
LINE
  5
59
330
1F
100
AcDbEntity
  8
0
  6
Continuous
 62
     7
370
     0
100
AcDbLine
 10
113.7061833096
 20
73.2538855808
 30
0.0
 11
105.0061833096
 21
73.2538855808
 31
0.0
  0
LINE
  5
5A
330
1F
100
AcDbEntity
  8
0
  6
Continuous
 62
     7
370
     0
100
AcDbLine
 10
114.1061833096
 20
73.6538855808
 30
0.0
 11
113.7061833096
 21
73.2538855808
 31
0.0
  0
LINE
  5
5B
330
1F
100
AcDbEntity
  8
0
  6
Continuous
 62
     7
370
     0
100
AcDbLine
 10
122.2061833096
 20
73.6538855808
 30
0.0
 11
114.1061833096
 21
73.6538855808
 31
0.0
  0
LINE
  5
5C
330
1F
100
AcDbEntity
  8
0
  6
Continuous
 62
     7
370
     0
100
AcDbLine
 10
123.1061833096
 20
72.7538855808
 30
0.0
 11
122.2061833096
 21
73.6538855808
 31
0.0
  0
LINE
  5
5D
330
1F
100
AcDbEntity
  8
0
  6
Continuous
 62
     7
370
     0
100
AcDbLine
 10
123.1061833096
 20
68.6538855808
 30
0.0
 11
123.1061833096
 21
72.7538855808
 31
0.0
  0
LINE
  5
5E
330
1F
100
AcDbEntity
  8
0
  6
Continuous
 62
     7
370
     0
100
AcDbLine
 10
115.8061833096
 20
68.6538855808
 30
0.0
 11
123.1061833096
 21
68.6538855808
 31
0.0
  0
LINE
  5
5F
330
1F
100
AcDbEntity
  8
0
  6
Continuous
 62
     7
370
     0
100
AcDbLine
 10
114.9061833096
 20
55.0248855808
 30
0.0
 11
114.9061833096
 21
54.9538855808
 31
0.0
  0
LINE
  5
60
330
1F
100
AcDbEntity
  8
0
  6
Continuous
 62
     7
370
     0
100
AcDbLine
 10
113.7061833096
 20
53.7538855808
 30
0.0
 11
114.9061833096
 21
54.9538855808
 31
0.0
  0
LINE
  5
61
330
1F
100
AcDbEntity
  8
0
  6
Continuous
 62
     7
370
     0
100
AcDbLine
 10
106.4061833096
 20
53.7538855808
 30
0.0
 11
113.7061833096
 21
53.7538855808
 31
0.0
  0
LINE
  5
62
330
1F
100
AcDbEntity
  8
0
  6
Continuous
 62
     7
370
     0
100
AcDbLine
 10
85.5061833096
 20
53.7538855808
 30
0.0
 11
92.8061833096
 21
53.7538855808
 31
0.0
  0
LINE
  5
63
330
1F
100
AcDbEntity
  8
0
  6
Continuous
 62
     7
370
     0
100
AcDbLine
 10
84.3061833096
 20
54.9538855808
 30
0.0
 11
85.5061833096
 21
53.7538855808
 31
0.0
  0
LINE
  5
64
330
1F
100
AcDbEntity
  8
0
  6
Continuous
 62
     7
370
     0
100
AcDbLine
 10
84.3061833096
 20
54.9538855808
 30
0.0
 11
84.3061833096
 21
55.0248855808
 31
0.0
  0
LINE
  5
65
330
1F
100
AcDbEntity
  8
0
  6
Continuous
 62
     7
370
     0
100
AcDbLine
 10
94.2061833096
 20
73.2538855808
 30
0.0
 11
85.5061833096
 21
73.2538855808
 31
0.0
  0
LINE
  5
66
330
1F
100
AcDbEntity
  8
0
  6
Continuous
 62
     7
370
     0
100
AcDbLine
 10
76.1061833096
 20
69.0538855808
 30
0.0
 11
76.5061833096
 21
68.6538855808
 31
0.0
  0
LINE
  5
67
330
1F
100
AcDbEntity
  8
0
  6
Continuous
 62
     7
370
     0
100
AcDbLine
 10
76.1061833096
 20
72.7538855808
 30
0.0
 11
76.1061833096
 21
69.0538855808
 31
0.0
  0
LINE
  5
68
330
1F
100
AcDbEntity
  8
0
  6
Continuous
 62
     7
370
     0
100
AcDbLine
 10
77.0061833096
 20
73.6538855808
 30
0.0
 11
76.1061833096
 21
72.7538855808
 31
0.0
  0
LINE
  5
69
330
1F
100
AcDbEntity
  8
0
  6
Continuous
 62
     7
370
     0
100
AcDbLine
 10
105.0061833096
 20
73.2538855808
 30
0.0
 11
104.6061833096
 21
73.6538855808
 31
0.0
  0
LINE
  5
6A
330
1F
100
AcDbEntity
  8
0
  6
Continuous
 62
     7
370
     0
100
AcDbLine
 10
85.5061833096
 20
73.2538855808
 30
0.0
 11
85.1061833096
 21
73.6538855808
 31
0.0
  0
LINE
  5
6B
330
1F
100
AcDbEntity
  8
0
  6
Continuous
 62
     7
370
     0
100
AcDbLine
 10
106.4061833096
 20
53.7538855808
 30
0.0
 11
106.4061833096
 21
53.8038855808
 31
0.0
  0
LINE
  5
6C
330
1F
100
AcDbEntity
  8
0
  6
Continuous
 62
     7
370
     0
100
AcDbLine
 10
92.8061833096
 20
53.8038855808
 30
0.0
 11
92.8061833096
 21
53.7538855808
 31
0.0
  0
LINE
  5
6D
330
1F
100
AcDbEntity
  8
0
  6
Continuous
 62
     7
370
     0
100
AcDbLine
 10
80.6061833096
 20
58.6538855808
 30
0.0
 11
80.6061833096
 21
68.6538855808
 31
0.0
  0
LINE
  5
6E
330
1F
100
AcDbEntity
  8
0
  6
Continuous
 62
     7
370
     0
100
AcDbLine
 10
84.3061833096
 20
54.9538855808
 30
0.0
 11
80.6061833096
 21
58.6538855808
 31
0.0
  0
LINE
  5
6F
330
1F
100
AcDbEntity
  8
0
  6
Continuous
 62
     7
370
     0
100
AcDbLine
 10
118.6061833096
 20
58.6538855808
 30
0.0
 11
118.6061833096
 21
68.6538855808
 31
0.0
  0
LINE
  5
70
330
1F
100
AcDbEntity
  8
0
  6
Continuous
 62
     7
370
     0
100
AcDbLine
 10
118.6061833096
 20
58.6538855808
 30
0.0
 11
114.9061833096
 21
54.9538855808
 31
0.0
  0
LINE
  5
71
330
1F
100
AcDbEntity
  8
0
  6
Continuous
 62
     7
370
     0
100
AcDbLine
 10
76.5061833096
 20
62.7538855808
 30
0.0
 11
76.5061833096
 21
68.6538855808
 31
0.0
  0
LINE
  5
72
330
1F
100
AcDbEntity
  8
0
  6
Continuous
 62
     7
370
     0
100
AcDbLine
 10
80.6061833096
 20
58.6538855808
 30
0.0
 11
76.5061833096
 21
62.7538855808
 31
0.0
  0
LINE
  5
73
330
1F
100
AcDbEntity
  8
0
  6
Continuous
 62
     7
370
     0
100
AcDbLine
 10
123.1061833096
 20
63.1538855808
 30
0.0
 11
123.1061833096
 21
68.6538855808
 31
0.0
  0
LINE
  5
74
330
1F
100
AcDbEntity
  8
0
  6
Continuous
 62
     7
370
     0
100
AcDbLine
 10
123.1061833096
 20
63.1538855808
 30
0.0
 11
118.6061833096
 21
58.6538855808
 31
0.0
  0
INSERT
  5
80
330
1F
100
AcDbEntity
  8
0
  6
Continuous
 62
     7
370
     0
100
AcDbBlockReference
  2
SW_CENTERMARKSYMBOL_0
 10
111.8811833096
 20
66.9538855808
 30
0.0
  0
INSERT
  5
8C
330
1F
100
AcDbEntity
  8
0
  6
Continuous
 62
     7
370
     0
100
AcDbBlockReference
  2
SW_CENTERMARKSYMBOL_1
 10
87.3311833096
 20
66.9538855808
 30
0.0
  0
INSERT
  5
98
330
1F
100
AcDbEntity
  8
0
  6
Continuous
 62
     7
370
     0
100
AcDbBlockReference
  2
SW_CENTERMARKSYMBOL_2
 10
99.6061833096
 20
70.4538855808
 30
0.0
  0
ARC
  5
99
330
1F
100
AcDbEntity
  8
0
  6
Continuous
 62
     7
370
     0
100
AcDbCircle
 10
111.8811833096
 20
66.9538855808
 30
0.0
 40
1.250000000000003
100
AcDbArc
 50
255.0
 51
195.0
  0
ARC
  5
9A
330
1F
100
AcDbEntity
  8
0
  6
Continuous
 62
     7
370
     0
100
AcDbCircle
 10
111.8811833096
 20
66.9538855808
 30
0.0
 40
1.250000000000003
100
AcDbArc
 50
255.0
 51
195.0
  0
ARC
  5
9B
330
1F
100
AcDbEntity
  8
0
  6
Continuous
 62
     7
370
     0
100
AcDbCircle
 10
87.3311833096
 20
66.9538855808
 30
0.0
 40
1.250000000000003
100
AcDbArc
 50
255.0
 51
195.0
  0
ARC
  5
9C
330
1F
100
AcDbEntity
  8
0
  6
Continuous
 62
     7
370
     0
100
AcDbCircle
 10
87.3311833096
 20
66.9538855808
 30
0.0
 40
1.250000000000003
100
AcDbArc
 50
255.0
 51
195.0
  0
ARC
  5
9D
330
1F
100
AcDbEntity
  8
0
  6
Continuous
 62
     7
370
     0
100
AcDbCircle
 10
99.6061833096
 20
70.4538855808
 30
0.0
 40
1.500000000000007
100
AcDbArc
 50
255.0
 51
195.0
  0
ARC
  5
9E
330
1F
100
AcDbEntity
  8
0
  6
Continuous
 62
     7
370
     0
100
AcDbCircle
 10
99.6061833096
 20
70.4538855808
 30
0.0
 40
1.500000000000007
100
AcDbArc
 50
255.0
 51
195.0
  0
CIRCLE
  5
9F
330
1F
100
AcDbEntity
  8
0
  6
Continuous
 62
     7
370
     0
100
AcDbCircle
 10
200.2061833096
 20
70.4538855808
 30
0.0
 40
1.550000000000011
  0
LINE
  5
A0
330
1F
100
AcDbEntity
  8
0
  6
Continuous
 62
     7
370
     0
100
AcDbLine
 10
204.7061833096
 20
72.0538855808
 30
0.0
 11
195.2061833096
 21
72.0538855808
 31
0.0
  0
LINE
  5
A1
330
1F
100
AcDbEntity
  8
0
  6
Continuous
 62
     7
370
     0
100
AcDbLine
 10
204.7061833096
 20
55.9248855808
 30
0.0
 11
195.2061833096
 21
55.9248855808
 31
0.0
  0
LINE
  5
A2
330
1F
100
AcDbEntity
  8
0
  6
Continuous
 62
     7
370
     0
100
AcDbLine
 10
195.2061833096
 20
55.9248855808
 30
0.0
 11
195.2061833096
 21
68.6538855808
 31
0.0
  0
LINE
  5
A3
330
1F
100
AcDbEntity
  8
0
  6
Continuous
 62
     7
370
     0
100
AcDbLine
 10
204.7061833096
 20
55.9248855808
 30
0.0
 11
204.7061833096
 21
72.0538855808
 31
0.0
  0
LINE
  5
A4
330
1F
100
AcDbEntity
  8
0
  6
Continuous
 62
     7
370
     0
100
AcDbLine
 10
204.7061833096
 20
53.8038855808
 30
0.0
 11
195.2061833096
 21
53.8038855808
 31
0.0
  0
LINE
  5
A5
330
1F
100
AcDbEntity
  8
0
  6
Continuous
 62
     7
370
     0
100
AcDbLine
 10
195.2061833096
 20
55.0248855808
 30
0.0
 11
195.2061833096
 21
55.9248855808
 31
0.0
  0
LINE
  5
A6
330
1F
100
AcDbEntity
  8
0
  6
Continuous
 62
     7
370
     0
100
AcDbLine
 10
204.7061833096
 20
53.8038855808
 30
0.0
 11
204.7061833096
 21
55.9248855808
 31
0.0
  0
LINE
  5
A7
330
1F
100
AcDbEntity
  8
0
  6
Continuous
 62
     7
370
     0
100
AcDbLine
 10
204.7061833096
 20
73.0538855808
 30
0.0
 11
195.2061833096
 21
73.0538855808
 31
0.0
  0
LINE
  5
A8
330
1F
100
AcDbEntity
  8
0
  6
Continuous
 62
     7
370
     0
100
AcDbLine
 10
204.7061833096
 20
72.0538855808
 30
0.0
 11
204.7061833096
 21
73.0538855808
 31
0.0
  0
CIRCLE
  5
A9
330
1F
100
AcDbEntity
  8
0
  6
Continuous
 62
     7
370
     0
100
AcDbCircle
 10
200.2061833096
 20
70.4538855808
 30
0.0
 40
1.25
  0
LINE
  5
AA
330
1F
100
AcDbEntity
  8
0
  6
Continuous
 62
     7
370
     0
100
AcDbLine
 10
204.7061833096
 20
73.3038855808
 30
0.0
 11
195.2061833096
 21
73.3038855808
 31
0.0
  0
LINE
  5
AB
330
1F
100
AcDbEntity
  8
0
  6
Continuous
 62
     7
370
     0
100
AcDbLine
 10
204.7061833096
 20
73.0538855808
 30
0.0
 11
204.7061833096
 21
73.3038855808
 31
0.0
  0
LINE
  5
AC
330
1F
100
AcDbEntity
  8
0
  6
Continuous
 62
     7
370
     0
100
AcDbLine
 10
146.5061833096
 20
53.8038855808
 30
0.0
 11
156.0061833096
 21
53.8038855808
 31
0.0
  0
LINE
  5
AD
330
1F
100
AcDbEntity
  8
0
  6
Continuous
 62
     7
370
     0
100
AcDbLine
 10
146.5061833096
 20
53.8038855808
 30
0.0
 11
146.5061833096
 21
55.9248855808
 31
0.0
  0
LINE
  5
AE
330
1F
100
AcDbEntity
  8
0
  6
Continuous
 62
     7
370
     0
100
AcDbLine
 10
146.5061833096
 20
55.9248855808
 30
0.0
 11
156.0061833096
 21
55.9248855808
 31
0.0
  0
LINE
  5
AF
330
1F
100
AcDbEntity
  8
0
  6
Continuous
 62
     7
370
     0
100
AcDbLine
 10
156.0061833096
 20
55.0248855808
 30
0.0
 11
156.0061833096
 21
55.9248855808
 31
0.0
  0
LINE
  5
B0
330
1F
100
AcDbEntity
  8
0
  6
Continuous
 62
     7
370
     0
100
AcDbLine
 10
146.5061833096
 20
55.9248855808
 30
0.0
 11
146.5061833096
 21
72.0538855808
 31
0.0
  0
LINE
  5
B1
330
1F
100
AcDbEntity
  8
0
  6
Continuous
 62
     7
370
     0
100
AcDbLine
 10
146.5061833096
 20
72.0538855808
 30
0.0
 11
156.0061833096
 21
72.0538855808
 31
0.0
  0
LINE
  5
B2
330
1F
100
AcDbEntity
  8
0
  6
Continuous
 62
     7
370
     0
100
AcDbLine
 10
156.0061833096
 20
55.9248855808
 30
0.0
 11
156.0061833096
 21
68.6538855808
 31
0.0
  0
CIRCLE
  5
B3
330
1F
100
AcDbEntity
  8
0
  6
Continuous
 62
     7
370
     0
100
AcDbCircle
 10
151.0061833096
 20
70.4538855808
 30
0.0
 40
1.549999999999983
  0
LINE
  5
B4
330
1F
100
AcDbEntity
  8
0
  6
Continuous
 62
     7
370
     0
100
AcDbLine
 10
146.5061833096
 20
72.0538855808
 30
0.0
 11
146.5061833096
 21
73.0538855808
 31
0.0
  0
LINE
  5
B5
330
1F
100
AcDbEntity
  8
0
  6
Continuous
 62
     7
370
     0
100
AcDbLine
 10
146.5061833096
 20
73.0538855808
 30
0.0
 11
156.0061833096
 21
73.0538855808
 31
0.0
  0
CIRCLE
  5
B6
330
1F
100
AcDbEntity
  8
0
  6
Continuous
 62
     7
370
     0
100
AcDbCircle
 10
151.0061833096
 20
70.4538855808
 30
0.0
 40
1.249999999999972
  0
LINE
  5
B7
330
1F
100
AcDbEntity
  8
0
  6
Continuous
 62
     7
370
     0
100
AcDbLine
 10
146.5061833096
 20
73.3038855808
 30
0.0
 11
156.0061833096
 21
73.3038855808
 31
0.0
  0
LINE
  5
B8
330
1F
100
AcDbEntity
  8
0
  6
Continuous
 62
     7
370
     0
100
AcDbLine
 10
146.5061833096
 20
73.0538855808
 30
0.0
 11
146.5061833096
 21
73.3038855808
 31
0.0
  0
LINE
  5
B9
330
1F
100
AcDbEntity
  8
0
  6
Continuous
 62
     7
370
     0
100
AcDbLine
 10
156.0061833096
 20
53.7538855808
 30
0.0
 11
195.2061833096
 21
53.7538855808
 31
0.0
  0
LINE
  5
BA
330
1F
100
AcDbEntity
  8
0
  6
Continuous
 62
     7
370
     0
100
AcDbLine
 10
156.0061833096
 20
53.7538855808
 30
0.0
 11
156.0061833096
 21
54.9538855808
 31
0.0
  0
LINE
  5
BB
330
1F
100
AcDbEntity
  8
0
  6
Continuous
 62
     7
370
     0
100
AcDbLine
 10
160.6061833096
 20
54.9538855808
 30
0.0
 11
156.0061833096
 21
54.9538855808
 31
0.0
  0
ARC
  5
BC
330
1F
100
AcDbEntity
  8
0
  6
Continuous
 62
     7
370
     0
100
AcDbCircle
 10
160.6061833096
 20
58.6538855808
 30
0.0
 40
3.699999999999967
100
AcDbArc
 50
270.0
 51
360.0
  0
LINE
  5
BD
330
1F
100
AcDbEntity
  8
0
  6
Continuous
 62
     7
370
     0
100
AcDbLine
 10
164.3061833096
 20
63.1538855808
 30
0.0
 11
164.3061833096
 21
58.6538855808
 31
0.0
  0
LINE
  5
BE
330
1F
100
AcDbEntity
  8
0
  6
Continuous
 62
     7
370
     0
100
AcDbLine
 10
164.3061833096
 20
63.1538855808
 30
0.0
 11
186.9061833096
 21
63.1538855808
 31
0.0
  0
LINE
  5
BF
330
1F
100
AcDbEntity
  8
0
  6
Continuous
 62
     7
370
     0
100
AcDbLine
 10
186.9061833096
 20
58.6538855808
 30
0.0
 11
186.9061833096
 21
63.1538855808
 31
0.0
  0
ARC
  5
C0
330
1F
100
AcDbEntity
  8
0
  6
Continuous
 62
     7
370
     0
100
AcDbCircle
 10
190.6061833096
 20
58.6538855808
 30
0.0
 40
3.699999999999989
100
AcDbArc
 50
180.0
 51
270.0
  0
LINE
  5
C1
330
1F
100
AcDbEntity
  8
0
  6
Continuous
 62
     7
370
     0
100
AcDbLine
 10
195.2061833096
 20
54.9538855808
 30
0.0
 11
190.6061833096
 21
54.9538855808
 31
0.0
  0
LINE
  5
C2
330
1F
100
AcDbEntity
  8
0
  6
Continuous
 62
     7
370
     0
100
AcDbLine
 10
195.2061833096
 20
53.7538855808
 30
0.0
 11
195.2061833096
 21
54.9538855808
 31
0.0
  0
LINE
  5
C3
330
1F
100
AcDbEntity
  8
0
  6
Continuous
 62
     7
370
     0
100
AcDbLine
 10
156.0061833096
 20
72.7538855808
 30
0.0
 11
195.2061833096
 21
72.7538855808
 31
0.0
  0
LINE
  5
C4
330
1F
100
AcDbEntity
  8
0
  6
Continuous
 62
     7
370
     0
100
AcDbLine
 10
156.0061833096
 20
72.7538855808
 30
0.0
 11
156.0061833096
 21
73.6538855808
 31
0.0
  0
LINE
  5
C5
330
1F
100
AcDbEntity
  8
0
  6
Continuous
 62
     7
370
     0
100
AcDbLine
 10
156.0061833096
 20
73.6538855808
 30
0.0
 11
195.2061833096
 21
73.6538855808
 31
0.0
  0
LINE
  5
C6
330
1F
100
AcDbEntity
  8
0
  6
Continuous
 62
     7
370
     0
100
AcDbLine
 10
195.2061833096
 20
72.7538855808
 30
0.0
 11
195.2061833096
 21
73.6538855808
 31
0.0
  0
LINE
  5
C7
330
1F
100
AcDbEntity
  8
0
  6
Continuous
 62
     7
370
     0
100
AcDbLine
 10
164.3061833096
 20
63.1538855808
 30
0.0
 11
164.3061833096
 21
68.6538855808
 31
0.0
  0
LINE
  5
C8
330
1F
100
AcDbEntity
  8
0
  6
Continuous
 62
     7
370
     0
100
AcDbLine
 10
156.0061833096
 20
68.6538855808
 30
0.0
 11
164.3061833096
 21
68.6538855808
 31
0.0
  0
LINE
  5
C9
330
1F
100
AcDbEntity
  8
0
  6
Continuous
 62
     7
370
     0
100
AcDbLine
 10
156.0061833096
 20
68.6538855808
 30
0.0
 11
156.0061833096
 21
72.7538855808
 31
0.0
  0
LINE
  5
CA
330
1F
100
AcDbEntity
  8
0
  6
Continuous
 62
     7
370
     0
100
AcDbLine
 10
186.9061833096
 20
68.6538855808
 30
0.0
 11
195.2061833096
 21
68.6538855808
 31
0.0
  0
LINE
  5
CB
330
1F
100
AcDbEntity
  8
0
  6
Continuous
 62
     7
370
     0
100
AcDbLine
 10
186.9061833096
 20
63.1538855808
 30
0.0
 11
186.9061833096
 21
68.6538855808
 31
0.0
  0
LINE
  5
CC
330
1F
100
AcDbEntity
  8
0
  6
Continuous
 62
     7
370
     0
100
AcDbLine
 10
195.2061833096
 20
68.6538855808
 30
0.0
 11
195.2061833096
 21
72.7538855808
 31
0.0
  0
LINE
  5
CD
330
1F
100
AcDbEntity
  8
0
  6
Continuous
 62
     7
370
     0
100
AcDbLine
 10
190.6061833096
 20
54.9538855808
 30
0.0
 11
190.6061833096
 21
68.6538855808
 31
0.0
  0
LINE
  5
CE
330
1F
100
AcDbEntity
  8
0
  6
Continuous
 62
     7
370
     0
100
AcDbLine
 10
160.6061833096
 20
54.9538855808
 30
0.0
 11
160.6061833096
 21
68.6538855808
 31
0.0
  0
LINE
  5
CF
330
1F
100
AcDbEntity
  8
0
  6
Continuous
 62
     7
370
     0
100
AcDbLine
 10
195.2061833096
 20
55.0248855808
 30
0.0
 11
195.2061833096
 21
54.9538855808
 31
0.0
  0
LINE
  5
D0
330
1F
100
AcDbEntity
  8
0
  6
Continuous
 62
     7
370
     0
100
AcDbLine
 10
156.0061833096
 20
55.0248855808
 30
0.0
 11
156.0061833096
 21
54.9538855808
 31
0.0
  0
INSERT
  5
DC
330
1F
100
AcDbEntity
  8
0
  6
Continuous
 62
     7
370
     0
100
AcDbBlockReference
  2
SW_CENTERMARKSYMBOL_3
 10
151.0061833096
 20
70.4538855808
 30
0.0
  0
INSERT
  5
E8
330
1F
100
AcDbEntity
  8
0
  6
Continuous
 62
     7
370
     0
100
AcDbBlockReference
  2
SW_CENTERMARKSYMBOL_4
 10
200.2061833096
 20
70.4538855808
 30
0.0
  0
LINE
  5
E9
330
1F
100
AcDbEntity
  8
0
  6
HIDDEN
 62
     7
370
     0
100
AcDbLine
 10
146.5811833096
 20
68.2038855808
 30
0.0
 11
150.0061833096
 21
68.2038855808
 31
0.0
  0
LINE
  5
EA
330
1F
100
AcDbEntity
  8
0
  6
HIDDEN
 62
     7
370
     0
100
AcDbLine
 10
146.5811833096
 20
65.7038855808
 30
0.0
 11
150.0061833096
 21
65.7038855808
 31
0.0
  0
LINE
  5
EB
330
1F
100
AcDbEntity
  8
0
  6
HIDDEN
 62
     7
370
     0
100
AcDbLine
 10
150.0061833096
 20
65.7038855808
 30
0.0
 11
150.0061833096
 21
68.2038855808
 31
0.0
  0
LINE
  5
EC
330
1F
100
AcDbEntity
  8
0
  6
HIDDEN
 62
     7
370
     0
100
AcDbLine
 10
204.6311833096
 20
65.7038855808
 30
0.0
 11
201.2061833096
 21
65.7038855808
 31
0.0
  0
LINE
  5
ED
330
1F
100
AcDbEntity
  8
0
  6
HIDDEN
 62
     7
370
     0
100
AcDbLine
 10
204.6311833096
 20
68.2038855808
 30
0.0
 11
201.2061833096
 21
68.2038855808
 31
0.0
  0
LINE
  5
EE
330
1F
100
AcDbEntity
  8
0
  6
HIDDEN
 62
     7
370
     0
100
AcDbLine
 10
201.2061833096
 20
68.2038855808
 30
0.0
 11
201.2061833096
 21
65.7038855808
 31
0.0
  0
LINE
  5
EF
330
1F
100
AcDbEntity
  8
0
  6
HIDDEN
 62
     7
370
     0
100
AcDbLine
 10
146.5811833096
 20
68.2038855808
 30
0.0
 11
150.0061833096
 21
68.2038855808
 31
0.0
  0
LINE
  5
F0
330
1F
100
AcDbEntity
  8
0
  6
HIDDEN
 62
     7
370
     0
100
AcDbLine
 10
146.5811833096
 20
65.7038855808
 30
0.0
 11
150.0061833096
 21
65.7038855808
 31
0.0
  0
LINE
  5
F1
330
1F
100
AcDbEntity
  8
0
  6
HIDDEN
 62
     7
370
     0
100
AcDbLine
 10
150.0061833096
 20
65.7038855808
 30
0.0
 11
150.0061833096
 21
68.2038855808
 31
0.0
  0
LINE
  5
F2
330
1F
100
AcDbEntity
  8
0
  6
HIDDEN
 62
     7
370
     0
100
AcDbLine
 10
204.6311833096
 20
65.7038855808
 30
0.0
 11
201.2061833096
 21
65.7038855808
 31
0.0
  0
LINE
  5
F3
330
1F
100
AcDbEntity
  8
0
  6
HIDDEN
 62
     7
370
     0
100
AcDbLine
 10
204.6311833096
 20
68.2038855808
 30
0.0
 11
201.2061833096
 21
68.2038855808
 31
0.0
  0
LINE
  5
F4
330
1F
100
AcDbEntity
  8
0
  6
HIDDEN
 62
     7
370
     0
100
AcDbLine
 10
201.2061833096
 20
68.2038855808
 30
0.0
 11
201.2061833096
 21
65.7038855808
 31
0.0
  0
LINE
  5
F5
330
1F
100
AcDbEntity
  8
0
  6
HIDDEN
 62
     7
370
     0
100
AcDbLine
 10
146.5561833096
 20
71.9538855808
 30
0.0
 11
150.0061833096
 21
71.9538855808
 31
0.0
  0
LINE
  5
F6
330
1F
100
AcDbEntity
  8
0
  6
HIDDEN
 62
     7
370
     0
100
AcDbLine
 10
146.5561833096
 20
68.9538855808
 30
0.0
 11
150.0061833096
 21
68.9538855808
 31
0.0
  0
LINE
  5
F7
330
1F
100
AcDbEntity
  8
0
  6
HIDDEN
 62
     7
370
     0
100
AcDbLine
 10
150.0061833096
 20
68.9538855808
 30
0.0
 11
150.0061833096
 21
71.9538855808
 31
0.0
  0
LINE
  5
F8
330
1F
100
AcDbEntity
  8
0
  6
HIDDEN
 62
     7
370
     0
100
AcDbLine
 10
204.6561833096
 20
68.9538855808
 30
0.0
 11
201.2061833096
 21
68.9538855808
 31
0.0
  0
LINE
  5
F9
330
1F
100
AcDbEntity
  8
0
  6
HIDDEN
 62
     7
370
     0
100
AcDbLine
 10
204.6561833096
 20
71.9538855808
 30
0.0
 11
201.2061833096
 21
71.9538855808
 31
0.0
  0
LINE
  5
FA
330
1F
100
AcDbEntity
  8
0
  6
HIDDEN
 62
     7
370
     0
100
AcDbLine
 10
201.2061833096
 20
71.9538855808
 30
0.0
 11
201.2061833096
 21
68.9538855808
 31
0.0
  0
ARC
  5
FB
330
1F
100
AcDbEntity
  8
0
  6
HIDDEN
 62
     7
370
     0
100
AcDbCircle
 10
151.0061833096
 20
70.4538855808
 30
0.0
 40
1.500000000000007
100
AcDbArc
 50
255.0
 51
195.0
  0
ARC
  5
FC
330
1F
100
AcDbEntity
  8
0
  6
HIDDEN
 62
     7
370
     0
100
AcDbCircle
 10
200.2061833096
 20
70.4538855808
 30
0.0
 40
1.49999999999999
100
AcDbArc
 50
255.0
 51
195.0
  0
ARC
  5
FD
330
1F
100
AcDbEntity
  8
0
  6
Continuous
 62
     7
370
     0
100
AcDbCircle
 10
151.0061833096
 20
70.4538855808
 30
0.0
 40
1.49999999999999
100
AcDbArc
 50
255.0
 51
195.0
  0
ARC
  5
FE
330
1F
100
AcDbEntity
  8
0
  6
Continuous
 62
     7
370
     0
100
AcDbCircle
 10
200.2061833096
 20
70.4538855808
 30
0.0
 40
1.49999999999999
100
AcDbArc
 50
255.0
 51
195.0
  0
LINE
  5
FF
330
1F
100
AcDbEntity
  8
0
  6
Continuous
 62
     7
370
     0
100
AcDbLine
 10
104.6561833096
 20
155.2538855808
 30
0.0
 11
104.6561833096
 21
145.7538855808
 31
0.0
  0
LINE
  5
100
330
1F
100
AcDbEntity
  8
0
  6
Continuous
 62
     7
370
     0
100
AcDbLine
 10
104.9061833096
 20
155.2538855808
 30
0.0
 11
104.6561833096
 21
155.2538855808
 31
0.0
  0
LINE
  5
101
330
1F
100
AcDbEntity
  8
0
  6
Continuous
 62
     7
370
     0
100
AcDbLine
 10
104.9061833096
 20
155.2538855808
 30
0.0
 11
104.9061833096
 21
145.7538855808
 31
0.0
  0
LINE
  5
102
330
1F
100
AcDbEntity
  8
0
  6
Continuous
 62
     7
370
     0
100
AcDbLine
 10
94.3061833096
 20
155.2538855808
 30
0.0
 11
94.3061833096
 21
145.7538855808
 31
0.0
  0
LINE
  5
103
330
1F
100
AcDbEntity
  8
0
  6
Continuous
 62
     7
370
     0
100
AcDbLine
 10
94.5561833096
 20
155.2538855808
 30
0.0
 11
94.3061833096
 21
155.2538855808
 31
0.0
  0
LINE
  5
104
330
1F
100
AcDbEntity
  8
0
  6
Continuous
 62
     7
370
     0
100
AcDbLine
 10
94.5561833096
 20
155.2538855808
 30
0.0
 11
94.5561833096
 21
145.7538855808
 31
0.0
  0
LINE
  5
105
330
1F
100
AcDbEntity
  8
0
  6
Continuous
 62
     7
370
     0
100
AcDbLine
 10
104.6561833096
 20
155.2538855808
 30
0.0
 11
94.5561833096
 21
155.2538855808
 31
0.0
  0
CIRCLE
  5
106
330
1F
100
AcDbEntity
  8
0
  6
Continuous
 62
     7
370
     0
100
AcDbCircle
 10
99.6061833096
 20
149.1538855808
 30
0.0
 40
2.0
  0
LINE
  5
107
330
1F
100
AcDbEntity
  8
0
  6
Continuous
 62
     7
370
     0
100
AcDbLine
 10
114.8061833096
 20
155.2538855808
 30
0.0
 11
114.8061833096
 21
145.7538855808
 31
0.0
  0
LINE
  5
108
330
1F
100
AcDbEntity
  8
0
  6
Continuous
 62
     7
370
     0
100
AcDbLine
 10
115.8061833096
 20
155.2538855808
 30
0.0
 11
115.8061833096
 21
145.7538855808
 31
0.0
  0
LINE
  5
109
330
1F
100
AcDbEntity
  8
0
  6
Continuous
 62
     7
370
     0
100
AcDbLine
 10
115.8061833096
 20
155.2538855808
 30
0.0
 11
114.8061833096
 21
155.2538855808
 31
0.0
  0
LINE
  5
10A
330
1F
100
AcDbEntity
  8
0
  6
Continuous
 62
     7
370
     0
100
AcDbLine
 10
114.8061833096
 20
155.2538855808
 30
0.0
 11
104.9061833096
 21
155.2538855808
 31
0.0
  0
LINE
  5
10B
330
1F
100
AcDbEntity
  8
0
  6
Continuous
 62
     7
370
     0
100
AcDbLine
 10
83.4061833096
 20
155.2538855808
 30
0.0
 11
83.4061833096
 21
145.7538855808
 31
0.0
  0
LINE
  5
10C
330
1F
100
AcDbEntity
  8
0
  6
Continuous
 62
     7
370
     0
100
AcDbLine
 10
84.4061833096
 20
155.2538855808
 30
0.0
 11
84.4061833096
 21
145.7538855808
 31
0.0
  0
LINE
  5
10D
330
1F
100
AcDbEntity
  8
0
  6
Continuous
 62
     7
370
     0
100
AcDbLine
 10
84.4061833096
 20
155.2538855808
 30
0.0
 11
83.4061833096
 21
155.2538855808
 31
0.0
  0
LINE
  5
10E
330
1F
100
AcDbEntity
  8
0
  6
Continuous
 62
     7
370
     0
100
AcDbLine
 10
94.3061833096
 20
155.2538855808
 30
0.0
 11
84.4061833096
 21
155.2538855808
 31
0.0
  0
CIRCLE
  5
10F
330
1F
100
AcDbEntity
  8
0
  6
Continuous
 62
     7
370
     0
100
AcDbCircle
 10
99.6061833096
 20
148.3538855808
 30
0.0
 40
0.3999999999999915
  0
CIRCLE
  5
110
330
1F
100
AcDbEntity
  8
0
  6
Continuous
 62
     7
370
     0
100
AcDbCircle
 10
99.6061833096
 20
103.1538855808
 30
0.0
 40
2.0
  0
LINE
  5
111
330
1F
100
AcDbEntity
  8
0
  6
Continuous
 62
     7
370
     0
100
AcDbLine
 10
104.6561833096
 20
97.0538855808
 30
0.0
 11
104.6561833096
 21
106.5538855808
 31
0.0
  0
LINE
  5
112
330
1F
100
AcDbEntity
  8
0
  6
Continuous
 62
     7
370
     0
100
AcDbLine
 10
104.6561833096
 20
97.0538855808
 30
0.0
 11
94.5561833096
 21
97.0538855808
 31
0.0
  0
LINE
  5
113
330
1F
100
AcDbEntity
  8
0
  6
Continuous
 62
     7
370
     0
100
AcDbLine
 10
94.5561833096
 20
97.0538855808
 30
0.0
 11
94.5561833096
 21
106.5538855808
 31
0.0
  0
LINE
  5
114
330
1F
100
AcDbEntity
  8
0
  6
Continuous
 62
     7
370
     0
100
AcDbLine
 10
104.9061833096
 20
97.0538855808
 30
0.0
 11
104.9061833096
 21
106.5538855808
 31
0.0
  0
LINE
  5
115
330
1F
100
AcDbEntity
  8
0
  6
Continuous
 62
     7
370
     0
100
AcDbLine
 10
104.9061833096
 20
97.0538855808
 30
0.0
 11
104.6561833096
 21
97.0538855808
 31
0.0
  0
LINE
  5
116
330
1F
100
AcDbEntity
  8
0
  6
Continuous
 62
     7
370
     0
100
AcDbLine
 10
94.5561833096
 20
97.0538855808
 30
0.0
 11
94.3061833096
 21
97.0538855808
 31
0.0
  0
LINE
  5
117
330
1F
100
AcDbEntity
  8
0
  6
Continuous
 62
     7
370
     0
100
AcDbLine
 10
94.3061833096
 20
97.0538855808
 30
0.0
 11
94.3061833096
 21
106.5538855808
 31
0.0
  0
LINE
  5
118
330
1F
100
AcDbEntity
  8
0
  6
Continuous
 62
     7
370
     0
100
AcDbLine
 10
115.8061833096
 20
97.0538855808
 30
0.0
 11
115.8061833096
 21
106.5538855808
 31
0.0
  0
LINE
  5
119
330
1F
100
AcDbEntity
  8
0
  6
Continuous
 62
     7
370
     0
100
AcDbLine
 10
114.8061833096
 20
97.0538855808
 30
0.0
 11
114.8061833096
 21
106.5538855808
 31
0.0
  0
LINE
  5
11A
330
1F
100
AcDbEntity
  8
0
  6
Continuous
 62
     7
370
     0
100
AcDbLine
 10
115.8061833096
 20
97.0538855808
 30
0.0
 11
114.8061833096
 21
97.0538855808
 31
0.0
  0
LINE
  5
11B
330
1F
100
AcDbEntity
  8
0
  6
Continuous
 62
     7
370
     0
100
AcDbLine
 10
84.4061833096
 20
97.0538855808
 30
0.0
 11
84.4061833096
 21
106.5538855808
 31
0.0
  0
LINE
  5
11C
330
1F
100
AcDbEntity
  8
0
  6
Continuous
 62
     7
370
     0
100
AcDbLine
 10
94.3061833096
 20
97.0538855808
 30
0.0
 11
84.4061833096
 21
97.0538855808
 31
0.0
  0
LINE
  5
11D
330
1F
100
AcDbEntity
  8
0
  6
Continuous
 62
     7
370
     0
100
AcDbLine
 10
83.4061833096
 20
97.0538855808
 30
0.0
 11
83.4061833096
 21
106.5538855808
 31
0.0
  0
LINE
  5
11E
330
1F
100
AcDbEntity
  8
0
  6
Continuous
 62
     7
370
     0
100
AcDbLine
 10
84.4061833096
 20
97.0538855808
 30
0.0
 11
83.4061833096
 21
97.0538855808
 31
0.0
  0
LINE
  5
11F
330
1F
100
AcDbEntity
  8
0
  6
Continuous
 62
     7
370
     0
100
AcDbLine
 10
114.8061833096
 20
97.0538855808
 30
0.0
 11
104.9061833096
 21
97.0538855808
 31
0.0
  0
CIRCLE
  5
120
330
1F
100
AcDbEntity
  8
0
  6
Continuous
 62
     7
370
     0
100
AcDbCircle
 10
99.6061833096
 20
103.9538855808
 30
0.0
 40
0.3999999999999915
  0
LINE
  5
121
330
1F
100
AcDbEntity
  8
0
  6
Continuous
 62
     7
370
     0
100
AcDbLine
 10
114.1061833096
 20
106.5538855808
 30
0.0
 11
114.1061833096
 21
145.7538855808
 31
0.0
  0
LINE
  5
122
330
1F
100
AcDbEntity
  8
0
  6
Continuous
 62
     7
370
     0
100
AcDbLine
 10
114.1061833096
 20
106.5538855808
 30
0.0
 11
113.7061833096
 21
106.5538855808
 31
0.0
  0
LINE
  5
123
330
1F
100
AcDbEntity
  8
0
  6
Continuous
 62
     7
370
     0
100
AcDbLine
 10
113.7061833096
 20
106.5538855808
 30
0.0
 11
113.7061833096
 21
145.7538855808
 31
0.0
  0
LINE
  5
124
330
1F
100
AcDbEntity
  8
0
  6
Continuous
 62
     7
370
     0
100
AcDbLine
 10
114.1061833096
 20
145.7538855808
 30
0.0
 11
113.7061833096
 21
145.7538855808
 31
0.0
  0
LINE
  5
125
330
1F
100
AcDbEntity
  8
0
  6
Continuous
 62
     7
370
     0
100
AcDbLine
 10
85.5061833096
 20
106.5538855808
 30
0.0
 11
85.5061833096
 21
145.7538855808
 31
0.0
  0
LINE
  5
126
330
1F
100
AcDbEntity
  8
0
  6
Continuous
 62
     7
370
     0
100
AcDbLine
 10
85.5061833096
 20
106.5538855808
 30
0.0
 11
85.1061833096
 21
106.5538855808
 31
0.0
  0
LINE
  5
127
330
1F
100
AcDbEntity
  8
0
  6
Continuous
 62
     7
370
     0
100
AcDbLine
 10
85.1061833096
 20
106.5538855808
 30
0.0
 11
85.1061833096
 21
145.7538855808
 31
0.0
  0
LINE
  5
128
330
1F
100
AcDbEntity
  8
0
  6
Continuous
 62
     7
370
     0
100
AcDbLine
 10
85.5061833096
 20
145.7538855808
 30
0.0
 11
85.1061833096
 21
145.7538855808
 31
0.0
  0
LINE
  5
129
330
1F
100
AcDbEntity
  8
0
  6
Continuous
 62
     7
370
     0
100
AcDbLine
 10
105.0061833096
 20
106.5538855808
 30
0.0
 11
105.0061833096
 21
145.7538855808
 31
0.0
  0
LINE
  5
12A
330
1F
100
AcDbEntity
  8
0
  6
Continuous
 62
     7
370
     0
100
AcDbLine
 10
105.0061833096
 20
106.5538855808
 30
0.0
 11
104.6061833096
 21
106.5538855808
 31
0.0
  0
LINE
  5
12B
330
1F
100
AcDbEntity
  8
0
  6
Continuous
 62
     7
370
     0
100
AcDbLine
 10
104.6061833096
 20
106.5538855808
 30
0.0
 11
104.6061833096
 21
145.7538855808
 31
0.0
  0
LINE
  5
12C
330
1F
100
AcDbEntity
  8
0
  6
Continuous
 62
     7
370
     0
100
AcDbLine
 10
105.0061833096
 20
145.7538855808
 30
0.0
 11
104.6061833096
 21
145.7538855808
 31
0.0
  0
LINE
  5
12D
330
1F
100
AcDbEntity
  8
0
  6
Continuous
 62
     7
370
     0
100
AcDbLine
 10
104.6061833096
 20
106.5538855808
 30
0.0
 11
94.6061833096
 21
106.5538855808
 31
0.0
  0
LINE
  5
12E
330
1F
100
AcDbEntity
  8
0
  6
Continuous
 62
     7
370
     0
100
AcDbLine
 10
94.6061833096
 20
106.5538855808
 30
0.0
 11
94.6061833096
 21
145.7538855808
 31
0.0
  0
LINE
  5
12F
330
1F
100
AcDbEntity
  8
0
  6
Continuous
 62
     7
370
     0
100
AcDbLine
 10
104.6061833096
 20
145.7538855808
 30
0.0
 11
94.6061833096
 21
145.7538855808
 31
0.0
  0
CIRCLE
  5
130
330
1F
100
AcDbEntity
  8
0
  6
Continuous
 62
     7
370
     0
100
AcDbCircle
 10
99.6061833096
 20
139.1538855808
 30
0.0
 40
2.450000000000045
  0
CIRCLE
  5
131
330
1F
100
AcDbEntity
  8
0
  6
Continuous
 62
     7
370
     0
100
AcDbCircle
 10
99.6061833096
 20
113.1538855808
 30
0.0
 40
2.450000000000017
  0
LINE
  5
132
330
1F
100
AcDbEntity
  8
0
  6
Continuous
 62
     7
370
     0
100
AcDbLine
 10
94.6061833096
 20
106.5538855808
 30
0.0
 11
94.2061833096
 21
106.5538855808
 31
0.0
  0
LINE
  5
133
330
1F
100
AcDbEntity
  8
0
  6
Continuous
 62
     7
370
     0
100
AcDbLine
 10
94.2061833096
 20
106.5538855808
 30
0.0
 11
94.2061833096
 21
145.7538855808
 31
0.0
  0
LINE
  5
134
330
1F
100
AcDbEntity
  8
0
  6
Continuous
 62
     7
370
     0
100
AcDbLine
 10
94.6061833096
 20
145.7538855808
 30
0.0
 11
94.2061833096
 21
145.7538855808
 31
0.0
  0
LINE
  5
135
330
1F
100
AcDbEntity
  8
0
  6
Continuous
 62
     7
370
     0
100
AcDbLine
 10
122.2061833096
 20
106.5538855808
 30
0.0
 11
122.2061833096
 21
145.7538855808
 31
0.0
  0
LINE
  5
136
330
1F
100
AcDbEntity
  8
0
  6
Continuous
 62
     7
370
     0
100
AcDbLine
 10
122.2061833096
 20
106.5538855808
 30
0.0
 11
114.1061833096
 21
106.5538855808
 31
0.0
  0
LINE
  5
137
330
1F
100
AcDbEntity
  8
0
  6
Continuous
 62
     7
370
     0
100
AcDbLine
 10
122.2061833096
 20
145.7538855808
 30
0.0
 11
114.1061833096
 21
145.7538855808
 31
0.0
  0
CIRCLE
  5
138
330
1F
100
AcDbEntity
  8
0
  6
Continuous
 62
     7
370
     0
100
AcDbCircle
 10
118.6061833096
 20
141.1538855808
 30
0.0
 40
2.450000000000017
  0
CIRCLE
  5
139
330
1F
100
AcDbEntity
  8
0
  6
Continuous
 62
     7
370
     0
100
AcDbCircle
 10
118.6061833096
 20
111.1538855808
 30
0.0
 40
2.450000000000017
  0
LINE
  5
13A
330
1F
100
AcDbEntity
  8
0
  6
Continuous
 62
     7
370
     0
100
AcDbLine
 10
85.1061833096
 20
106.5538855808
 30
0.0
 11
77.0061833096
 21
106.5538855808
 31
0.0
  0
LINE
  5
13B
330
1F
100
AcDbEntity
  8
0
  6
Continuous
 62
     7
370
     0
100
AcDbLine
 10
77.0061833096
 20
106.5538855808
 30
0.0
 11
77.0061833096
 21
145.7538855808
 31
0.0
  0
LINE
  5
13C
330
1F
100
AcDbEntity
  8
0
  6
Continuous
 62
     7
370
     0
100
AcDbLine
 10
85.1061833096
 20
145.7538855808
 30
0.0
 11
77.0061833096
 21
145.7538855808
 31
0.0
  0
CIRCLE
  5
13D
330
1F
100
AcDbEntity
  8
0
  6
Continuous
 62
     7
370
     0
100
AcDbCircle
 10
80.6061833096
 20
141.1538855808
 30
0.0
 40
2.449999999999989
  0
CIRCLE
  5
13E
330
1F
100
AcDbEntity
  8
0
  6
Continuous
 62
     7
370
     0
100
AcDbCircle
 10
80.6061833096
 20
111.1538855808
 30
0.0
 40
2.449999999999989
  0
LINE
  5
13F
330
1F
100
AcDbEntity
  8
0
  6
Continuous
 62
     7
370
     0
100
AcDbLine
 10
123.1061833096
 20
106.5538855808
 30
0.0
 11
123.1061833096
 21
145.7538855808
 31
0.0
  0
LINE
  5
140
330
1F
100
AcDbEntity
  8
0
  6
Continuous
 62
     7
370
     0
100
AcDbLine
 10
123.1061833096
 20
106.5538855808
 30
0.0
 11
122.2061833096
 21
106.5538855808
 31
0.0
  0
LINE
  5
141
330
1F
100
AcDbEntity
  8
0
  6
Continuous
 62
     7
370
     0
100
AcDbLine
 10
123.1061833096
 20
145.7538855808
 30
0.0
 11
122.2061833096
 21
145.7538855808
 31
0.0
  0
LINE
  5
142
330
1F
100
AcDbEntity
  8
0
  6
Continuous
 62
     7
370
     0
100
AcDbLine
 10
77.0061833096
 20
106.5538855808
 30
0.0
 11
76.1061833096
 21
106.5538855808
 31
0.0
  0
LINE
  5
143
330
1F
100
AcDbEntity
  8
0
  6
Continuous
 62
     7
370
     0
100
AcDbLine
 10
76.1061833096
 20
106.5538855808
 30
0.0
 11
76.1061833096
 21
145.7538855808
 31
0.0
  0
LINE
  5
144
330
1F
100
AcDbEntity
  8
0
  6
Continuous
 62
     7
370
     0
100
AcDbLine
 10
77.0061833096
 20
145.7538855808
 30
0.0
 11
76.1061833096
 21
145.7538855808
 31
0.0
  0
CIRCLE
  5
145
330
1F
100
AcDbEntity
  8
0
  6
Continuous
 62
     7
370
     0
100
AcDbCircle
 10
80.6061833096
 20
141.1538855808
 30
0.0
 40
2.150000000000034
  0
CIRCLE
  5
146
330
1F
100
AcDbEntity
  8
0
  6
Continuous
 62
     7
370
     0
100
AcDbCircle
 10
118.6061833096
 20
141.1538855808
 30
0.0
 40
2.150000000000034
  0
CIRCLE
  5
147
330
1F
100
AcDbEntity
  8
0
  6
Continuous
 62
     7
370
     0
100
AcDbCircle
 10
99.6061833096
 20
139.1538855808
 30
0.0
 40
2.150000000000034
  0
CIRCLE
  5
148
330
1F
100
AcDbEntity
  8
0
  6
Continuous
 62
     7
370
     0
100
AcDbCircle
 10
99.6061833096
 20
113.1538855808
 30
0.0
 40
2.15000000000002
  0
CIRCLE
  5
149
330
1F
100
AcDbEntity
  8
0
  6
Continuous
 62
     7
370
     0
100
AcDbCircle
 10
80.6061833096
 20
111.1538855808
 30
0.0
 40
2.150000000000006
  0
CIRCLE
  5
14A
330
1F
100
AcDbEntity
  8
0
  6
Continuous
 62
     7
370
     0
100
AcDbCircle
 10
118.6061833096
 20
111.1538855808
 30
0.0
 40
2.150000000000006
  0
LINE
  5
14B
330
1F
100
AcDbEntity
  8
0
  6
Continuous
 62
     7
370
     0
100
AcDbLine
 10
113.7061833096
 20
106.5538855808
 30
0.0
 11
105.0061833096
 21
106.5538855808
 31
0.0
  0
LINE
  5
14C
330
1F
100
AcDbEntity
  8
0
  6
Continuous
 62
     7
370
     0
100
AcDbLine
 10
113.7061833096
 20
145.7538855808
 30
0.0
 11
105.0061833096
 21
145.7538855808
 31
0.0
  0
LINE
  5
14D
330
1F
100
AcDbEntity
  8
0
  6
Continuous
 62
     7
370
     0
100
AcDbLine
 10
94.2061833096
 20
106.5538855808
 30
0.0
 11
85.5061833096
 21
106.5538855808
 31
0.0
  0
LINE
  5
14E
330
1F
100
AcDbEntity
  8
0
  6
Continuous
 62
     7
370
     0
100
AcDbLine
 10
94.2061833096
 20
145.7538855808
 30
0.0
 11
85.5061833096
 21
145.7538855808
 31
0.0
  0
INSERT
  5
15A
330
1F
100
AcDbEntity
  8
0
  6
Continuous
 62
     7
370
     0
100
AcDbBlockReference
  2
SW_CENTERMARKSYMBOL_5
 10
99.6061833096
 20
103.1538855808
 30
0.0
  0
INSERT
  5
166
330
1F
100
AcDbEntity
  8
0
  6
Continuous
 62
     7
370
     0
100
AcDbBlockReference
  2
SW_CENTERMARKSYMBOL_6
 10
99.6061833096
 20
103.9538855808
 30
0.0
  0
INSERT
  5
172
330
1F
100
AcDbEntity
  8
0
  6
Continuous
 62
     7
370
     0
100
AcDbBlockReference
  2
SW_CENTERMARKSYMBOL_7
 10
118.6061833096
 20
141.1538855808
 30
0.0
  0
INSERT
  5
17E
330
1F
100
AcDbEntity
  8
0
  6
Continuous
 62
     7
370
     0
100
AcDbBlockReference
  2
SW_CENTERMARKSYMBOL_8
 10
80.6061833096
 20
111.1538855808
 30
0.0
  0
INSERT
  5
18A
330
1F
100
AcDbEntity
  8
0
  6
Continuous
 62
     7
370
     0
100
AcDbBlockReference
  2
SW_CENTERMARKSYMBOL_9
 10
99.6061833096
 20
113.1538855808
 30
0.0
  0
INSERT
  5
196
330
1F
100
AcDbEntity
  8
0
  6
Continuous
 62
     7
370
     0
100
AcDbBlockReference
  2
SW_CENTERMARKSYMBOL_10
 10
99.6061833096
 20
139.1538855808
 30
0.0
  0
INSERT
  5
1A2
330
1F
100
AcDbEntity
  8
0
  6
Continuous
 62
     7
370
     0
100
AcDbBlockReference
  2
SW_CENTERMARKSYMBOL_11
 10
118.6061833096
 20
111.1538855808
 30
0.0
  0
INSERT
  5
1AE
330
1F
100
AcDbEntity
  8
0
  6
Continuous
 62
     7
370
     0
100
AcDbBlockReference
  2
SW_CENTERMARKSYMBOL_12
 10
80.6061833096
 20
141.1538855808
 30
0.0
  0
INSERT
  5
1BA
330
1F
100
AcDbEntity
  8
0
  6
Continuous
 62
     7
370
     0
100
AcDbBlockReference
  2
SW_CENTERMARKSYMBOL_13
 10
99.6061833096
 20
149.1538855808
 30
0.0
  0
INSERT
  5
1C6
330
1F
100
AcDbEntity
  8
0
  6
Continuous
 62
     7
370
     0
100
AcDbBlockReference
  2
SW_CENTERMARKSYMBOL_14
 10
99.6061833096
 20
148.3538855808
 30
0.0
  0
ARC
  5
1C7
330
1F
100
AcDbEntity
  8
0
  6
Continuous
 62
     7
370
     0
100
AcDbCircle
 10
99.6061833096
 20
113.1538855808
 30
0.0
 40
2.499999999999993
100
AcDbArc
 50
255.0
 51
195.0
  0
ARC
  5
1C8
330
1F
100
AcDbEntity
  8
0
  6
Continuous
 62
     7
370
     0
100
AcDbCircle
 10
99.6061833096
 20
139.1538855808
 30
0.0
 40
2.500000000000007
100
AcDbArc
 50
255.0
 51
195.0
  0
ARC
  5
1C9
330
1F
100
AcDbEntity
  8
0
  6
Continuous
 62
     7
370
     0
100
AcDbCircle
 10
80.6061833096
 20
111.1538855808
 30
0.0
 40
2.499999999999996
100
AcDbArc
 50
255.0
 51
195.0
  0
ARC
  5
1CA
330
1F
100
AcDbEntity
  8
0
  6
Continuous
 62
     7
370
     0
100
AcDbCircle
 10
118.6061833096
 20
111.1538855808
 30
0.0
 40
2.499999999999996
100
AcDbArc
 50
255.0
 51
195.0
  0
ARC
  5
1CB
330
1F
100
AcDbEntity
  8
0
  6
Continuous
 62
     7
370
     0
100
AcDbCircle
 10
118.6061833096
 20
141.1538855808
 30
0.0
 40
2.499999999999993
100
AcDbArc
 50
255.0
 51
195.0
  0
ARC
  5
1CC
330
1F
100
AcDbEntity
  8
0
  6
Continuous
 62
     7
370
     0
100
AcDbCircle
 10
80.6061833096
 20
141.1538855808
 30
0.0
 40
2.499999999999993
100
AcDbArc
 50
255.0
 51
195.0
  0
LINE
  5
1CD
330
1F
100
AcDbEntity
  8
0
  6
Continuous
 62
     7
370
     0
100
AcDbLine
 10
193.0288248922
 20
152.4176043185
 30
0.0
 11
186.9427433077
 21
148.904184205
 31
0.0
  0
LINE
  5
1CE
330
1F
100
AcDbEntity
  8
0
  6
Continuous
 62
     7
370
     0
100
AcDbLine
 10
167.931518785
 20
112.3966594476
 30
0.0
 11
167.2805341115
 21
112.0208539949
 31
0.0
  0
LINE
  5
1CF
330
1F
100
AcDbEntity
  8
0
  6
Continuous
 62
     7
370
     0
100
AcDbLine
 10
158.5927246484
 20
132.5380667956
 30
0.0
 11
151.8752102271
 21
128.6601282645
 31
0.0
  0
LINE
  5
1D0
330
1F
100
AcDbEntity
  8
0
  6
Continuous
 62
     7
370
     0
100
AcDbLine
 10
158.9658512235
 20
110.6627597036
 30
0.0
 11
165.6833656447
 21
114.5406982348
 31
0.0
  0
LINE
  5
1D1
330
1F
100
AcDbEntity
  8
0
  6
Continuous
 62
     7
370
     0
100
AcDbLine
 10
165.6833656447
 20
114.5406982348
 30
0.0
 11
166.4064043606
 21
114.9580996008
 31
0.0
  0
LINE
  5
1D2
330
1F
100
AcDbEntity
  8
0
  6
Continuous
 62
     7
370
     0
100
AcDbLine
 10
209.0144227665
 20
121.6860228144
 30
0.0
 11
209.0144227665
 21
126.1199915926
 31
0.0
  0
LINE
  5
1D3
330
1F
100
AcDbEntity
  8
0
  6
Continuous
 62
     7
370
     0
100
AcDbLine
 10
208.3780266634
 20
121.3185197341
 30
0.0
 11
209.0144227665
 21
121.6860228144
 31
0.0
  0
ARC
  5
1D4
330
1F
100
AcDbEntity
  8
0
  6
Continuous
 62
     7
370
     0
100
AcDbCircle
 10
214.1967210864
 20
138.6640872482
 30
0.0
 40
1.536804807571996
100
AcDbArc
 50
2.6054784857
 51
57.39452166
  0
LWPOLYLINE
  5
1D5
330
1F
100
AcDbEntity
  8
0
  6
Continuous
 62
     7
370
     0
100
AcDbPolyline
 90
       16
 70
   128
 43
0.0
 10
213.6459721833
 20
136.2232808365
 10
213.6184927861
 20
136.4890483256
 10
213.5374325264
 20
136.7097620863
 10
213.4068561041
 20
136.8743546092
 10
213.2333111661
 20
136.9745725379
 10
213.0254999804
 20
137.005390527
 10
212.7938430675
 20
136.9652632338
 10
212.5499566724
 20
136.8562028083
 10
212.3060702773
 20
136.6836779957
 10
212.0744133644
 20
136.4563399105
 10
211.8666021787
 20
136.1855882335
 10
211.6930572408
 20
135.8849995845
 10
211.5624808184
 20
135.5696467333
 10
211.4814205587
 20
135.2553427888
 10
211.4539411616
 20
134.9578482632
 10
211.4711779499
 20
134.7442202894
  0
ARC
  5
1D6
330
1F
100
AcDbEntity
  8
0
  6
Continuous
 62
     7
370
     0
100
AcDbCircle
 10
211.3545186481
 20
136.2951432121
 30
0.0
 40
2.292580097811586
100
AcDbArc
 50
295.9165607746
 51
358.2037332591
  0
LINE
  5
1D7
330
1F
100
AcDbEntity
  8
0
  6
Continuous
 62
     7
370
     0
100
AcDbLine
 10
215.7319371878
 20
125.5639613456
 30
0.0
 11
215.7319371878
 21
138.7339481005
 31
0.0
  0
LINE
  5
1D8
330
1F
100
AcDbEntity
  8
0
  6
Continuous
 62
     7
370
     0
100
AcDbLine
 10
215.7319371878
 20
125.5639613456
 30
0.0
 11
209.0144227665
 21
121.6860228144
 31
0.0
  0
LINE
  5
1D9
330
1F
100
AcDbEntity
  8
0
  6
Continuous
 62
     7
370
     0
100
AcDbLine
 10
208.0244732728
 20
143.9999131218
 30
0.0
 11
201.4484031946
 21
140.2036286719
 31
0.0
  0
LINE
  5
1DA
330
1F
100
AcDbEntity
  8
0
  6
Continuous
 62
     7
370
     0
100
AcDbLine
 10
215.0248304066
 20
139.9586929683
 30
0.0
 11
208.0244732728
 21
143.9999131218
 31
0.0
  0
LWPOLYLINE
  5
1DB
330
1F
100
AcDbEntity
  8
0
  6
Continuous
 62
     7
370
     0
100
AcDbPolyline
 90
       14
 70
   128
 43
0.0
 10
213.2217081145
 20
136.2232808365
 10
213.1939392898
 20
135.9534184323
 10
213.1123776329
 20
135.6684512727
 10
212.9821479627
 20
135.3862848925
 10
212.8114330884
 20
135.1246488431
 10
212.6109596533
 20
134.8999826798
 10
212.3933241407
 20
134.7264030037
 10
212.1722013903
 20
134.6148164644
 10
211.9614853576
 20
134.5722344544
 10
211.774416106
 20
134.6013325582
 10
211.6227478845
 20
134.7002824347
 10
211.5160105654
 20
134.8628666995
 10
211.4609108468
 20
135.078869585
 10
211.4596544007
 20
135.0902061733
  0
LWPOLYLINE
  5
1DC
330
1F
100
AcDbEntity
  8
0
  6
Continuous
 62
     7
370
     0
100
AcDbPolyline
 90
        7
 70
   128
 43
0.0
 10
212.4380165209
 20
136.7849627042
 10
212.6109596533
 20
136.8414238297
 10
212.8114330884
 20
136.8482193676
 10
212.9821479627
 20
136.7836865167
 10
213.1123776329
 20
136.6518801132
 10
213.1939392898
 20
136.4610820382
 10
213.2217081145
 20
136.2232808365
  0
LINE
  5
1DD
330
1F
100
AcDbEntity
  8
0
  6
Continuous
 62
     7
370
     0
100
AcDbLine
 10
207.8476965775
 20
144.3060993388
 30
0.0
 11
201.2362567928
 21
140.4893963918
 31
0.0
  0
LINE
  5
1DE
330
1F
100
AcDbEntity
  8
0
  6
Continuous
 62
     7
370
     0
100
AcDbLine
 10
208.0244732728
 20
143.9999131218
 30
0.0
 11
207.8476965775
 21
144.3060993388
 31
0.0
  0
LINE
  5
1DF
330
1F
100
AcDbEntity
  8
0
  6
Continuous
 62
     7
370
     0
100
AcDbLine
 10
200.7059180875
 20
148.4289603035
 30
0.0
 11
194.2359312666
 21
144.6939164144
 31
0.0
  0
LWPOLYLINE
  5
1E0
330
1F
100
AcDbEntity
  8
0
  6
Continuous
 62
     7
370
     0
100
AcDbPolyline
 90
       32
 70
   128
 43
0.0
 10
198.5492424049
 20
144.6938931919
 10
198.2935123424
 20
144.5128395252
 10
198.1061499681
 20
144.3057743728
 10
197.9948259197
 20
144.0811750065
 10
197.9640978167
 20
143.8482365507
 10
198.0152236713
 20
143.6164955331
 10
198.146110385
 20
143.3954394582
 10
198.3513994404
 20
143.1941183877
 10
198.6226862794
 20
143.0207744299
 10
198.9488643869
 20
142.8825043068
 10
199.316579993
 20
142.7849688134
 10
199.7107787774
 20
142.7321610643
 10
200.1153221957
 20
142.7262430151
 10
200.5136481928
 20
142.7674569512
 10
200.8894492555
 20
142.8541155694
 10
201.2273400442
 20
142.9826710555
 10
201.5134872703
 20
143.147860333
 10
201.7361760327
 20
143.3429205333
 10
201.8862894273
 20
143.559865869
 10
201.9576817942
 20
143.7898145725
 10
201.9474303214
 20
144.0233525169
 10
201.8559547054
 20
144.2509186313
 10
201.6869999688
 20
144.4631963322
 10
201.4474831382
 20
144.6514949456
 10
201.1472100609
 20
144.8081055042
 10
200.7984739519
 20
144.9266163533
 10
200.4155521085
 20
145.0021756448
 10
200.0141213959
 20
145.0316899725
 10
199.6106164348
 20
145.0139510162
 10
199.2215567656
 20
144.949685011
 10
198.8628705368
 20
144.8415230146
 10
198.5492424049
 20
144.6938931919
  0
LINE
  5
1E1
330
1F
100
AcDbEntity
  8
0
  6
Continuous
 62
     7
370
     0
100
AcDbLine
 10
207.8476965775
 20
144.3060993388
 30
0.0
 11
200.7059180875
 21
148.4289603035
 31
0.0
  0
ARC
  5
1E2
330
1F
100
AcDbEntity
  8
0
  6
Continuous
 62
     7
370
     0
100
AcDbCircle
 10
199.1409554539
 20
142.7559748069
 30
0.0
 40
1.267916398542339
100
AcDbArc
 50
117.8190962559
 51
145.7691172471
  0
ARC
  5
1E3
330
1F
100
AcDbEntity
  8
0
  6
Continuous
 62
     7
370
     0
100
AcDbCircle
 10
199.9278049021
 20
141.5489210462
 30
0.0
 40
2.705924432570158
100
AcDbArc
 50
45.2074779696
 51
120.6279223224
  0
LINE
  5
1E4
330
1F
100
AcDbEntity
  8
0
  6
Continuous
 62
     7
370
     0
100
AcDbLine
 10
199.1149278299
 20
142.8976626458
 30
0.0
 11
199.0514576779
 21
142.8499357978
 31
0.0
  0
LWPOLYLINE
  5
1E5
330
1F
100
AcDbEntity
  8
0
  6
Continuous
 62
     7
370
     0
100
AcDbPolyline
 90
        8
 70
   128
 43
0.0
 10
199.7975599223
 20
142.7268884673
 10
199.7977705423
 20
142.7343810234
 10
199.7673223553
 20
142.8227484007
 10
199.6806132548
 20
142.8976626458
 10
199.5508439153
 20
142.9477187441
 10
199.3977705423
 20
142.9652961083
 10
199.2446971694
 20
142.9477187441
 10
199.1149278299
 20
142.8976626458
  0
LINE
  5
1E6
330
1F
100
AcDbEntity
  8
0
  6
Continuous
 62
     7
370
     0
100
AcDbLine
 10
214.2321637049
 20
124.6978790862
 30
0.0
 11
208.3780266634
 21
121.3183577073
 31
0.0
  0
LINE
  5
1E7
330
1F
100
AcDbEntity
  8
0
  6
Continuous
 62
     7
370
     0
100
AcDbLine
 10
214.2321637049
 20
124.6978790862
 30
0.0
 11
215.7319371878
 21
125.5639613456
 31
0.0
  0
LINE
  5
1E8
330
1F
100
AcDbEntity
  8
0
  6
Continuous
 62
     7
370
     0
100
AcDbLine
 10
200.5291126587
 20
148.326892702
 30
0.0
 11
193.5287842585
 21
152.368096268
 31
0.0
  0
LWPOLYLINE
  5
1E9
330
1F
100
AcDbEntity
  8
0
  6
Continuous
 62
     7
370
     0
100
AcDbPolyline
 90
        6
 70
   128
 43
0.0
 10
193.5287842585
 20
152.368096268
 10
193.3908345689
 20
152.432043326
 10
193.2581862084
 20
152.4621537289
 10
193.1359367793
 20
152.4572703509
 10
193.0287842585
 20
152.4175808574
 10
193.0288248922
 20
152.4176043185
  0
ARC
  5
1EA
330
1F
100
AcDbEntity
  8
0
  6
Continuous
 62
     7
370
     0
100
AcDbCircle
 10
169.5857411676
 20
107.1978958951
 30
0.0
 40
2.665737017844976
100
AcDbArc
 50
191.4445599555
 51
231.6437101702
  0
LINE
  5
1EB
330
1F
100
AcDbEntity
  8
0
  6
Continuous
 62
     7
370
     0
100
AcDbLine
 10
166.9730065816
 20
106.6689612757
 30
0.0
 11
166.4819498781
 21
107.2798315136
 31
0.0
  0
LINE
  5
1EC
330
1F
100
AcDbEntity
  8
0
  6
Continuous
 62
     7
370
     0
100
AcDbLine
 10
166.4819498781
 20
107.2798315136
 30
0.0
 11
166.4819498781
 21
111.5258436537
 31
0.0
  0
LINE
  5
1ED
330
1F
100
AcDbEntity
  8
0
  6
Continuous
 62
     7
370
     0
100
AcDbLine
 10
166.4819498781
 20
111.5258436537
 30
0.0
 11
166.9730065816
 21
111.5697518899
 31
0.0
  0
ARC
  5
1EE
330
1F
100
AcDbEntity
  8
0
  6
Continuous
 62
     7
370
     0
100
AcDbCircle
 10
167.6166857774
 20
111.4505897453
 30
0.0
 40
0.6546163180038103
100
AcDbArc
 50
61.2530038505
 51
169.5117680995
  0
LINE
  5
1EF
330
1F
100
AcDbEntity
  8
0
  6
Continuous
 62
     7
370
     0
100
AcDbLine
 10
167.931518785
 20
112.0245258925
 30
0.0
 11
167.931518785
 21
112.5670692821
 31
0.0
  0
LINE
  5
1F0
330
1F
100
AcDbEntity
  8
0
  6
Continuous
 62
     7
370
     0
100
AcDbLine
 10
167.931518785
 20
112.5670692821
 30
0.0
 11
167.8572364893
 21
112.6957299919
 31
0.0
  0
LINE
  5
1F1
330
1F
100
AcDbEntity
  8
0
  6
Continuous
 62
     7
370
     0
100
AcDbLine
 10
167.8572364893
 20
112.6957299919
 30
0.0
 11
168.1878496864
 21
113.9296931044
 31
0.0
  0
LINE
  5
1F2
330
1F
100
AcDbEntity
  8
0
  6
Continuous
 62
     7
370
     0
100
AcDbLine
 10
168.1878496864
 20
113.9296931044
 30
0.0
 11
158.0585356485
 21
119.7772216304
 31
0.0
  0
LINE
  5
1F3
330
1F
100
AcDbEntity
  8
0
  6
Continuous
 62
     7
370
     0
100
AcDbLine
 10
158.0585356485
 20
119.7772216304
 30
0.0
 11
158.3891488457
 21
118.1615406455
 31
0.0
  0
LINE
  5
1F4
330
1F
100
AcDbEntity
  8
0
  6
Continuous
 62
     7
370
     0
100
AcDbLine
 10
158.3891488457
 20
118.1615406455
 30
0.0
 11
158.31486655
 21
118.1186444487
 31
0.0
  0
LINE
  5
1F5
330
1F
100
AcDbEntity
  8
0
  6
Continuous
 62
     7
370
     0
100
AcDbLine
 10
158.31486655
 20
118.1186444487
 30
0.0
 11
158.31486655
 21
117.5761010592
 31
0.0
  0
ARC
  5
1F6
330
1F
100
AcDbEntity
  8
0
  6
Continuous
 62
     7
370
     0
100
AcDbCircle
 10
156.6606441692
 20
115.4857178042
 30
0.0
 40
2.665737015842386
100
AcDbArc
 50
11.4445599454
 51
51.6437103358
  0
LINE
  5
1F7
330
1F
100
AcDbEntity
  8
0
  6
Continuous
 62
     7
370
     0
100
AcDbLine
 10
159.2733787533
 20
116.0146524228
 30
0.0
 11
159.7644354568
 21
115.4037821849
 31
0.0
  0
LINE
  5
1F8
330
1F
100
AcDbEntity
  8
0
  6
Continuous
 62
     7
370
     0
100
AcDbLine
 10
159.7644354568
 20
115.4037821849
 30
0.0
 11
159.7644354568
 21
111.1577700447
 31
0.0
  0
LINE
  5
1F9
330
1F
100
AcDbEntity
  8
0
  6
Continuous
 62
     7
370
     0
100
AcDbLine
 10
159.7644354568
 20
111.1577700447
 30
0.0
 11
159.2733787533
 21
111.1138618086
 31
0.0
  0
ARC
  5
1FA
330
1F
100
AcDbEntity
  8
0
  6
Continuous
 62
     7
370
     0
100
AcDbCircle
 10
158.6296995584
 20
111.2330239523
 30
0.0
 40
0.6546163169846958
100
AcDbArc
 50
241.2530042543
 51
349.5117681593
  0
LINE
  5
1FB
330
1F
100
AcDbEntity
  8
0
  6
Continuous
 62
     7
370
     0
100
AcDbLine
 10
158.3148665554
 20
110.6590878037
 30
0.0
 11
158.3148665554
 21
109.4632955155
 31
0.0
  0
LINE
  5
1FC
330
1F
100
AcDbEntity
  8
0
  6
Continuous
 62
     7
370
     0
100
AcDbLine
 10
153.1678362951
 20
112.4346128385
 30
0.0
 11
158.3148665554
 21
109.4632955155
 31
0.0
  0
LINE
  5
1FD
330
1F
100
AcDbEntity
  8
0
  6
Continuous
 62
     7
370
     0
100
AcDbLine
 10
151.6680628122
 20
115.0322967031
 30
0.0
 11
153.1678362951
 21
112.4346128385
 31
0.0
  0
LINE
  5
1FE
330
1F
100
AcDbEntity
  8
0
  6
Continuous
 62
     7
370
     0
100
AcDbLine
 10
151.6680628122
 20
128.202283458
 30
0.0
 11
151.6680628122
 21
115.0322967031
 31
0.0
  0
ARC
  5
1FF
330
1F
100
AcDbEntity
  8
0
  6
Continuous
 62
     7
370
     0
100
AcDbCircle
 10
152.0991371797
 20
128.2722106549
 30
0.0
 40
0.4367091974284746
100
AcDbArc
 50
50.7967147643
 51
189.2140369905
  0
LINE
  5
200
330
1F
100
AcDbEntity
  8
0
  6
Continuous
 62
     7
370
     0
100
AcDbLine
 10
159.3755267272
 20
124.5694000604
 30
0.0
 11
152.3751695934
 21
128.610620214
 31
0.0
  0
LINE
  5
201
330
1F
100
AcDbEntity
  8
0
  6
Continuous
 62
     7
370
     0
100
AcDbLine
 10
159.5523034225
 20
124.6714842494
 30
0.0
 11
159.3755267272
 21
124.5694000604
 31
0.0
  0
LINE
  5
202
330
1F
100
AcDbEntity
  8
0
  6
Continuous
 62
     7
370
     0
100
AcDbLine
 10
166.6940819125
 20
120.5486232847
 30
0.0
 11
159.5523034225
 21
124.6714842494
 31
0.0
  0
LINE
  5
203
330
1F
100
AcDbEntity
  8
0
  6
Continuous
 62
     7
370
     0
100
AcDbLine
 10
166.8708586078
 20
120.2424370678
 30
0.0
 11
166.6940819125
 21
120.5486232847
 31
0.0
  0
LINE
  5
204
330
1F
100
AcDbEntity
  8
0
  6
Continuous
 62
     7
370
     0
100
AcDbLine
 10
173.8712157415
 20
116.2012169143
 30
0.0
 11
166.8708586078
 21
120.2424370678
 31
0.0
  0
ARC
  5
205
330
1F
100
AcDbEntity
  8
0
  6
Continuous
 62
     7
370
     0
100
AcDbCircle
 10
173.0431064213
 20
114.9066111942
 30
0.0
 40
1.53680480757202
100
AcDbArc
 50
2.6054784857
 51
57.39452166
  0
LINE
  5
206
330
1F
100
AcDbEntity
  8
0
  6
Continuous
 62
     7
370
     0
100
AcDbLine
 10
174.5783225227
 20
101.8064852916
 30
0.0
 11
174.5783225227
 21
114.9764720465
 31
0.0
  0
LINE
  5
207
330
1F
100
AcDbEntity
  8
0
  6
Continuous
 62
     7
370
     0
100
AcDbLine
 10
173.0785490398
 20
100.9404030321
 30
0.0
 11
174.5783225227
 21
101.8064852916
 31
0.0
  0
LINE
  5
208
330
1F
100
AcDbEntity
  8
0
  6
Continuous
 62
     7
370
     0
100
AcDbLine
 10
167.9315187795
 20
103.9117203551
 30
0.0
 11
173.0785490398
 21
100.9404030321
 31
0.0
  0
LINE
  5
209
330
1F
100
AcDbEntity
  8
0
  6
Continuous
 62
     7
370
     0
100
AcDbLine
 10
167.9315187795
 20
103.9117203551
 30
0.0
 11
167.9315187795
 21
105.1075126433
 31
0.0
  0
LWPOLYLINE
  5
20A
330
1F
100
AcDbEntity
  8
0
  6
Continuous
 62
     7
370
     0
100
AcDbPolyline
 90
       26
 70
   128
 43
0.0
 10
155.3803734135
 20
121.8948540238
 10
155.3509384592
 20
121.6427847501
 10
155.2644831029
 20
121.4405387906
 10
155.1264396525
 20
121.3008240029
 10
154.9454818858
 20
121.2324191809
 10
154.7329800446
 20
121.2396224511
 10
154.5022864013
 20
121.3219812056
 10
154.2678962858
 20
121.4743205409
 10
154.0445372911
 20
121.6870684164
 10
153.8462438844
 20
121.9468571005
 10
153.6854755697
 20
122.2373631149
 10
153.5723340113
 20
122.5403328982
 10
153.5139283097
 20
122.8367297447
 10
153.5139283097
 20
123.1079299504
 10
153.5723340113
 20
123.3368930091
 10
153.6854755697
 20
123.5092323297
 10
153.8462438844
 20
123.6141191989
 10
154.0445372911
 20
123.6449631889
 10
154.2678962858
 20
123.5998262583
 10
154.5022864013
 20
123.4815445267
 10
154.7329800446
 20
123.29755007
 10
154.9454818858
 20
123.0594039368
 10
155.1264396525
 20
122.7820697245
 10
155.2644831029
 20
122.4829733615
 10
155.3509384592
 20
122.1809081724
 10
155.3803734135
 20
121.8948540238
  0
LWPOLYLINE
  5
20B
330
1F
100
AcDbEntity
  8
0
  6
Continuous
 62
     7
370
     0
100
AcDbPolyline
 90
       26
 70
   128
 43
0.0
 10
172.7398448916
 20
111.8734444512
 10
172.7104099374
 20
111.6213751775
 10
172.623954581
 20
111.419129218
 10
172.4859111307
 20
111.2794144303
 10
172.3049533639
 20
111.2110096083
 10
172.0924515227
 20
111.2182128785
 10
171.8617578794
 20
111.300571633
 10
171.6273677639
 20
111.4529109683
 10
171.4040087693
 20
111.6656588438
 10
171.2057153626
 20
111.9254475279
 10
171.0449470478
 20
112.2159535422
 10
170.9318054895
 20
112.5189233255
 10
170.8733997878
 20
112.815320172
 10
170.8733997878
 20
113.0865203778
 10
170.9318054895
 20
113.3154834365
 10
171.0449470478
 20
113.4878227571
 10
171.2057153626
 20
113.5927096263
 10
171.4040087693
 20
113.6235536163
 10
171.6273677639
 20
113.5784166857
 10
171.8617578794
 20
113.460134954
 10
172.0924515227
 20
113.2761404974
 10
172.3049533639
 20
113.0379943642
 10
172.4859111307
 20
112.7606601519
 10
172.623954581
 20
112.4615637889
 10
172.7104099374
 20
112.1594985998
 10
172.7398448916
 20
111.8734444512
  0
LWPOLYLINE
  5
20C
330
1F
100
AcDbEntity
  8
0
  6
Continuous
 62
     7
370
     0
100
AcDbPolyline
 90
       29
 70
   128
 43
0.0
 10
164.2192081783
 20
119.6501961665
 10
164.1917287812
 20
119.3844286775
 10
164.1106685215
 20
119.1637149168
 10
163.9800920991
 20
118.9991223939
 10
163.8065471612
 20
118.8989044652
 10
163.5987359754
 20
118.8680864761
 10
163.3670790626
 20
118.9082137693
 10
163.1231926675
 20
119.0172741948
 10
162.8793062724
 20
119.1897990074
 10
162.6476493595
 20
119.4171370926
 10
162.4398381738
 20
119.6878887696
 10
162.2662932358
 20
119.9884774186
 10
162.1357168135
 20
120.3038302698
 10
162.0546565538
 20
120.6181342143
 10
162.0271771566
 20
120.9156287399
 10
162.0546565538
 20
121.1813962289
 10
162.1357168135
 20
121.4021099896
 10
162.2662932358
 20
121.5667025126
 10
162.4398381738
 20
121.6669204413
 10
162.6476493595
 20
121.6977384303
 10
162.8793062724
 20
121.6576111371
 10
163.1231926675
 20
121.5485507116
 10
163.3670790626
 20
121.376025899
 10
163.5987359754
 20
121.1486878138
 10
163.8065471612
 20
120.8779361369
 10
163.9800920991
 20
120.5773474878
 10
164.1106685215
 20
120.2619946366
 10
164.1917287812
 20
119.9476906922
 10
164.2192081783
 20
119.6501961665
  0
LINE
  5
20D
330
1F
100
AcDbEntity
  8
0
  6
Continuous
 62
     7
370
     0
100
AcDbLine
 10
174.5783225227
 20
114.9764720465
 30
0.0
 11
181.295836944
 21
118.8544105776
 31
0.0
  0
LINE
  5
20E
330
1F
100
AcDbEntity
  8
0
  6
Continuous
 62
     7
370
     0
100
AcDbLine
 10
173.8712157415
 20
116.2012169143
 30
0.0
 11
180.5887301628
 21
120.0791554454
 31
0.0
  0
ARC
  5
20F
330
1F
100
AcDbEntity
  8
0
  6
Continuous
 62
     7
370
     0
100
AcDbCircle
 10
179.7606208426
 20
118.7845497254
 30
0.0
 40
1.536804807572059
100
AcDbArc
 50
2.6054784857
 51
57.39452166
  0
LINE
  5
210
330
1F
100
AcDbEntity
  8
0
  6
Continuous
 62
     7
370
     0
100
AcDbLine
 10
174.5783225227
 20
101.8064852916
 30
0.0
 11
181.295836944
 21
105.6844238227
 31
0.0
  0
LINE
  5
211
330
1F
100
AcDbEntity
  8
0
  6
Continuous
 62
     7
370
     0
100
AcDbLine
 10
181.295836944
 20
105.6844238227
 30
0.0
 11
181.295836944
 21
118.8544105776
 31
0.0
  0
LWPOLYLINE
  5
212
330
1F
100
AcDbEntity
  8
0
  6
Continuous
 62
     7
370
     0
100
AcDbPolyline
 90
       29
 70
   128
 43
0.0
 10
176.6642875272
 20
114.8742087124
 10
176.6917669243
 20
115.171703238
 10
176.772827184
 20
115.4860071825
 10
176.9034036064
 20
115.8013600336
 10
177.0769485443
 20
116.1019486827
 10
177.2847597301
 20
116.3727003597
 10
177.5164166429
 20
116.6000384449
 10
177.760303038
 20
116.7725632575
 10
178.0041894331
 20
116.8816236829
 10
178.235846346
 20
116.9217509762
 10
178.4436575317
 20
116.8909329871
 10
178.6172024697
 20
116.7907150584
 10
178.747778892
 20
116.6261225355
 10
178.8288391517
 20
116.4054087747
 10
178.8563185489
 20
116.1396412857
 10
178.8288391517
 20
115.8421467601
 10
178.747778892
 20
115.5278428156
 10
178.6172024697
 20
115.2124899645
 10
178.4436575317
 20
114.9119013154
 10
178.235846346
 20
114.6411496384
 10
178.0041894331
 20
114.4138115532
 10
177.760303038
 20
114.2412867406
 10
177.5164166429
 20
114.1322263151
 10
177.2847597301
 20
114.0920990219
 10
177.0769485443
 20
114.122917011
 10
176.9034036064
 20
114.2231349397
 10
176.772827184
 20
114.3877274626
 10
176.6917669243
 20
114.6084412234
 10
176.6642875272
 20
114.8742087124
  0
LINE
  5
213
330
1F
100
AcDbEntity
  8
0
  6
Continuous
 62
     7
370
     0
100
AcDbLine
 10
166.8708586078
 20
120.2424370678
 30
0.0
 11
173.588373029
 21
124.1203755989
 31
0.0
  0
LINE
  5
214
330
1F
100
AcDbEntity
  8
0
  6
Continuous
 62
     7
370
     0
100
AcDbLine
 10
180.5887301628
 20
120.0791554454
 30
0.0
 11
173.588373029
 21
124.1203755989
 31
0.0
  0
LWPOLYLINE
  5
215
330
1F
100
AcDbEntity
  8
0
  6
Continuous
 62
     7
370
     0
100
AcDbPolyline
 90
       20
 70
   128
 43
0.0
 10
176.6700007664
 20
115.0065666221
 10
176.692056352
 20
114.8813299443
 10
176.7736180089
 20
114.6905318693
 10
176.903847679
 20
114.5587254658
 10
177.0745625533
 20
114.4941926149
 10
177.2750359884
 20
114.5009881528
 10
177.492671501
 20
114.578685091
 10
177.7137942514
 20
114.7224014451
 10
177.9245102841
 20
114.9231069879
 10
178.1115795357
 20
115.1681906522
 10
178.2632477572
 20
115.4422529299
 10
178.3699850764
 20
115.7280734802
 10
178.4250847949
 20
116.0076931467
 10
178.4250847949
 20
116.2635423974
 10
178.3699850764
 20
116.479545283
 10
178.2632477572
 20
116.6421295477
 10
178.1115795357
 20
116.7410794243
 10
177.9245102841
 20
116.770177528
 10
177.7137942514
 20
116.7275955181
 10
177.648362887
 20
116.7013231536
  0
LWPOLYLINE
  5
216
330
1F
100
AcDbEntity
  8
0
  6
Continuous
 62
     7
370
     0
100
AcDbPolyline
 90
       18
 70
   128
 43
0.0
 10
171.9159534883
 20
113.4230820761
 10
171.911912859
 20
113.4247572175
 10
171.7139740989
 20
113.4719099268
 10
171.5404275635
 20
113.4433036502
 10
171.4053329612
 20
113.3412558981
 10
171.319634853
 20
113.1740339726
 10
171.2902759902
 20
112.9551851994
 10
171.319634853
 20
112.7024394046
 10
171.4053329612
 20
112.4362725495
 10
171.5404275635
 20
112.1782478896
 10
171.7139740989
 20
111.9492690484
 10
171.911912859
 20
111.7678865298
 10
172.1182080228
 20
111.6487948666
 10
172.3161467829
 20
111.6016421573
 10
172.4896933182
 20
111.6302484339
 10
172.6247879206
 20
111.732296186
 10
172.7104860287
 20
111.8995181116
 10
172.7330208637
 20
112.007726512
  0
LINE
  5
217
330
1F
100
AcDbEntity
  8
0
  6
Continuous
 62
     7
370
     0
100
AcDbLine
 10
166.6940819125
 20
120.5486232847
 30
0.0
 11
173.4115963337
 21
124.4265618159
 31
0.0
  0
LINE
  5
218
330
1F
100
AcDbEntity
  8
0
  6
Continuous
 62
     7
370
     0
100
AcDbLine
 10
173.588373029
 20
124.1203755989
 30
0.0
 11
173.4115963337
 21
124.4265618159
 31
0.0
  0
LWPOLYLINE
  5
219
330
1F
100
AcDbEntity
  8
0
  6
Continuous
 62
     7
370
     0
100
AcDbPolyline
 90
       32
 70
   128
 43
0.0
 10
168.8507575951
 20
124.2836903963
 10
168.5371294632
 20
124.1360605736
 10
168.1784432344
 20
124.0278985773
 10
167.7893835652
 20
123.963632572
 10
167.3858786041
 20
123.9458936157
 10
166.9844478915
 20
123.9754079434
 10
166.6015260481
 20
124.0509672349
 10
166.2527899391
 20
124.169478084
 10
165.9525168618
 20
124.3260886426
 10
165.7130000312
 20
124.514387256
 10
165.5440452946
 20
124.7266649569
 10
165.4525696786
 20
124.9542310713
 10
165.4423182058
 20
125.1877690157
 10
165.5137105727
 20
125.4177177192
 10
165.6638239673
 20
125.6346630549
 10
165.8865127297
 20
125.8297232552
 10
166.1726599558
 20
125.9949125327
 10
166.5105507445
 20
126.1234680189
 10
166.8863518072
 20
126.210126637
 10
167.2846778043
 20
126.2513405731
 10
167.6892212226
 20
126.2454225239
 10
168.083420007
 20
126.1926147748
 10
168.4511356131
 20
126.0950792814
 10
168.7773137206
 20
125.9568091583
 10
169.0486005596
 20
125.7834652005
 10
169.253889615
 20
125.58214413
 10
169.3847763287
 20
125.3610880551
 10
169.4359021833
 20
125.1293470375
 10
169.4051740803
 20
124.8964085817
 10
169.2938500319
 20
124.6718092154
 10
169.1064876576
 20
124.464744063
 10
168.8507575951
 20
124.2836903963
  0
LINE
  5
21A
330
1F
100
AcDbEntity
  8
0
  6
Continuous
 62
     7
370
     0
100
AcDbLine
 10
159.5523034225
 20
124.6714842494
 30
0.0
 11
166.2698178438
 21
128.5494227806
 31
0.0
  0
LINE
  5
21B
330
1F
100
AcDbEntity
  8
0
  6
Continuous
 62
     7
370
     0
100
AcDbLine
 10
173.4115963337
 20
124.4265618159
 30
0.0
 11
166.2698178438
 21
128.5494227806
 31
0.0
  0
LWPOLYLINE
  5
21C
330
1F
100
AcDbEntity
  8
0
  6
Continuous
 62
     7
370
     0
100
AcDbPolyline
 90
       20
 70
   128
 43
0.0
 10
163.2351328186
 20
121.4773106077
 10
163.1697014541
 20
121.5035829723
 10
162.9589854214
 20
121.5461649822
 10
162.7719161698
 20
121.5170668785
 10
162.6202479483
 20
121.4181170019
 10
162.5135106291
 20
121.2555327372
 10
162.4584109106
 20
121.0395298516
 10
162.4584109106
 20
120.7836806009
 10
162.5135106291
 20
120.5040609344
 10
162.6202479483
 20
120.2182403841
 10
162.7719161698
 20
119.9441781064
 10
162.9589854214
 20
119.6990944421
 10
163.1697014541
 20
119.4983888992
 10
163.3908242045
 20
119.3546725452
 10
163.6084597171
 20
119.276975607
 10
163.8089331522
 20
119.270180069
 10
163.9796480265
 20
119.33471292
 10
164.1098776966
 20
119.4665193235
 10
164.1914393535
 20
119.6573173984
 10
164.2134949391
 20
119.7825540764
  0
LINE
  5
21D
330
1F
100
AcDbEntity
  8
0
  6
Continuous
 62
     7
370
     0
100
AcDbLine
 10
173.0785490398
 20
100.9404030321
 30
0.0
 11
179.7960634611
 21
104.8183415633
 31
0.0
  0
LINE
  5
21E
330
1F
100
AcDbEntity
  8
0
  6
Continuous
 62
     7
370
     0
100
AcDbLine
 10
179.7960634611
 20
104.8183415633
 30
0.0
 11
181.295836944
 21
105.6844238227
 31
0.0
  0
ARC
  5
21F
330
1F
100
AcDbEntity
  8
0
  6
Continuous
 62
     7
370
     0
100
AcDbCircle
 10
167.4365440327
 20
122.9092243971
 30
0.0
 40
2.584088507528743
100
AcDbArc
 50
43.6173250364
 51
136.3826749636
  0
LWPOLYLINE
  5
220
330
1F
100
AcDbEntity
  8
0
  6
Continuous
 62
     7
370
     0
100
AcDbPolyline
 90
       17
 70
   128
 43
0.0
 10
168.2850721701
 20
124.4468393186
 10
168.3717812707
 20
124.5217535637
 10
168.4022294577
 20
124.610120941
 10
168.3717812707
 20
124.6984883182
 10
168.2850721701
 20
124.7734025633
 10
168.1553028306
 20
124.8234586616
 10
168.0022294577
 20
124.8410360258
 10
167.8491560847
 20
124.8234586616
 10
167.7193867452
 20
124.7734025633
 10
167.6326776447
 20
124.6984883182
 10
167.6022294577
 20
124.610120941
 10
167.6326776447
 20
124.5217535637
 10
167.7193867452
 20
124.4468393186
 10
167.8491560847
 20
124.3967832204
 10
168.0022294577
 20
124.3792058562
 10
168.1553028306
 20
124.3967832204
 10
168.2850721701
 20
124.4468393186
  0
LINE
  5
221
330
1F
100
AcDbEntity
  8
0
  6
Continuous
 62
     7
370
     0
100
AcDbLine
 10
167.1400836167
 20
111.9057761739
 30
0.0
 11
166.4819498781
 21
111.5258436537
 31
0.0
  0
LINE
  5
222
330
1F
100
AcDbEntity
  8
0
  6
Continuous
 62
     7
370
     0
100
AcDbLine
 10
152.3751695934
 20
128.610620214
 30
0.0
 11
159.0926840147
 21
132.4885587451
 31
0.0
  0
LINE
  5
223
330
1F
100
AcDbEntity
  8
0
  6
Continuous
 62
     7
370
     0
100
AcDbLine
 10
166.0930124149
 20
128.4473551791
 30
0.0
 11
159.0926840147
 21
132.4885587451
 31
0.0
  0
LINE
  5
224
330
1F
100
AcDbEntity
  8
0
  6
Continuous
 62
     7
370
     0
100
AcDbLine
 10
159.6232146493
 20
118.8739516699
 30
0.0
 11
158.3891488457
 21
118.1615406455
 31
0.0
  0
LINE
  5
225
330
1F
100
AcDbEntity
  8
0
  6
Continuous
 62
     7
370
     0
100
AcDbLine
 10
161.9247908196
 20
117.5452800283
 30
0.0
 11
159.2733787533
 21
116.0146524228
 31
0.0
  0
LINE
  5
226
330
1F
100
AcDbEntity
  8
0
  6
Continuous
 62
     7
370
     0
100
AcDbLine
 10
160.0931339967
 20
118.602673005
 30
0.0
 11
158.31486655
 21
117.5761010592
 31
0.0
  0
LWPOLYLINE
  5
227
330
1F
100
AcDbEntity
  8
0
  6
Continuous
 62
     7
370
     0
100
AcDbPolyline
 90
        6
 70
   128
 43
0.0
 10
159.0926840147
 20
132.4885587451
 10
158.9547343251
 20
132.5525058031
 10
158.8220859646
 20
132.582616206
 10
158.6998365355
 20
132.577732828
 10
158.5926840147
 20
132.5380433345
 10
158.5927246484
 20
132.5380667956
  0
LINE
  5
228
330
1F
100
AcDbEntity
  8
0
  6
Continuous
 62
     7
370
     0
100
AcDbLine
 10
159.6232267232
 20
118.8739446997
 30
0.0
 11
158.31486655
 21
118.1186444487
 31
0.0
  0
LINE
  5
229
330
1F
100
AcDbEntity
  8
0
  6
Continuous
 62
     7
370
     0
100
AcDbLine
 10
162.6994056434
 20
117.0981044089
 30
0.0
 11
159.7644354568
 21
115.4037821849
 31
0.0
  0
LINE
  5
22A
330
1F
100
AcDbEntity
  8
0
  6
Continuous
 62
     7
370
     0
100
AcDbLine
 10
166.3769584921
 20
114.9750983389
 30
0.0
 11
159.7644354568
 21
111.1577700447
 31
0.0
  0
LWPOLYLINE
  5
22B
330
1F
100
AcDbEntity
  8
0
  6
Continuous
 62
     7
370
     0
100
AcDbPolyline
 90
       18
 70
   128
 43
0.0
 10
154.5564820101
 20
123.4444916488
 10
154.5524413809
 20
123.4461667901
 10
154.3545026207
 20
123.4933194994
 10
154.1809560854
 20
123.4647132228
 10
154.0458614831
 20
123.3626654708
 10
153.9601633749
 20
123.1954435452
 10
153.930804512
 20
122.976594772
 10
153.9601633749
 20
122.7238489773
 10
154.0458614831
 20
122.4576821221
 10
154.1809560854
 20
122.1996574622
 10
154.3545026207
 20
121.970678621
 10
154.5524413809
 20
121.7892961024
 10
154.7587365446
 20
121.6702044393
 10
154.9566753048
 20
121.62305173
 10
155.1302218401
 20
121.6516580065
 10
155.2653164425
 20
121.7537057586
 10
155.3510145506
 20
121.9209276842
 10
155.3735493856
 20
122.0291360845
  0
LWPOLYLINE
  5
22C
330
1F
100
AcDbEntity
  8
0
  6
Continuous
 62
     7
370
     0
100
AcDbPolyline
 90
        3
 70
   128
 43
0.0
 10
165.8238161395
 20
114.6557760557
 10
165.7621313074
 20
114.5958205939
 10
165.6833656447
 20
114.5406982348
  0
LINE
  5
22D
330
1F
100
AcDbEntity
  8
0
  6
Continuous
 62
     7
370
     0
100
AcDbLine
 10
165.0323809767
 20
113.3412340467
 30
0.0
 11
158.3148665554
 21
109.4632955155
 31
0.0
  0
LINE
  5
22E
330
1F
100
AcDbEntity
  8
0
  6
Continuous
 62
     7
370
     0
100
AcDbLine
 10
165.0323809767
 20
114.1648927851
 30
0.0
 11
165.0323809767
 21
113.3412340467
 31
0.0
  0
LINE
  5
22F
330
1F
100
AcDbEntity
  8
0
  6
Continuous
 62
     7
370
     0
100
AcDbLine
 10
153.5065404433
 20
132.1205912145
 30
0.0
 11
155.6880489088
 21
130.8612331836
 31
0.0
  0
LINE
  5
230
330
1F
100
AcDbEntity
  8
0
  6
Continuous
 62
     7
370
     0
100
AcDbLine
 10
153.2236977309
 20
132.6104891616
 30
0.0
 11
153.5065404433
 21
132.1205912145
 31
0.0
  0
LINE
  5
231
330
1F
100
AcDbEntity
  8
0
  6
Continuous
 62
     7
370
     0
100
AcDbLine
 10
153.2236977309
 20
135.6316901656
 30
0.0
 11
153.2236977309
 21
132.6104891616
 31
0.0
  0
LINE
  5
232
330
1F
100
AcDbEntity
  8
0
  6
Continuous
 62
     7
370
     0
100
AcDbLine
 10
153.8600938339
 20
135.999193246
 30
0.0
 11
153.2236977309
 21
135.6316901656
 31
0.0
  0
LINE
  5
233
330
1F
100
AcDbEntity
  8
0
  6
Continuous
 62
     7
370
     0
100
AcDbLine
 10
159.5876587615
 20
132.6927403931
 30
0.0
 11
153.8600938339
 21
135.999193246
 31
0.0
  0
LINE
  5
234
330
1F
100
AcDbEntity
  8
0
  6
Continuous
 62
     7
370
     0
100
AcDbLine
 10
159.870501474
 20
132.202842446
 30
0.0
 11
159.5876587615
 21
132.6927403931
 31
0.0
  0
LINE
  5
235
330
1F
100
AcDbEntity
  8
0
  6
Continuous
 62
     7
370
     0
100
AcDbLine
 10
166.0223304703
 20
128.6514671596
 30
0.0
 11
159.870501474
 21
132.202842446
 31
0.0
  0
LINE
  5
236
330
1F
100
AcDbEntity
  8
0
  6
Continuous
 62
     7
370
     0
100
AcDbLine
 10
166.3051731828
 20
128.814801862
 30
0.0
 11
166.0223304703
 21
128.6514671596
 31
0.0
  0
LINE
  5
237
330
1F
100
AcDbEntity
  8
0
  6
Continuous
 62
     7
370
     0
100
AcDbLine
 10
173.3762409947
 20
124.7327613028
 30
0.0
 11
166.3051731828
 21
128.814801862
 31
0.0
  0
LINE
  5
238
330
1F
100
AcDbEntity
  8
0
  6
Continuous
 62
     7
370
     0
100
AcDbLine
 10
173.6590837072
 20
124.2428633557
 30
0.0
 11
173.3762409947
 21
124.7327613028
 31
0.0
  0
LINE
  5
239
330
1F
100
AcDbEntity
  8
0
  6
Continuous
 62
     7
370
     0
100
AcDbLine
 10
179.8109127035
 20
120.6914880693
 30
0.0
 11
173.6590837072
 21
124.2428633557
 31
0.0
  0
LINE
  5
23A
330
1F
100
AcDbEntity
  8
0
  6
Continuous
 62
     7
370
     0
100
AcDbLine
 10
180.0937554159
 20
120.8548227717
 30
0.0
 11
179.8109127035
 21
120.6914880693
 31
0.0
  0
LINE
  5
23B
330
1F
100
AcDbEntity
  8
0
  6
Continuous
 62
     7
370
     0
100
AcDbLine
 10
185.8213203436
 20
117.5483699188
 30
0.0
 11
180.0937554159
 21
120.8548227717
 31
0.0
  0
LINE
  5
23C
330
1F
100
AcDbEntity
  8
0
  6
Continuous
 62
     7
370
     0
100
AcDbLine
 10
186.4577164466
 20
116.4460995378
 30
0.0
 11
185.8213203436
 21
117.5483699188
 31
0.0
  0
LINE
  5
23D
330
1F
100
AcDbEntity
  8
0
  6
Continuous
 62
     7
370
     0
100
AcDbLine
 10
186.4577164466
 20
113.0982822091
 30
0.0
 11
186.4577164466
 21
116.4460995378
 31
0.0
  0
LINE
  5
23E
330
1F
100
AcDbEntity
  8
0
  6
Continuous
 62
     7
370
     0
100
AcDbLine
 10
181.295836944
 20
116.0781718172
 30
0.0
 11
186.4577164466
 21
113.0982822091
 31
0.0
  0
LINE
  5
23F
330
1F
100
AcDbEntity
  8
0
  6
Continuous
 62
     7
370
     0
100
AcDbLine
 10
180.6594408409
 20
105.3169207423
 30
0.0
 11
180.6594408409
 21
105.2589463447
 31
0.0
  0
LINE
  5
240
330
1F
100
AcDbEntity
  8
0
  6
Continuous
 62
     7
370
     0
100
AcDbLine
 10
179.8109127035
 20
104.7689422375
 30
0.0
 11
180.6594408409
 21
105.2589463447
 31
0.0
  0
LINE
  5
241
330
1F
100
AcDbEntity
  8
0
  6
Continuous
 62
     7
370
     0
100
AcDbLine
 10
179.7607023753
 20
104.797928043
 30
0.0
 11
179.8109127035
 21
104.7689422375
 31
0.0
  0
LWPOLYLINE
  5
242
330
1F
100
AcDbEntity
  8
0
  6
Continuous
 62
     7
370
     0
100
AcDbPolyline
 90
        3
 70
   128
 43
0.0
 10
165.8238161395
 20
114.6557760557
 10
165.7621313074
 20
114.5958205939
 10
165.6833656447
 20
114.5406982348
  0
LINE
  5
243
330
1F
100
AcDbEntity
  8
0
  6
Continuous
 62
     7
370
     0
100
AcDbLine
 10
165.0323809767
 20
114.1648927851
 30
0.0
 11
165.0323809767
 21
113.3004070061
 31
0.0
  0
LINE
  5
244
330
1F
100
AcDbEntity
  8
0
  6
Continuous
 62
     7
370
     0
100
AcDbLine
 10
164.9970198909
 20
113.3208205264
 30
0.0
 11
165.0323809767
 21
113.3004070061
 31
0.0
  0
LINE
  5
245
330
1F
100
AcDbEntity
  8
0
  6
Continuous
 62
     7
370
     0
100
AcDbLine
 10
186.4577164466
 20
116.4460995378
 30
0.0
 11
214.1763022691
 21
132.4476985295
 31
0.0
  0
LINE
  5
246
330
1F
100
AcDbEntity
  8
0
  6
Continuous
 62
     7
370
     0
100
AcDbLine
 10
185.8213203436
 20
117.5483699188
 30
0.0
 11
213.5399061661
 21
133.5499689105
 31
0.0
  0
LINE
  5
247
330
1F
100
AcDbEntity
  8
0
  6
Continuous
 62
     7
370
     0
100
AcDbLine
 10
214.1763022691
 20
132.4476985295
 30
0.0
 11
213.5399061661
 21
133.5499689105
 31
0.0
  0
LINE
  5
248
330
1F
100
AcDbEntity
  8
0
  6
Continuous
 62
     7
370
     0
100
AcDbLine
 10
192.3267027305
 20
111.9954014077
 30
0.0
 11
192.3267027305
 21
116.4863758731
 31
0.0
  0
LINE
  5
249
330
1F
100
AcDbEntity
  8
0
  6
Continuous
 62
     7
370
     0
100
AcDbLine
 10
186.4577164466
 20
113.0982822091
 30
0.0
 11
192.3267027305
 21
116.4863758731
 31
0.0
  0
LINE
  5
24A
330
1F
100
AcDbEntity
  8
0
  6
Continuous
 62
     7
370
     0
100
AcDbLine
 10
214.1763022691
 20
129.0998812008
 30
0.0
 11
214.1763022691
 21
132.4476985295
 31
0.0
  0
LINE
  5
24B
330
1F
100
AcDbEntity
  8
0
  6
Continuous
 62
     7
370
     0
100
AcDbLine
 10
208.3073159853
 20
125.7117875367
 30
0.0
 11
214.1763022691
 21
129.0998812008
 31
0.0
  0
LINE
  5
24C
330
1F
100
AcDbEntity
  8
0
  6
Continuous
 62
     7
370
     0
100
AcDbLine
 10
208.3073159853
 20
121.2208130713
 30
0.0
 11
208.3073159853
 21
125.7117875367
 31
0.0
  0
LINE
  5
24D
330
1F
100
AcDbEntity
  8
0
  6
Continuous
 62
     7
370
     0
100
AcDbLine
 10
192.3267027305
 20
111.9954014077
 30
0.0
 11
208.3073159853
 21
121.2208130713
 31
0.0
  0
LINE
  5
24E
330
1F
100
AcDbEntity
  8
0
  6
Continuous
 62
     7
370
     0
100
AcDbLine
 10
180.0937554159
 20
120.8548227717
 30
0.0
 11
207.8123412385
 21
136.8564217634
 31
0.0
  0
LINE
  5
24F
330
1F
100
AcDbEntity
  8
0
  6
Continuous
 62
     7
370
     0
100
AcDbLine
 10
213.5399061661
 20
133.5499689105
 30
0.0
 11
207.8123412385
 21
136.8564217634
 31
0.0
  0
LWPOLYLINE
  5
250
330
1F
100
AcDbEntity
  8
0
  6
Continuous
 62
     7
370
     0
100
AcDbPolyline
 90
       36
 70
   128
 43
0.0
 10
209.4740421742
 20
132.1416649176
 10
209.1368675686
 20
131.9791621958
 10
208.7548488975
 20
131.8540264801
 10
208.3402645554
 20
131.7702797352
 10
207.9064396241
 20
131.7306136506
 10
207.4673175939
 20
131.7363031267
 10
207.0370122081
 20
131.7871652992
 10
206.629353836
 20
131.881565416
 10
206.2574449529
 20
132.0164693796
 10
205.9332390165
 20
132.1875412657
 10
205.6671562722
 20
132.3892826831
 10
205.4677488385
 20
132.6152094966
 10
205.3414258342
 20
132.8580602326
 10
205.2922473847
 20
133.1100294686
 10
205.3217941259
 20
133.3630187059
 10
205.4291164011
 20
133.6088966625
 10
205.6107647841
 20
133.8397606184
 10
205.8609009465
 20
134.0481904161
 10
206.1714853061
 20
134.2274869505
 10
206.5325354261
 20
134.3718874833
 10
206.9324468586
 20
134.4767508628
 10
207.358366121
 20
134.5387066935
 10
207.7966038179
 20
134.5557636641
 10
208.233074629
 20
134.5273735495
 10
208.6537500234
 20
134.4544488314
 10
209.0451091478
 20
134.3393333702
 10
209.3945733979
 20
134.1857270715
 10
209.6909107051
 20
133.9985669682
 10
209.9245965446
 20
133.78386854
 10
210.0881200612
 20
133.5485323711
 10
210.1762254746
 20
133.3001223594
 10
210.1860810042
 20
133.0466226073
 10
210.1173698853
 20
132.7961808052
 10
209.9723005497
 20
132.5568463589
 10
209.7555356452
 20
132.3363116743
 10
209.4740421742
 20
132.1416649176
  0
LWPOLYLINE
  5
251
330
1F
100
AcDbEntity
  8
0
  6
Continuous
 62
     7
370
     0
100
AcDbPolyline
 90
       36
 70
   128
 43
0.0
 10
188.2608387387
 20
119.8955432403
 10
187.923664133
 20
119.7330405185
 10
187.5416454619
 20
119.6079048027
 10
187.1270611198
 20
119.5241580579
 10
186.6932361885
 20
119.4844919732
 10
186.2541141583
 20
119.4901814494
 10
185.8238087725
 20
119.5410436219
 10
185.4161504004
 20
119.6354437387
 10
185.0442415173
 20
119.7703477023
 10
184.7200355809
 20
119.9414195884
 10
184.4539528366
 20
120.1431610058
 10
184.2545454029
 20
120.3690878193
 10
184.1282223986
 20
120.6119385553
 10
184.0790439491
 20
120.8639077912
 10
184.1085906903
 20
121.1168970286
 10
184.2159129655
 20
121.3627749851
 10
184.3975613485
 20
121.593638941
 10
184.6476975109
 20
121.8020687388
 10
184.9582818705
 20
121.9813652731
 10
185.3193319905
 20
122.125765806
 10
185.719243423
 20
122.2306291854
 10
186.1451626854
 20
122.2925850161
 10
186.5834003823
 20
122.3096419867
 10
187.0198711934
 20
122.2812518722
 10
187.4405465878
 20
122.208327154
 10
187.8319057122
 20
122.0932116928
 10
188.1813699623
 20
121.9396053942
 10
188.4777072695
 20
121.7524452909
 10
188.711393109
 20
121.5377468627
 10
188.8749166256
 20
121.3024106937
 10
188.963022039
 20
121.0540006821
 10
188.9728775686
 20
120.8005009299
 10
188.9041664497
 20
120.5500591279
 10
188.7590971141
 20
120.3107246816
 10
188.5423322096
 20
120.090189997
 10
188.2608387387
 20
119.8955432403
  0
LWPOLYLINE
  5
252
330
1F
100
AcDbEntity
  8
0
  6
Continuous
 62
     7
370
     0
100
AcDbPolyline
 90
       18
 70
   128
 43
0.0
 10
188.0487067043
 20
121.5283196539
 10
187.7335184696
 20
121.6785537988
 10
187.3747750938
 20
121.7916379403
 10
186.9854424973
 20
121.8634849228
 10
186.5795921745
 20
121.8914980092
 10
186.1718926134
 20
121.8746647335
 10
185.7770791386
 20
121.8135934943
 10
185.4094213376
 20
121.7104915653
 10
185.0822073213
 20
121.5690853186
 10
184.8072634568
 20
121.3944855447
 10
184.5945269316
 20
121.1930027341
 10
184.4516865982
 20
120.9719190007
 10
184.3839050783
 20
120.7392248865
 10
184.3936321727
 20
120.5033305632
 10
184.4805163188
 20
120.2727618662
 10
184.6414172972
 20
120.0558521489
 10
184.8705197273
 20
119.8604410938
 10
184.9087527735
 20
119.8344453072
  0
LWPOLYLINE
  5
253
330
1F
100
AcDbEntity
  8
0
  6
Continuous
 62
     7
370
     0
100
AcDbPolyline
 90
        9
 70
   128
 43
0.0
 10
188.148101476
 20
119.8344453072
 10
188.3642719026
 20
120.004692643
 10
188.5428690335
 20
120.2169369738
 10
188.6486589852
 20
120.4448579414
 10
188.6778182333
 20
120.6802178882
 10
188.6292928866
 20
120.9145102925
 10
188.5048367774
 20
121.1392672164
 10
188.308948074
 20
121.346365359
 10
188.0487067043
 20
121.5283196539
  0
LINE
  5
254
330
1F
100
AcDbEntity
  8
0
  6
Continuous
 62
     7
370
     0
100
AcDbLine
 10
173.6590837072
 20
124.2428633557
 30
0.0
 11
201.3776695297
 21
140.2444623475
 31
0.0
  0
LINE
  5
255
330
1F
100
AcDbEntity
  8
0
  6
Continuous
 62
     7
370
     0
100
AcDbLine
 10
207.5294525524
 20
136.693113601
 30
0.0
 11
201.3776695297
 21
140.2444623475
 31
0.0
  0
LINE
  5
256
330
1F
100
AcDbEntity
  8
0
  6
Continuous
 62
     7
370
     0
100
AcDbLine
 10
179.8109127035
 20
104.7689422375
 30
0.0
 11
207.529498526
 21
120.7705412292
 31
0.0
  0
LINE
  5
257
330
1F
100
AcDbEntity
  8
0
  6
Continuous
 62
     7
370
     0
100
AcDbLine
 10
183.9121320344
 20
107.1366850019
 30
0.0
 11
180.6594408409
 21
105.2589463447
 31
0.0
  0
ELLIPSE
  5
258
330
1F
100
AcDbEntity
  8
0
  6
Continuous
 62
     7
370
     0
100
AcDbEllipse
 10
186.5284271247
 20
108.647530999
 30
0.0
 11
3.69999998541951
 21
2.136311722928113
 31
0.0
210
0.0
220
0.0
230
1.0
 40
0.0000703729
 41
3.92695018358669
 42
5.497746513423946
  0
LINE
  5
259
330
1F
100
AcDbEntity
  8
0
  6
Continuous
 62
     7
370
     0
100
AcDbLine
 10
192.3267027305
 20
111.9954014077
 30
0.0
 11
189.1447222151
 21
110.1578860059
 31
0.0
  0
LINE
  5
25A
330
1F
100
AcDbEntity
  8
0
  6
Continuous
 62
     7
370
     0
100
AcDbLine
 10
205.12533547
 20
119.3832976695
 30
0.0
 11
208.3073159853
 21
121.2208130713
 31
0.0
  0
ELLIPSE
  5
25B
330
1F
100
AcDbEntity
  8
0
  6
Continuous
 62
     7
370
     0
100
AcDbEllipse
 10
207.7416305603
 20
120.8936526763
 30
0.0
 11
3.699999985419481
 21
2.136311722928127
 31
0.0
210
0.0
220
0.0
230
0.9999999999999998
 40
0.0000703729
 41
2.356153859637879
 42
3.926950183499867
  0
LINE
  5
25C
330
1F
100
AcDbEntity
  8
0
  6
Continuous
 62
     7
370
     0
100
AcDbLine
 10
208.3780266634
 20
121.2605453364
 30
0.0
 11
205.12533547
 21
119.3828066792
 31
0.0
  0
LINE
  5
25D
330
1F
100
AcDbEntity
  8
0
  6
Continuous
 62
     7
370
     0
100
AcDbLine
 10
207.529498526
 20
120.7705412292
 30
0.0
 11
208.3780266634
 21
121.2605453364
 31
0.0
  0
LINE
  5
25E
330
1F
100
AcDbEntity
  8
0
  6
Continuous
 62
     7
370
     0
100
AcDbLine
 10
173.3762409947
 20
124.7327613028
 30
0.0
 11
201.0948268172
 21
140.7343602946
 31
0.0
  0
LINE
  5
25F
330
1F
100
AcDbEntity
  8
0
  6
Continuous
 62
     7
370
     0
100
AcDbLine
 10
201.3776695297
 20
140.2444623475
 30
0.0
 11
201.0948268172
 21
140.7343602946
 31
0.0
  0
LINE
  5
260
330
1F
100
AcDbEntity
  8
0
  6
Continuous
 62
     7
370
     0
100
AcDbLine
 10
166.3051731828
 20
128.814801862
 30
0.0
 11
194.0237590053
 21
144.8164008537
 31
0.0
  0
LINE
  5
261
330
1F
100
AcDbEntity
  8
0
  6
Continuous
 62
     7
370
     0
100
AcDbLine
 10
201.0948268172
 20
140.7343602946
 30
0.0
 11
194.0237590053
 21
144.8164008537
 31
0.0
  0
LWPOLYLINE
  5
262
330
1F
100
AcDbEntity
  8
0
  6
Continuous
 62
     7
370
     0
100
AcDbPolyline
 90
       36
 70
   128
 43
0.0
 10
194.6247997693
 20
141.0813337421
 10
194.9062932403
 20
140.8866869854
 10
195.1230581447
 20
140.6661523008
 10
195.2681274803
 20
140.4268178545
 10
195.3368385993
 20
140.1763760525
 10
195.3269830697
 20
139.9228763003
 10
195.2388776563
 20
139.6744662887
 10
195.0753541397
 20
139.4391301197
 10
194.8416683002
 20
139.2244316915
 10
194.545330993
 20
139.0372715882
 10
194.1958667429
 20
138.8836652895
 10
193.8045076185
 20
138.7685498283
 10
193.3838322241
 20
138.6956251102
 10
192.9473614129
 20
138.6672349956
 10
192.5091237161
 20
138.6842919662
 10
192.0832044536
 20
138.7462477969
 10
191.6832930212
 20
138.8511111764
 10
191.3222429012
 20
138.9955117093
 10
191.0116585415
 20
139.1748082436
 10
190.7615223792
 20
139.3832380414
 10
190.5798739962
 20
139.6141019972
 10
190.472551721
 20
139.8599799538
 10
190.4430049798
 20
140.1129691912
 10
190.4921834293
 20
140.3649384271
 10
190.6185064336
 20
140.6077891631
 10
190.8179138673
 20
140.8337159766
 10
191.0839966116
 20
141.035457394
 10
191.408202548
 20
141.2065292801
 10
191.7801114311
 20
141.3414332437
 10
192.1877698032
 20
141.4358333605
 10
192.618075189
 20
141.486695533
 10
193.0571972192
 20
141.4923850092
 10
193.4910221505
 20
141.4527189245
 10
193.9056064926
 20
141.3689721797
 10
194.2876251637
 20
141.2438364639
 10
194.6247997693
 20
141.0813337421
  0
LWPOLYLINE
  5
263
330
1F
100
AcDbEntity
  8
0
  6
Continuous
 62
     7
370
     0
100
AcDbPolyline
 90
       36
 70
   128
 43
0.0
 10
176.2400234585
 20
130.4680282884
 10
176.5215169294
 20
130.2733815317
 10
176.7382818339
 20
130.0528468471
 10
176.8833511695
 20
129.8135124008
 10
176.9520622884
 20
129.5630705988
 10
176.9422067588
 20
129.3095708466
 10
176.8541013455
 20
129.061160835
 10
176.6905778288
 20
128.825824666
 10
176.4568919893
 20
128.6111262378
 10
176.1605546821
 20
128.4239661345
 10
175.811090432
 20
128.2703598359
 10
175.4197313077
 20
128.1552443746
 10
174.9990559132
 20
128.0823196565
 10
174.5625851021
 20
128.0539295419
 10
174.1243474052
 20
128.0709865125
 10
173.6984281428
 20
128.1329423433
 10
173.2985167103
 20
128.2378057227
 10
172.9374665903
 20
128.3822062556
 10
172.6268822307
 20
128.5615027899
 10
172.3767460683
 20
128.7699325877
 10
172.1950976853
 20
129.0007965436
 10
172.0877754101
 20
129.2466745001
 10
172.058228669
 20
129.4996637375
 10
172.1074071184
 20
129.7516329734
 10
172.2337301227
 20
129.9944837094
 10
172.4331375565
 20
130.2204105229
 10
172.6992203007
 20
130.4221519403
 10
173.0234262372
 20
130.5932238264
 10
173.3953351202
 20
130.72812779
 10
173.8029934924
 20
130.8225279068
 10
174.2332988781
 20
130.8733900793
 10
174.6724209083
 20
130.8790795555
 10
175.1062458396
 20
130.8394134708
 10
175.5208301817
 20
130.755666726
 10
175.9028488528
 20
130.6305310102
 10
176.2400234585
 20
130.4680282884
  0
LWPOLYLINE
  5
264
330
1F
100
AcDbEntity
  8
0
  6
Continuous
 62
     7
370
     0
100
AcDbPolyline
 90
       18
 70
   128
 43
0.0
 10
176.0278914241
 20
130.1006048281
 10
175.7127031894
 20
130.250838973
 10
175.3539598136
 20
130.3639231144
 10
174.9646272171
 20
130.4357700969
 10
174.5587768943
 20
130.4637831833
 10
174.1510773333
 20
130.4469499077
 10
173.7562638584
 20
130.3858786685
 10
173.3886060574
 20
130.2827767394
 10
173.0613920411
 20
130.1413704928
 10
172.7864481766
 20
129.9667707188
 10
172.5737116515
 20
129.7652879082
 10
172.4308713181
 20
129.5442041748
 10
172.3630897982
 20
129.3115100606
 10
172.3728168925
 20
129.0756157373
 10
172.4597010386
 20
128.8450470403
 10
172.620602017
 20
128.6281373231
 10
172.8497044471
 20
128.4327262679
 10
172.8879374933
 20
128.4067304813
  0
LWPOLYLINE
  5
265
330
1F
100
AcDbEntity
  8
0
  6
Continuous
 62
     7
370
     0
100
AcDbPolyline
 90
        9
 70
   128
 43
0.0
 10
176.1272861958
 20
128.4067304813
 10
176.3434566224
 20
128.5769778172
 10
176.5220537533
 20
128.789222148
 10
176.6278437051
 20
129.0171431155
 10
176.6570029532
 20
129.2525030623
 10
176.6084776064
 20
129.4867954667
 10
176.4840214973
 20
129.7115523905
 10
176.2881327938
 20
129.9186505332
 10
176.0278914241
 20
130.1006048281
  0
LINE
  5
266
330
1F
100
AcDbEntity
  8
0
  6
Continuous
 62
     7
370
     0
100
AcDbLine
 10
159.870501474
 20
132.202842446
 30
0.0
 11
187.5890872965
 21
148.2044414377
 31
0.0
  0
LINE
  5
267
330
1F
100
AcDbEntity
  8
0
  6
Continuous
 62
     7
370
     0
100
AcDbLine
 10
193.7408703192
 20
144.6530926913
 30
0.0
 11
187.5890872965
 21
148.2044414377
 31
0.0
  0
LWPOLYLINE
  5
268
330
1F
100
AcDbEntity
  8
0
  6
Continuous
 62
     7
370
     0
100
AcDbPolyline
 90
       18
 70
   128
 43
0.0
 10
209.2619101399
 20
133.7744413313
 10
208.9467219052
 20
133.9246754762
 10
208.5879785294
 20
134.0377596176
 10
208.1986459329
 20
134.1096066001
 10
207.7927956101
 20
134.1376196865
 10
207.385096049
 20
134.1207864109
 10
206.9902825742
 20
134.0597151717
 10
206.6226247732
 20
133.9566132426
 10
206.2954107569
 20
133.815206996
 10
206.0204668924
 20
133.640607222
 10
205.8077303672
 20
133.4391244114
 10
205.6648900338
 20
133.218040678
 10
205.5971085139
 20
132.9853465638
 10
205.6068356083
 20
132.7494522405
 10
205.6937197544
 20
132.5188835435
 10
205.8546207328
 20
132.3019738263
 10
206.0837231629
 20
132.1065627711
 10
206.1219562092
 20
132.0805669844
  0
LWPOLYLINE
  5
269
330
1F
100
AcDbEntity
  8
0
  6
Continuous
 62
     7
370
     0
100
AcDbPolyline
 90
        9
 70
   128
 43
0.0
 10
209.3613049114
 20
132.0805669844
 10
209.5774753382
 20
132.2508143204
 10
209.7560724691
 20
132.4630586512
 10
209.8618624208
 20
132.6909796187
 10
209.8910216689
 20
132.9263395655
 10
209.8424963222
 20
133.1606319699
 10
209.718040213
 20
133.3853888937
 10
209.5221515096
 20
133.5924870364
 10
209.2619101399
 20
133.7744413313
  0
LINE
  5
26A
330
1F
100
AcDbEntity
  8
0
  6
Continuous
 62
     7
370
     0
100
AcDbLine
 10
159.5876587615
 20
132.6927403931
 30
0.0
 11
187.3062445841
 21
148.6943393848
 31
0.0
  0
LINE
  5
26B
330
1F
100
AcDbEntity
  8
0
  6
Continuous
 62
     7
370
     0
100
AcDbLine
 10
187.5890872965
 20
148.2044414377
 30
0.0
 11
187.3062445841
 21
148.6943393848
 31
0.0
  0
LINE
  5
26C
330
1F
100
AcDbEntity
  8
0
  6
Continuous
 62
     7
370
     0
100
AcDbLine
 10
153.8600938339
 20
135.999193246
 30
0.0
 11
181.5786796564
 21
152.0007922377
 31
0.0
  0
LINE
  5
26D
330
1F
100
AcDbEntity
  8
0
  6
Continuous
 62
     7
370
     0
100
AcDbLine
 10
187.3062445841
 20
148.6943393848
 30
0.0
 11
181.5786796564
 21
152.0007922377
 31
0.0
  0
LWPOLYLINE
  5
26E
330
1F
100
AcDbEntity
  8
0
  6
Continuous
 62
     7
370
     0
100
AcDbPolyline
 90
       36
 70
   128
 43
0.0
 10
182.6039844892
 20
147.6534190423
 10
182.2668098835
 20
147.4909163205
 10
181.8847912124
 20
147.3657806047
 10
181.4702068703
 20
147.2820338599
 10
181.036381939
 20
147.2423677752
 10
180.5972599088
 20
147.2480572514
 10
180.166954523
 20
147.2989194239
 10
179.7592961509
 20
147.3933195406
 10
179.3873872678
 20
147.5282235043
 10
179.0631813314
 20
147.6992953904
 10
178.7970985871
 20
147.9010368077
 10
178.5976911534
 20
148.1269636213
 10
178.4713681491
 20
148.3698143572
 10
178.4221896996
 20
148.6217835932
 10
178.4517364408
 20
148.8747728306
 10
178.559058716
 20
149.1206507871
 10
178.740707099
 20
149.351514743
 10
178.9908432614
 20
149.5599445407
 10
179.301427621
 20
149.7392410751
 10
179.662477741
 20
149.883641608
 10
180.0623891735
 20
149.9885049874
 10
180.4883084359
 20
150.0504608181
 10
180.9265461328
 20
150.0675177887
 10
181.3630169439
 20
150.0391276741
 10
181.7836923383
 20
149.966202956
 10
182.1750514627
 20
149.8510874948
 10
182.5245157128
 20
149.6974811961
 10
182.82085302
 20
149.5103210929
 10
183.0545388595
 20
149.2956226647
 10
183.2180623761
 20
149.0602864957
 10
183.3061677895
 20
148.811876484
 10
183.3160233191
 20
148.5583767319
 10
183.2473122002
 20
148.3079349299
 10
183.1022428646
 20
148.0686004835
 10
182.8854779601
 20
147.8480657989
 10
182.6039844892
 20
147.6534190423
  0
LWPOLYLINE
  5
26F
330
1F
100
AcDbEntity
  8
0
  6
Continuous
 62
     7
370
     0
100
AcDbPolyline
 90
       36
 70
   128
 43
0.0
 10
161.3907810536
 20
135.4072973649
 10
161.0536064479
 20
135.2447946431
 10
160.6715877768
 20
135.1196589274
 10
160.2570034347
 20
135.0359121825
 10
159.8231785034
 20
134.9962460979
 10
159.3840564732
 20
135.001935574
 10
158.9537510874
 20
135.0527977465
 10
158.5460927153
 20
135.1471978633
 10
158.1741838322
 20
135.2821018269
 10
157.8499778958
 20
135.453173713
 10
157.5838951515
 20
135.6549151304
 10
157.3844877178
 20
135.8808419439
 10
157.2581647135
 20
136.1236926799
 10
157.208986264
 20
136.3756619158
 10
157.2385330052
 20
136.6286511532
 10
157.3458552804
 20
136.8745291098
 10
157.5275036634
 20
137.1053930657
 10
157.7776398258
 20
137.3138228634
 10
158.0882241854
 20
137.4931193978
 10
158.4492743054
 20
137.6375199306
 10
158.8491857379
 20
137.7423833101
 10
159.2751050003
 20
137.8043391408
 10
159.7133426972
 20
137.8213961114
 10
160.1498135083
 20
137.7930059968
 10
160.5704889027
 20
137.7200812787
 10
160.9618480271
 20
137.6049658175
 10
161.3113122772
 20
137.4513595188
 10
161.6076495844
 20
137.2641994155
 10
161.8413354239
 20
137.0495009873
 10
162.0048589405
 20
136.8141648183
 10
162.0929643539
 20
136.5657548067
 10
162.1028198835
 20
136.3122550546
 10
162.0341087646
 20
136.0618132525
 10
161.889039429
 20
135.8224788062
 10
161.6722745245
 20
135.6019441216
 10
161.3907810536
 20
135.4072973649
  0
LWPOLYLINE
  5
270
330
1F
100
AcDbEntity
  8
0
  6
Continuous
 62
     7
370
     0
100
AcDbPolyline
 90
       18
 70
   128
 43
0.0
 10
161.1786490192
 20
137.0400737786
 10
160.8634607845
 20
137.1903079234
 10
160.5047174087
 20
137.3033920649
 10
160.1153848122
 20
137.3752390474
 10
159.7095344894
 20
137.4032521338
 10
159.3018349284
 20
137.3864188582
 10
158.9070214535
 20
137.325347619
 10
158.5393636525
 20
137.2222456899
 10
158.2121496362
 20
137.0808394433
 10
157.9372057717
 20
136.9062396693
 10
157.7244692465
 20
136.7047568587
 10
157.5816289131
 20
136.4836731253
 10
157.5138473932
 20
136.2509790111
 10
157.5235744876
 20
136.0150846878
 10
157.6104586337
 20
135.7845159908
 10
157.7713596121
 20
135.5676062736
 10
158.0004620422
 20
135.3721952184
 10
158.0386950882
 20
135.3461994319
  0
LWPOLYLINE
  5
271
330
1F
100
AcDbEntity
  8
0
  6
Continuous
 62
     7
370
     0
100
AcDbPolyline
 90
        9
 70
   128
 43
0.0
 10
161.278043791
 20
135.3461994319
 10
161.4942142175
 20
135.5164467677
 10
161.6728113484
 20
135.7286910984
 10
161.7786013002
 20
135.956612066
 10
161.8077605482
 20
136.1919720128
 10
161.7592352015
 20
136.4262644171
 10
161.6347790924
 20
136.651021341
 10
161.4388903889
 20
136.8581194836
 10
161.1786490192
 20
137.0400737786
  0
LINE
  5
272
330
1F
100
AcDbEntity
  8
0
  6
Continuous
 62
     7
370
     0
100
AcDbLine
 10
208.3780266634
 20
125.7526079423
 30
0.0
 11
208.3780266634
 21
121.2605453364
 31
0.0
  0
LINE
  5
273
330
1F
100
AcDbEntity
  8
0
  6
Continuous
 62
     7
370
     0
100
AcDbLine
 10
167.1551521349
 20
114.5258567113
 30
0.0
 11
165.0323809767
 21
113.3004070061
 31
0.0
  0
LWPOLYLINE
  5
274
330
1F
100
AcDbEntity
  8
0
  6
Continuous
 62
     7
370
     0
100
AcDbPolyline
 90
       18
 70
   128
 43
0.0
 10
194.412667735
 20
140.7139102818
 10
194.0974795002
 20
140.8641444266
 10
193.7387361245
 20
140.9772285681
 10
193.349403528
 20
141.0490755506
 10
192.9435532051
 20
141.077088637
 10
192.5358536441
 20
141.0602553614
 10
192.1410401693
 20
140.9991841222
 10
191.7733823683
 20
140.8960821931
 10
191.446168352
 20
140.7546759465
 10
191.1712244874
 20
140.5800761725
 10
190.9584879623
 20
140.3785933619
 10
190.8156476289
 20
140.1575096285
 10
190.747866109
 20
139.9248155143
 10
190.7575932034
 20
139.688921191
 10
190.8444773495
 20
139.458352494
 10
191.0053783279
 20
139.2414427768
 10
191.234480758
 20
139.0460317216
 10
191.2727138042
 20
139.020035935
  0
LWPOLYLINE
  5
275
330
1F
100
AcDbEntity
  8
0
  6
Continuous
 62
     7
370
     0
100
AcDbPolyline
 90
        9
 70
   128
 43
0.0
 10
194.5120625067
 20
139.020035935
 10
194.7282329333
 20
139.1902832709
 10
194.9068300642
 20
139.4025276016
 10
195.0126200159
 20
139.6304485692
 10
195.041779264
 20
139.865808516
 10
194.9932539173
 20
140.1001009203
 10
194.8687978081
 20
140.3248578442
 10
194.6729091047
 20
140.5319559868
 10
194.412667735
 20
140.7139102818
  0
LWPOLYLINE
  5
276
330
1F
100
AcDbEntity
  8
0
  6
Continuous
 62
     7
370
     0
100
AcDbPolyline
 90
       18
 70
   128
 43
0.0
 10
182.3918524548
 20
149.2861954559
 10
182.0766642201
 20
149.4364296008
 10
181.7179208443
 20
149.5495137422
 10
181.3285882478
 20
149.6213607247
 10
180.922737925
 20
149.6493738111
 10
180.515038364
 20
149.6325405355
 10
180.1202248891
 20
149.5714692963
 10
179.7525670881
 20
149.4683673672
 10
179.4253530718
 20
149.3269611206
 10
179.1504092073
 20
149.1523613466
 10
178.9376726821
 20
148.9508785361
 10
178.7948323487
 20
148.7297948026
 10
178.7270508288
 20
148.4971006885
 10
178.7367779232
 20
148.2612063651
 10
178.8236620693
 20
148.0306376681
 10
178.9845630477
 20
147.8137279509
 10
179.2136654778
 20
147.6183168957
 10
179.251898524
 20
147.5923211091
  0
LWPOLYLINE
  5
277
330
1F
100
AcDbEntity
  8
0
  6
Continuous
 62
     7
370
     0
100
AcDbPolyline
 90
        9
 70
   128
 43
0.0
 10
182.4912472265
 20
147.5923211091
 10
182.7074176531
 20
147.762568445
 10
182.886014784
 20
147.9748127758
 10
182.9918047357
 20
148.2027337434
 10
183.0209639838
 20
148.4380936902
 10
182.9724386371
 20
148.6723860945
 10
182.847982528
 20
148.8971430184
 10
182.6520938245
 20
149.104241161
 10
182.3918524548
 20
149.2861954559
  0
LINE
  5
278
330
1F
100
AcDbEntity
  8
0
  6
Continuous
 62
     7
370
     0
100
AcDbLine
 10
215.0248304066
 20
139.9586929683
 30
0.0
 11
208.7316490145
 21
136.3257166807
 31
0.0
  0
LINE
  5
279
330
1F
100
AcDbEntity
  8
0
  6
Continuous
 62
     7
370
     0
100
AcDbLine
 10
215.7319371878
 20
138.7339481005
 30
0.0
 11
210.1459775109
 21
135.5092422189
 31
0.0
  0
LINE
  5
27A
330
1F
100
AcDbEntity
  8
0
  6
Continuous
 62
     7
370
     0
100
AcDbLine
 10
193.5287842585
 20
152.368096268
 30
0.0
 11
187.2356028664
 21
148.7351199804
 31
0.0
  0
LINE
  5
27B
330
1F
100
AcDbEntity
  8
0
  6
Continuous
 62
     7
370
     0
100
AcDbLine
 10
183.9121320344
 20
107.1366850019
 30
0.0
 11
183.9121320344
 21
114.5678168103
 31
0.0
  0
LINE
  5
27C
330
1F
100
AcDbEntity
  8
0
  6
Continuous
 62
     7
370
     0
100
AcDbLine
 10
189.1447222151
 20
110.1578860059
 30
0.0
 11
189.1447222151
 21
114.6494576215
 31
0.0
  0
LINE
  5
27D
330
1F
100
AcDbEntity
  8
0
  6
Continuous
 62
     7
370
     0
100
AcDbLine
 10
205.12533547
 20
119.3828066792
 30
0.0
 11
205.12533547
 21
119.3832976695
 31
0.0
  0
LWPOLYLINE
  5
27E
330
1F
100
AcDbEntity
  8
0
  6
Continuous
 62
     7
370
     0
100
AcDbPolyline
 90
       17
 70
   128
 43
0.0
 10
176.2753787975
 20
126.895675243
 10
175.4643204255
 20
127.2085258572
 10
174.5076118446
 20
127.3183843835
 10
173.5509032637
 20
127.2085258572
 10
172.7398448916
 20
126.895675243
 10
172.1979130133
 20
126.427461211
 10
172.0076118446
 20
125.8751651032
 10
172.1979130133
 20
125.3228689954
 10
172.7398448916
 20
124.8546549635
 10
173.5509032637
 20
124.5418043493
 10
174.5076118446
 20
124.431945823
 10
175.4643204255
 20
124.5418043493
 10
176.2753787975
 20
124.8546549635
 10
176.8173106759
 20
125.3228689954
 10
177.0076118446
 20
125.8751651032
 10
176.8173106759
 20
126.427461211
 10
176.2753787975
 20
126.895675243
  0
LWPOLYLINE
  5
27F
330
1F
100
AcDbEntity
  8
0
  6
Continuous
 62
     7
370
     0
100
AcDbPolyline
 90
       17
 70
   128
 43
0.0
 10
194.6601551084
 20
137.5089806967
 10
193.8490967363
 20
137.8218313109
 10
192.8923881554
 20
137.9316898372
 10
191.9356795745
 20
137.8218313109
 10
191.1246212025
 20
137.5089806967
 10
190.5826893241
 20
137.0407666647
 10
190.3923881554
 20
136.4884705569
 10
190.5826893241
 20
135.9361744491
 10
191.1246212025
 20
135.4679604172
 10
191.9356795745
 20
135.155109803
 10
192.8923881554
 20
135.0452512767
 10
193.8490967363
 20
135.155109803
 10
194.6601551084
 20
135.4679604172
 10
195.2020869867
 20
135.9361744491
 10
195.3923881554
 20
136.4884705569
 10
195.2020869867
 20
137.0407666647
 10
194.6601551084
 20
137.5089806967
  0
LWPOLYLINE
  5
280
330
1F
100
AcDbEntity
  8
0
  6
Continuous
 62
     7
370
     0
100
AcDbPolyline
 90
       17
 70
   128
 43
0.0
 10
157.8906024867
 20
135.1419249186
 10
157.3486706084
 20
135.6101389505
 10
157.1583694397
 20
136.1624350583
 10
157.3486706084
 20
136.7147311662
 10
157.8906024867
 20
137.1829451981
 10
158.7016608587
 20
137.4957958123
 10
159.6583694397
 20
137.6056543386
 10
160.6150780206
 20
137.4957958123
 10
161.4261363926
 20
137.1829451981
 10
161.9680682709
 20
136.7147311662
 10
162.1583694397
 20
136.1624350583
 10
161.9680682709
 20
135.6101389505
 10
161.4261363926
 20
135.1419249186
 10
160.6150780206
 20
134.8290743044
 10
159.6583694397
 20
134.7192157781
 10
158.7016608587
 20
134.8290743044
 10
157.8906024867
 20
135.1419249186
  0
LWPOLYLINE
  5
281
330
1F
100
AcDbEntity
  8
0
  6
Continuous
 62
     7
370
     0
100
AcDbPolyline
 90
       17
 70
   128
 43
0.0
 10
184.7606601718
 20
119.6301707939
 10
184.2187282935
 20
120.0983848259
 10
184.0284271247
 20
120.6506809337
 10
184.2187282935
 20
121.2029770415
 10
184.7606601718
 20
121.6711910735
 10
185.5717185438
 20
121.9840416876
 10
186.5284271247
 20
122.0939002139
 10
187.4851357057
 20
121.9840416876
 10
188.2961940777
 20
121.6711910735
 10
188.838125956
 20
121.2029770415
 10
189.0284271247
 20
120.6506809337
 10
188.838125956
 20
120.0983848259
 10
188.2961940777
 20
119.6301707939
 10
187.4851357057
 20
119.3173201798
 10
186.5284271247
 20
119.2074616535
 10
185.5717185438
 20
119.3173201798
 10
184.7606601718
 20
119.6301707939
  0
LWPOLYLINE
  5
282
330
1F
100
AcDbEntity
  8
0
  6
Continuous
 62
     7
370
     0
100
AcDbPolyline
 90
       17
 70
   128
 43
0.0
 10
205.9738636074
 20
131.8762924713
 10
205.4319317291
 20
132.3445065032
 10
205.2416305603
 20
132.8968026111
 10
205.4319317291
 20
133.4490987189
 10
205.9738636074
 20
133.9173127508
 10
206.7849219794
 20
134.230163365
 10
207.7416305603
 20
134.3400218913
 10
208.6983391413
 20
134.230163365
 10
209.5093975133
 20
133.9173127508
 10
210.0513293916
 20
133.4490987189
 10
210.2416305603
 20
132.8968026111
 10
210.0513293916
 20
132.3445065032
 10
209.5093975133
 20
131.8762924713
 10
208.6983391413
 20
131.5634418571
 10
207.7416305603
 20
131.4535833308
 10
206.7849219794
 20
131.5634418571
 10
205.9738636074
 20
131.8762924713
  0
LWPOLYLINE
  5
283
330
1F
100
AcDbEntity
  8
0
  6
Continuous
 62
     7
370
     0
100
AcDbPolyline
 90
       17
 70
   128
 43
0.0
 10
179.1038059223
 20
147.3880465959
 10
178.561874044
 20
147.8562606279
 10
178.3715728753
 20
148.4085567357
 10
178.561874044
 20
148.9608528435
 10
179.1038059223
 20
149.4290668755
 10
179.9148642943
 20
149.7419174896
 10
180.8715728753
 20
149.8517760159
 10
181.8282814562
 20
149.7419174896
 10
182.6393398282
 20
149.4290668755
 10
183.1812717065
 20
148.9608528435
 10
183.3715728753
 20
148.4085567357
 10
183.1812717065
 20
147.8562606279
 10
182.6393398282
 20
147.3880465959
 10
181.8282814562
 20
147.0751959818
 10
180.8715728753
 20
146.9653374555
 10
179.9148642943
 20
147.0751959818
 10
179.1038059223
 20
147.3880465959
  0
LWPOLYLINE
  5
284
330
1F
100
AcDbEntity
  8
0
  6
Continuous
 62
     7
370
     0
100
AcDbPolyline
 90
       17
 70
   128
 43
0.0
 10
172.0150604409
 20
111.5161000272
 10
171.6768128783
 20
111.7890605241
 10
171.3900604409
 20
112.1758539306
 10
171.1984585878
 20
112.6175944568
 10
171.1311769644
 20
113.047031112
 10
171.1984585878
 20
113.3987860582
 10
171.3900604409
 20
113.6193077936
 10
171.6768128783
 20
113.675023883
 10
172.0150604409
 20
113.5574520569
 10
172.3533080035
 20
113.28449156
 10
172.6400604409
 20
112.8976981535
 10
172.8316622939
 20
112.4559576273
 10
172.8989439174
 20
112.0265209722
 10
172.8316622939
 20
111.6747660259
 10
172.6400604409
 20
111.4542442905
 10
172.3533080035
 20
111.3985282011
 10
172.0150604409
 20
111.5161000272
  0
LWPOLYLINE
  5
285
330
1F
100
AcDbEntity
  8
0
  6
Continuous
 62
     7
370
     0
100
AcDbPolyline
 90
       17
 70
   128
 43
0.0
 10
212.7444110372
 20
135.0286536477
 10
213.0826585998
 20
134.9110818216
 10
213.3694110372
 20
134.966797911
 10
213.5610128903
 20
135.1873196464
 10
213.6282945137
 20
135.5390745927
 10
213.5610128903
 20
135.9685112478
 10
213.3694110372
 20
136.410251774
 10
213.0826585998
 20
136.7970451805
 10
212.7444110372
 20
137.0700056774
 10
212.4061634746
 20
137.1875775035
 10
212.1194110372
 20
137.1318614141
 10
211.9278091842
 20
136.9113396787
 10
211.8605275608
 20
136.5595847325
 10
211.9278091842
 20
136.1301480773
 10
212.1194110372
 20
135.6884075511
 10
212.4061634746
 20
135.3016141446
 10
212.7444110372
 20
135.0286536477
  0
LWPOLYLINE
  5
286
330
1F
100
AcDbEntity
  8
0
  6
Continuous
 62
     7
370
     0
100
AcDbPolyline
 90
       17
 70
   128
 43
0.0
 10
154.6555889628
 20
121.5375095998
 10
154.3173414002
 20
121.8104700968
 10
154.0305889628
 20
122.1972635032
 10
153.8389871097
 20
122.6390040294
 10
153.7717054863
 20
123.0684406846
 10
153.8389871097
 20
123.4201956308
 10
154.0305889628
 20
123.6407173662
 10
154.3173414002
 20
123.6964334557
 10
154.6555889628
 20
123.5788616296
 10
154.9938365254
 20
123.3059011326
 10
155.2805889628
 20
122.9191077261
 10
155.4721908158
 20
122.4773672
 10
155.5394724392
 20
122.0479305448
 10
155.4721908158
 20
121.6961755986
 10
155.2805889628
 20
121.4756538631
 10
154.9938365254
 20
121.4199377737
 10
154.6555889628
 20
121.5375095998
  0
LWPOLYLINE
  5
287
330
1F
100
AcDbEntity
  8
0
  6
Continuous
 62
     7
370
     0
100
AcDbPolyline
 90
       17
 70
   128
 43
0.0
 10
195.3849395591
 20
145.0500632203
 10
195.7231871217
 20
144.9324913942
 10
196.0099395591
 20
144.9882074836
 10
196.2015414122
 20
145.2087292191
 10
196.2688230356
 20
145.5604841653
 10
196.2015414122
 20
145.9899208205
 10
196.0099395591
 20
146.4316613466
 10
195.7231871217
 20
146.8184547531
 10
195.3849395591
 20
147.09141525
 10
195.0466919965
 20
147.2089870762
 10
194.7599395591
 20
147.1532709867
 10
194.5683377061
 20
146.9327492513
 10
194.5010560826
 20
146.5809943051
 10
194.5683377061
 20
146.1515576499
 10
194.7599395591
 20
145.7098171237
 10
195.0466919965
 20
145.3230237173
 10
195.3849395591
 20
145.0500632203
  0
LWPOLYLINE
  5
288
330
1F
100
AcDbEntity
  8
0
  6
Continuous
 62
     7
370
     0
100
AcDbPolyline
 90
       17
 70
   128
 43
0.0
 10
163.3353247018
 20
119.1805624522
 10
162.9294276267
 20
119.5081150485
 10
162.5853247018
 20
119.9722671362
 10
162.3554024782
 20
120.5023557677
 10
162.27466453
 20
121.0176797538
 10
162.3554024782
 20
121.4397856893
 10
162.5853247018
 20
121.7044117718
 10
162.9294276267
 20
121.7712710792
 10
163.3353247018
 20
121.6301848878
 10
163.7412217769
 20
121.3026322915
 10
164.0853247018
 20
120.8384802037
 10
164.3152469255
 20
120.3083915723
 10
164.3959848736
 20
119.7930675861
 10
164.3152469255
 20
119.3709616506
 10
164.0853247018
 20
119.1063355681
 10
163.7412217769
 20
119.0394762608
 10
163.3353247018
 20
119.1805624522
  0
LWPOLYLINE
  5
289
330
1F
100
AcDbEntity
  8
0
  6
Continuous
 62
     7
370
     0
100
AcDbPolyline
 90
       17
 70
   128
 43
0.0
 10
204.0646752982
 20
142.6931160726
 10
204.4705723733
 20
142.5520298813
 10
204.8146752982
 20
142.6188891886
 10
205.0445975218
 20
142.8835152711
 10
205.12533547
 20
143.3056212066
 10
205.0445975218
 20
143.8209451928
 10
204.8146752982
 20
144.3510338242
 10
204.4705723733
 20
144.815185912
 10
204.0646752982
 20
145.1427385083
 10
203.6587782231
 20
145.2838246997
 10
203.3146752982
 20
145.2169653923
 10
203.0847530745
 20
144.9523393098
 10
203.0040151264
 20
144.5302333743
 10
203.0847530745
 20
144.0149093882
 10
203.3146752982
 20
143.4848207567
 10
203.6587782231
 20
143.020668669
 10
204.0646752982
 20
142.6931160726
  0
LWPOLYLINE
  5
28A
330
1F
100
AcDbEntity
  8
0
  6
HIDDEN
 62
     7
370
     0
100
AcDbPolyline
 90
       17
 70
   128
 43
0.0
 10
154.0015151902
 20
127.9979691099
 10
154.0822531383
 20
127.5758631744
 10
154.3121753619
 20
127.3112370919
 10
154.6562782868
 20
127.2443777846
 10
155.0621753619
 20
127.385463976
 10
155.4680724371
 20
127.7130165723
 10
155.8121753619
 20
128.1771686601
 10
156.0420975856
 20
128.7072572915
 10
156.1228355337
 20
129.2225812777
 10
156.0420975856
 20
129.6446872132
 10
155.8121753619
 20
129.9093132957
 10
155.4680724371
 20
129.976172603
 10
155.0621753619
 20
129.8350864116
 10
154.6562782868
 20
129.5075338153
 10
154.3121753619
 20
129.0433817275
 10
154.0822531383
 20
128.5132930961
 10
154.0015151902
 20
127.9979691099
  0
LWPOLYLINE
  5
28B
330
1F
100
AcDbEntity
  8
0
  6
HIDDEN
 62
     7
370
     0
100
AcDbPolyline
 90
       17
 70
   128
 43
0.0
 10
190.9124891681
 20
149.3062208285
 10
190.83175122
 20
149.728326764
 10
190.6018289963
 20
149.9929528465
 10
190.2577260714
 20
150.0598121538
 10
189.8518289963
 20
149.9187259625
 10
189.4459319212
 20
149.5911733661
 10
189.1018289963
 20
149.1270212784
 10
188.8719067727
 20
148.596932647
 10
188.7911688245
 20
148.0816086608
 10
188.8719067727
 20
147.6595027253
 10
189.1018289963
 20
147.3948766428
 10
189.4459319212
 20
147.3280173355
 10
189.8518289963
 20
147.4691035268
 10
190.2577260714
 20
147.7966561231
 10
190.6018289963
 20
148.2608082109
 10
190.83175122
 20
148.7908968423
 10
190.9124891681
 20
149.3062208285
  0
LWPOLYLINE
  5
28C
330
1F
100
AcDbEntity
  8
0
  6
Continuous
 62
     7
370
     0
100
AcDbPolyline
 90
       17
 70
   128
 43
0.0
 10
178.6088311755
 20
116.2416922997
 10
178.5280932273
 20
115.7263683135
 10
178.2981710037
 20
115.1962796821
 10
177.9540680788
 20
114.7321275943
 10
177.5481710037
 20
114.404574998
 10
177.1422739286
 20
114.2634888066
 10
176.7981710037
 20
114.330348114
 10
176.56824878
 20
114.5949741965
 10
176.4875108319
 20
115.017080132
 10
176.56824878
 20
115.5324041181
 10
176.7981710037
 20
116.0624927496
 10
177.1422739286
 20
116.5266448373
 10
177.5481710037
 20
116.8541974336
 10
177.9540680788
 20
116.995283625
 10
178.2981710037
 20
116.9284243177
 10
178.5280932273
 20
116.6637982352
 10
178.6088311755
 20
116.2416922997
  0
LWPOLYLINE
  5
28D
330
1F
100
AcDbEntity
  8
0
  6
Continuous
 62
     7
370
     0
100
AcDbPolyline
 90
       17
 70
   128
 43
0.0
 10
211.2771644663
 20
135.1007196828
 10
211.3579024144
 20
135.616043669
 10
211.5878246381
 20
136.1461323004
 10
211.9319275629
 20
136.6102843882
 10
212.3378246381
 20
136.9378369845
 10
212.7437217132
 20
137.0789231758
 10
213.0878246381
 20
137.0120638685
 10
213.3177468617
 20
136.747437786
 10
213.3984848098
 20
136.3253318505
 10
213.3177468617
 20
135.8100078643
 10
213.0878246381
 20
135.2799192329
 10
212.7437217132
 20
134.8157671451
 10
212.3378246381
 20
134.4882145488
 10
211.9319275629
 20
134.3471283575
 10
211.5878246381
 20
134.4139876648
 10
211.3579024144
 20
134.6786137473
 10
211.2771644663
 20
135.1007196828
  0
ENDSEC
  0
SECTION
  2
OBJECTS
  0
DICTIONARY
  5
C
330
0
100
AcDbDictionary
281
     1
  3
ACAD_GROUP
350
D
  3
ACAD_LAYOUT
350
1A
  3
ACAD_MLINESTYLE
350
17
  3
ACAD_PLOTSETTINGS
350
19
  3
ACAD_PLOTSTYLENAME
350
E
  0
DICTIONARY
  5
D
102
{ACAD_REACTORS
330
C
102
}
330
C
100
AcDbDictionary
281
     1
  0
DICTIONARY
  5
1A
102
{ACAD_REACTORS
330
C
102
}
330
C
100
AcDbDictionary
281
     1
  3
Layout1
350
1E
  3
Layout2
350
26
  3
Model
350
22
  0
DICTIONARY
  5
17
102
{ACAD_REACTORS
330
C
102
}
330
C
100
AcDbDictionary
281
     1
  3
Standard
350
18
  0
DICTIONARY
  5
19
102
{ACAD_REACTORS
330
C
102
}
330
C
100
AcDbDictionary
281
     1
  0
ACDBDICTIONARYWDFLT
  5
E
102
{ACAD_REACTORS
330
C
102
}
330
C
100
AcDbDictionary
281
     1
  3
Normal
350
F
100
AcDbDictionaryWithDefault
340
F
  0
LAYOUT
  5
1E
102
{ACAD_REACTORS
330
1A
102
}
330
1A
100
AcDbPlotSettings
  1

  2
none_device
  4

  6

 40
0.0
 41
0.0
 42
0.0
 43
0.0
 44
0.0
 45
0.0
 46
0.0
 47
0.0
 48
0.0
 49
0.0
140
0.0
141
0.0
142
1.0
143
1.0
 70
   688
 72
     0
 73
     0
 74
     5
  7

 75
    16
147
1.0
148
0.0
149
0.0
100
AcDbLayout
  1
Layout1
 70
     1
 71
     1
 10
0.0
 20
0.0
 11
420.0
 21
297.0
 12
0.0
 22
0.0
 32
0.0
 14
1.0000000000E+20
 24
1.0000000000E+20
 34
1.0000000000E+20
 15
-1.0000000000E+20
 25
-1.0000000000E+20
 35
-1.0000000000E+20
146
0.0
 13
0.0
 23
0.0
 33
0.0
 16
1.0
 26
0.0
 36
0.0
 17
0.0
 27
1.0
 37
0.0
 76
     0
330
1B
  0
LAYOUT
  5
26
102
{ACAD_REACTORS
330
1A
102
}
330
1A
100
AcDbPlotSettings
  1

  2
none_device
  4

  6

 40
0.0
 41
0.0
 42
0.0
 43
0.0
 44
0.0
 45
0.0
 46
0.0
 47
0.0
 48
0.0
 49
0.0
140
0.0
141
0.0
142
1.0
143
1.0
 70
   688
 72
     0
 73
     0
 74
     5
  7

 75
    16
147
1.0
148
0.0
149
0.0
100
AcDbLayout
  1
Layout2
 70
     1
 71
     2
 10
0.0
 20
0.0
 11
0.0
 21
0.0
 12
0.0
 22
0.0
 32
0.0
 14
0.0
 24
0.0
 34
0.0
 15
0.0
 25
0.0
 35
0.0
146
0.0
 13
0.0
 23
0.0
 33
0.0
 16
1.0
 26
0.0
 36
0.0
 17
0.0
 27
1.0
 37
0.0
 76
     0
330
23
  0
LAYOUT
  5
22
102
{ACAD_REACTORS
330
1A
102
}
330
1A
100
AcDbPlotSettings
  1

  2
none_device
  4

  6

 40
0.0
 41
0.0
 42
0.0
 43
0.0
 44
0.0
 45
0.0
 46
0.0
 47
0.0
 48
0.0
 49
0.0
140
0.0
141
0.0
142
1.0
143
1.0
 70
  1712
 72
     0
 73
     0
 74
     0
  7

 75
     0
147
1.0
148
0.0
149
0.0
100
AcDbLayout
  1
Model
 70
     1
 71
     0
 10
0.0
 20
0.0
 11
0.0
 21
0.0
 12
0.0
 22
0.0
 32
0.0
 14
0.0
 24
0.0
 34
0.0
 15
297.0
 25
210.0
 35
0.0
146
0.0
 13
0.0
 23
0.0
 33
0.0
 16
1.0
 26
0.0
 36
0.0
 17
0.0
 27
1.0
 37
0.0
 76
     0
330
1F
  0
MLINESTYLE
  5
18
102
{ACAD_REACTORS
330
17
102
}
330
17
100
AcDbMlineStyle
  2
Standard
 70
     0
  3

 62
   256
 51
90.0
 52
90.0
 71
     2
 49
0.5
 62
   256
  6
BYLAYER
 49
-0.5
 62
   256
  6
BYLAYER
  0
ACDBPLACEHOLDER
  5
F
102
{ACAD_REACTORS
330
E
102
}
330
E
  0
ENDSEC
  0
EOF
