  0
SECTION
  2
HEADER
  9
$ACADVER
  1
AC1015
  9
$ACADMAINTVER
 70
     6
  9
$DWGCODEPAGE
  3
ANSI_1252
  9
$INSBASE
 10
0.0
 20
0.0
 30
0.0
  9
$EXTMIN
 10
0.0
 20
0.0
 30
0.0
  9
$EXTMAX
 10
297.0
 20
210.0
 30
0.0
  9
$LIMMIN
 10
0.0
 20
0.0
  9
$LIMMAX
 10
297.0
 20
210.0
  9
$ORTHOMODE
 70
     0
  9
$REGENMODE
 70
     1
  9
$FILLMODE
 70
     1
  9
$QTEXTMODE
 70
     0
  9
$MIRRTEXT
 70
     1
  9
$LTSCALE
 40
1.0
  9
$ATTMODE
 70
     1
  9
$TEXTSIZE
 40
3.5
  9
$TRACEWID
 40
1.0
  9
$TEXTSTYLE
  7
Standard
  9
$CLAYER
  8
0
  9
$CELTYPE
  6
ByLayer
  9
$CECOLOR
 62
   256
  9
$CELTSCALE
 40
1.0
  9
$DISPSILH
 70
     0
  9
$DIMSCALE
 40
1.0
  9
$DIMASZ
 40
6.0
  9
$DIMEXO
 40
1.0
  9
$DIMDLI
 40
3.75
  9
$DIMRND
 40
0.0
  9
$DIMDLE
 40
0.0
  9
$DIMEXE
 40
1.0
  9
$DIMTP
 40
0.0
  9
$DIMTM
 40
0.0
  9
$DIMTXT
 40
3.5
  9
$DIMCEN
 40
2.5
  9
$DIMTSZ
 40
0.0
  9
$DIMTOL
 70
     0
  9
$DIMLIM
 70
     0
  9
$DIMTIH
 70
     1
  9
$DIMTOH
 70
     1
  9
$DIMSE1
 70
     0
  9
$DIMSE2
 70
     0
  9
$DIMTAD
 70
     1
  9
$DIMZIN
 70
     0
  9
$DIMBLK
  1

  9
$DIMASO
 70
     1
  9
$DIMSHO
 70
     1
  9
$DIMPOST
  1

  9
$DIMAPOST
  1

  9
$DIMALT
 70
     0
  9
$DIMALTD
 70
     3
  9
$DIMALTF
 40
0.0393700787
  9
$DIMLFAC
 40
1.0
  9
$DIMTOFL
 70
     1
  9
$DIMTVP
 40
0.0
  9
$DIMTIX
 70
     0
  9
$DIMSOXD
 70
     0
  9
$DIMSAH
 70
     0
  9
$DIMBLK1
  1

  9
$DIMBLK2
  1

  9
$DIMSTYLE
  2
ISO-25
  9
$DIMCLRD
 70
     0
  9
$DIMCLRE
 70
     0
  9
$DIMCLRT
 70
     0
  9
$DIMTFAC
 40
1.0
  9
$DIMGAP
 40
1.524
  9
$DIMJUST
 70
     0
  9
$DIMSD1
 70
     0
  9
$DIMSD2
 70
     0
  9
$DIMTOLJ
 70
     0
  9
$DIMTZIN
 70
     0
  9
$DIMALTZ
 70
     0
  9
$DIMALTTZ
 70
     0
  9
$DIMUPT
 70
     0
  9
$DIMDEC
 70
     2
  9
$DIMTDEC
 70
     2
  9
$DIMALTU
 70
     2
  9
$DIMALTTD
 70
     3
  9
$DIMTXSTY
  7
Standard
  9
$DIMAUNIT
 70
     0
  9
$DIMADEC
 70
     0
  9
$DIMALTRND
 40
0.0
  9
$DIMAZIN
 70
     0
  9
$DIMDSEP
 70
    44
  9
$DIMATFIT
 70
     3
  9
$DIMFRAC
 70
     0
  9
$DIMLDRBLK
  1

  9
$DIMLUNIT
 70
     2
  9
$DIMLWD
 70
    -2
  9
$DIMLWE
 70
    -2
  9
$DIMTMOVE
 70
     0
  9
$LUNITS
 70
     2
  9
$LUPREC
 70
     2
  9
$SKETCHINC
 40
1.0
  9
$FILLETRAD
 40
10.0
  9
$AUNITS
 70
     0
  9
$AUPREC
 70
     0
  9
$MENU
  1
.
  9
$ELEVATION
 40
0.0
  9
$PELEVATION
 40
0.0
  9
$THICKNESS
 40
0.0
  9
$LIMCHECK
 70
     0
  9
$CHAMFERA
 40
10.0
  9
$CHAMFERB
 40
10.0
  9
$CHAMFERC
 40
20.0
  9
$CHAMFERD
 40
0.0
  9
$SKPOLY
 70
     0
  9
$TDCREATE
 40
2454465.300368194
  9
$TDUCREATE
 40
2454465.508701528
  9
$TDUPDATE
 40
2454465.300368206
  9
$TDUUPDATE
 40
2454465.508701539
  9
$TDINDWG
 40
0.0000000116
  9
$TDUSRTIMER
 40
0.0000000116
  9
$USRTIMER
 70
     1
  9
$ANGBASE
 50
0.0
  9
$ANGDIR
 70
     0
  9
$PDMODE
 70
     0
  9
$PDSIZE
 40
-1.0
  9
$PLINEWID
 40
0.0
  9
$SPLFRAME
 70
     0
  9
$SPLINETYPE
 70
     6
  9
$SPLINESEGS
 70
     8
  9
$HANDSEED
  5
2FB
  9
$SURFTAB1
 70
     6
  9
$SURFTAB2
 70
     6
  9
$SURFTYPE
 70
     6
  9
$SURFU
 70
     6
  9
$SURFV
 70
     6
  9
$UCSBASE
  2

  9
$UCSNAME
  2

  9
$UCSORG
 10
0.0
 20
0.0
 30
0.0
  9
$UCSXDIR
 10
1.0
 20
0.0
 30
0.0
  9
$UCSYDIR
 10
0.0
 20
1.0
 30
0.0
  9
$UCSORTHOREF
  2

  9
$UCSORTHOVIEW
 70
     0
  9
$UCSORGTOP
 10
0.0
 20
0.0
 30
0.0
  9
$UCSORGBOTTOM
 10
0.0
 20
0.0
 30
0.0
  9
$UCSORGLEFT
 10
0.0
 20
0.0
 30
0.0
  9
$UCSORGRIGHT
 10
0.0
 20
0.0
 30
0.0
  9
$UCSORGFRONT
 10
0.0
 20
0.0
 30
0.0
  9
$UCSORGBACK
 10
0.0
 20
0.0
 30
0.0
  9
$PUCSBASE
  2

  9
$PUCSNAME
  2

  9
$PUCSORG
 10
0.0
 20
0.0
 30
0.0
  9
$PUCSXDIR
 10
1.0
 20
0.0
 30
0.0
  9
$PUCSYDIR
 10
0.0
 20
1.0
 30
0.0
  9
$PUCSORTHOREF
  2

  9
$PUCSORTHOVIEW
 70
     0
  9
$PUCSORGTOP
 10
0.0
 20
0.0
 30
0.0
  9
$PUCSORGBOTTOM
 10
0.0
 20
0.0
 30
0.0
  9
$PUCSORGLEFT
 10
0.0
 20
0.0
 30
0.0
  9
$PUCSORGRIGHT
 10
0.0
 20
0.0
 30
0.0
  9
$PUCSORGFRONT
 10
0.0
 20
0.0
 30
0.0
  9
$PUCSORGBACK
 10
0.0
 20
0.0
 30
0.0
  9
$USERI1
 70
     0
  9
$USERI2
 70
     0
  9
$USERI3
 70
     0
  9
$USERI4
 70
     0
  9
$USERI5
 70
     0
  9
$USERR1
 40
0.0
  9
$USERR2
 40
0.0
  9
$USERR3
 40
0.0
  9
$USERR4
 40
0.0
  9
$USERR5
 40
0.0
  9
$WORLDVIEW
 70
     1
  9
$SHADEDGE
 70
     3
  9
$SHADEDIF
 70
    70
  9
$TILEMODE
 70
     1
  9
$MAXACTVP
 70
    64
  9
$PINSBASE
 10
0.0
 20
0.0
 30
0.0
  9
$PLIMCHECK
 70
     0
  9
$PEXTMIN
 10
1.0000000000E+20
 20
1.0000000000E+20
 30
1.0000000000E+20
  9
$PEXTMAX
 10
-1.0000000000E+20
 20
-1.0000000000E+20
 30
-1.0000000000E+20
  9
$PLIMMIN
 10
0.0
 20
0.0
  9
$PLIMMAX
 10
420.0
 20
297.0
  9
$UNITMODE
 70
     0
  9
$VISRETAIN
 70
     1
  9
$PLINEGEN
 70
     0
  9
$PSLTSCALE
 70
     1
  9
$TREEDEPTH
 70
  3020
  9
$CMLSTYLE
  2
Standard
  9
$CMLJUST
 70
     0
  9
$CMLSCALE
 40
20.0
  9
$PROXYGRAPHICS
 70
     1
  9
$MEASUREMENT
 70
     1
  9
$CELWEIGHT
370
    -1
  9
$ENDCAPS
280
     0
  9
$JOINSTYLE
280
     0
  9
$LWDISPLAY
290
     1
  9
$INSUNITS
 70
     4
  9
$HYPERLINKBASE
  1

  9
$STYLESHEET
  1

  9
$XEDIT
290
     1
  9
$CEPSNTYPE
380
     0
  9
$PSTYLEMODE
290
     1
  9
$FINGERPRINTGUID
  2
{AC9372B4-A097-49DD-BE94-A27D27D562AD}
  9
$VERSIONGUID
  2
{FAEB1C32-E019-11D5-929B-00C0DF256EC4}
  9
$EXTNAMES
290
     1
  9
$PSVPSCALE
 40
0.0
  9
$OLESTARTUP
290
     0
  0
ENDSEC
  0
SECTION
  2
CLASSES
  0
CLASS
  1
ACDBDICTIONARYWDFLT
  2
AcDbDictionaryWithDefault
  3
ObjectDBX Classes
 90
        0
280
     0
281
     0
  0
CLASS
  1
VISUALSTYLE
  2
AcDbVisualStyle
  3
ObjectDBX Classes
 90
     4095
280
     0
281
     0
  0
CLASS
  1
SCALE
  2
AcDbScale
  3
ObjectDBX Classes
 90
     1153
280
     0
281
     0
  0
CLASS
  1
DICTIONARYVAR
  2
AcDbDictionaryVar
  3
ObjectDBX Classes
 90
        0
280
     0
281
     0
  0
CLASS
  1
ACDBPLACEHOLDER
  2
AcDbPlaceHolder
  3
ObjectDBX Classes
 90
        0
280
     0
281
     0
  0
CLASS
  1
LAYOUT
  2
AcDbLayout
  3
ObjectDBX Classes
 90
        0
280
     0
281
     0
  0
ENDSEC
  0
SECTION
  2
TABLES
  0
TABLE
  2
VPORT
  5
8
330
0
100
AcDbSymbolTable
 70
     1
  0
VPORT
  5
29
330
8
100
AcDbSymbolTableRecord
100
AcDbViewportTableRecord
  2
*Active
 70
     0
 10
0.0
 20
0.0
 11
1.0
 21
1.0
 12
148.5
 22
105.0
 13
0.0
 23
0.0
 14
10.0
 24
10.0
 15
10.0
 25
10.0
 16
0.0
 26
0.0
 36
1.0
 17
0.0
 27
0.0
 37
0.0
 40
210.0
 41
1.4142857143
 42
50.0
 43
0.0
 44
0.0
 50
0.0
 51
0.0
 71
     0
 72
  2000
 73
     1
 74
     3
 75
     0
 76
     0
 77
     0
 78
     0
281
     0
 65
     1
110
0.0
120
0.0
130
0.0
111
1.0
121
0.0
131
0.0
112
0.0
122
1.0
132
0.0
 79
     0
146
0.0
  0
ENDTAB
  0
TABLE
  2
LTYPE
  5
5
330
0
100
AcDbSymbolTable
 70
     6
  0
LTYPE
  5
14
330
5
100
AcDbSymbolTableRecord
100
AcDbLinetypeTableRecord
  2
ByBlock
 70
     0
  3

 72
    65
 73
     0
 40
0.0
  0
LTYPE
  5
15
330
5
100
AcDbSymbolTableRecord
100
AcDbLinetypeTableRecord
  2
ByLayer
 70
     0
  3

 72
    65
 73
     0
 40
0.0
  0
LTYPE
  5
16
330
5
100
AcDbSymbolTableRecord
100
AcDbLinetypeTableRecord
  2
Continuous
 70
     0
  3
Solid line
 72
    65
 73
     0
 40
0.0
  0
LTYPE
  5
5D
330
5
100
AcDbSymbolTableRecord
100
AcDbLinetypeTableRecord
  2
HIDDEN
 70
     0
  3
Hidden __ __ __ __ __ __ __ __ __ __ __ __ __ __
 72
    65
 73
     2
 40
1.905
 49
1.27
 74
     0
 49
-0.635
 74
     0
  0
LTYPE
  5
5E
330
5
100
AcDbSymbolTableRecord
100
AcDbLinetypeTableRecord
  2
PHANTOM
 70
     0
  3
Phantom ______  __  __  ______  __  __  ______
 72
    65
 73
     6
 40
12.7
 49
6.35
 74
     0
 49
-1.27
 74
     0
 49
1.27
 74
     0
 49
-1.27
 74
     0
 49
1.27
 74
     0
 49
-1.27
 74
     0
  0
LTYPE
  5
5F
330
5
100
AcDbSymbolTableRecord
100
AcDbLinetypeTableRecord
  2
CENTER
 70
     0
  3
Center ____ _ ____ _ ____ _ ____ _ ____ _ ____
 72
    65
 73
     4
 40
10.16
 49
6.35
 74
     0
 49
-1.27
 74
     0
 49
1.27
 74
     0
 49
-1.27
 74
     0
  0
LTYPE
  5
60
330
5
100
AcDbSymbolTableRecord
100
AcDbLinetypeTableRecord
  2
CENTERX2
 70
     0
  3
Center (2x) ________  __  ________  __  _____
 72
    65
 73
     4
 40
20.32
 49
12.7
 74
     0
 49
-2.54
 74
     0
 49
2.54
 74
     0
 49
-2.54
 74
     0
  0
LTYPE
  5
61
330
5
100
AcDbSymbolTableRecord
100
AcDbLinetypeTableRecord
  2
DOT2
 70
     0
  3
Dot (.5x) ........................................
 72
    65
 73
     2
 40
0.635
 49
0.0
 74
     0
 49
-0.635
 74
     0
  0
ENDTAB
  0
TABLE
  2
LAYER
  5
2
330
0
100
AcDbSymbolTable
 70
     1
  0
LAYER
  5
10
330
2
100
AcDbSymbolTableRecord
100
AcDbLayerTableRecord
  2
0
 70
     0
 62
     7
  6
Continuous
370
    -3
390
F
  0
ENDTAB
  0
TABLE
  2
STYLE
  5
3
330
0
100
AcDbSymbolTable
 70
     1
  0
STYLE
  5
11
330
3
100
AcDbSymbolTableRecord
100
AcDbTextStyleTableRecord
  2
Standard
 70
     0
 40
0.0
 41
1.0
 50
0.0
 71
     0
 42
2.5
  3
txt
  4

  0
ENDTAB
  0
TABLE
  2
VIEW
  5
6
330
0
100
AcDbSymbolTable
 70
     0
  0
ENDTAB
  0
TABLE
  2
UCS
  5
7
330
0
100
AcDbSymbolTable
 70
     0
  0
ENDTAB
  0
TABLE
  2
APPID
  5
9
330
0
100
AcDbSymbolTable
 70
     1
  0
APPID
  5
12
330
9
100
AcDbSymbolTableRecord
100
AcDbRegAppTableRecord
  2
ACAD
 70
     0
  0
ENDTAB
  0
TABLE
  2
DIMSTYLE
  5
A
330
0
100
AcDbSymbolTable
 70
     1
100
AcDbDimStyleTable
  0
DIMSTYLE
105
27
330
A
100
AcDbSymbolTableRecord
100
AcDbDimStyleTableRecord
  2
ISO-25
 70
     0
 41
2.5
 42
0.625
 43
3.75
 44
1.25
 73
     0
 74
     0
 77
     1
 78
     8
140
2.5
141
2.5
143
0.0393700787
147
0.625
171
     3
172
     1
271
     2
272
     2
274
     3
278
    44
283
     0
284
     8
340
11
  0
ENDTAB
  0
TABLE
  2
BLOCK_RECORD
  5
1
330
0
100
AcDbSymbolTable
 70
    16
  0
BLOCK_RECORD
  5
1F
330
1
100
AcDbSymbolTableRecord
100
AcDbBlockTableRecord
  2
*Model_Space
340
22
  0
BLOCK_RECORD
  5
1B
330
1
100
AcDbSymbolTableRecord
100
AcDbBlockTableRecord
  2
*Paper_Space
340
1E
  0
BLOCK_RECORD
  5
23
330
1
100
AcDbSymbolTableRecord
100
AcDbBlockTableRecord
  2
*Paper_Space0
340
26
  0
BLOCK_RECORD
  5
AA
330
1
100
AcDbSymbolTableRecord
100
AcDbBlockTableRecord
  2
SW_CENTERMARKSYMBOL_0
340
0
102
{BLKREFS
331
B5
102
}
  0
BLOCK_RECORD
  5
B6
330
1
100
AcDbSymbolTableRecord
100
AcDbBlockTableRecord
  2
SW_CENTERMARKSYMBOL_1
340
0
102
{BLKREFS
331
C1
102
}
  0
BLOCK_RECORD
  5
C2
330
1
100
AcDbSymbolTableRecord
100
AcDbBlockTableRecord
  2
SW_CENTERMARKSYMBOL_2
340
0
102
{BLKREFS
331
CD
102
}
  0
BLOCK_RECORD
  5
11C
330
1
100
AcDbSymbolTableRecord
100
AcDbBlockTableRecord
  2
SW_CENTERMARKSYMBOL_3
340
0
102
{BLKREFS
331
127
102
}
  0
BLOCK_RECORD
  5
128
330
1
100
AcDbSymbolTableRecord
100
AcDbBlockTableRecord
  2
SW_CENTERMARKSYMBOL_4
340
0
102
{BLKREFS
331
133
102
}
  0
BLOCK_RECORD
  5
1B1
330
1
100
AcDbSymbolTableRecord
100
AcDbBlockTableRecord
  2
SW_CENTERMARKSYMBOL_5
340
0
102
{BLKREFS
331
1BC
102
}
  0
BLOCK_RECORD
  5
1BD
330
1
100
AcDbSymbolTableRecord
100
AcDbBlockTableRecord
  2
SW_CENTERMARKSYMBOL_6
340
0
102
{BLKREFS
331
1C8
102
}
  0
BLOCK_RECORD
  5
1C9
330
1
100
AcDbSymbolTableRecord
100
AcDbBlockTableRecord
  2
SW_CENTERMARKSYMBOL_7
340
0
102
{BLKREFS
331
1D4
102
}
  0
BLOCK_RECORD
  5
1D5
330
1
100
AcDbSymbolTableRecord
100
AcDbBlockTableRecord
  2
SW_CENTERMARKSYMBOL_8
340
0
102
{BLKREFS
331
1E0
102
}
  0
BLOCK_RECORD
  5
1E1
330
1
100
AcDbSymbolTableRecord
100
AcDbBlockTableRecord
  2
SW_CENTERMARKSYMBOL_9
340
0
102
{BLKREFS
331
1EC
102
}
  0
BLOCK_RECORD
  5
1ED
330
1
100
AcDbSymbolTableRecord
100
AcDbBlockTableRecord
  2
SW_CENTERMARKSYMBOL_10
340
0
102
{BLKREFS
331
1F8
102
}
  0
BLOCK_RECORD
  5
1F9
330
1
100
AcDbSymbolTableRecord
100
AcDbBlockTableRecord
  2
SW_CENTERMARKSYMBOL_11
340
0
102
{BLKREFS
331
204
102
}
  0
BLOCK_RECORD
  5
205
330
1
100
AcDbSymbolTableRecord
100
AcDbBlockTableRecord
  2
SW_CENTERMARKSYMBOL_12
340
0
102
{BLKREFS
331
210
102
}
  0
BLOCK_RECORD
  5
211
330
1
100
AcDbSymbolTableRecord
100
AcDbBlockTableRecord
  2
SW_CENTERMARKSYMBOL_13
340
0
102
{BLKREFS
331
21C
102
}
  0
BLOCK_RECORD
  5
21D
330
1
100
AcDbSymbolTableRecord
100
AcDbBlockTableRecord
  2
SW_CENTERMARKSYMBOL_14
340
0
102
{BLKREFS
331
228
102
}
  0
ENDTAB
  0
ENDSEC
  0
SECTION
  2
BLOCKS
  0
BLOCK
  5
20
330
1F
100
AcDbEntity
  8
0
100
AcDbBlockBegin
  2
*Model_Space
 70
     0
 10
0.0
 20
0.0
 30
0.0
  3
*Model_Space
  1

  0
ENDBLK
  5
21
330
1F
100
AcDbEntity
  8
0
100
AcDbBlockEnd
  0
BLOCK
  5
1C
330
1B
100
AcDbEntity
 67
     1
  8
0
100
AcDbBlockBegin
  2
*Paper_Space
 70
     0
 10
0.0
 20
0.0
 30
0.0
  3
*Paper_Space
  1

  0
ENDBLK
  5
1D
330
1B
100
AcDbEntity
 67
     1
  8
0
100
AcDbBlockEnd
  0
BLOCK
  5
24
330
23
100
AcDbEntity
  8
0
100
AcDbBlockBegin
  2
*Paper_Space0
 70
     0
 10
0.0
 20
0.0
 30
0.0
  3
*Paper_Space0
  1

  0
ENDBLK
  5
25
330
23
100
AcDbEntity
  8
0
100
AcDbBlockEnd
  0
BLOCK
  5
AB
330
AA
100
AcDbEntity
  8
0
100
AcDbBlockBegin
  2
SW_CENTERMARKSYMBOL_0
 70
     0
 10
0.0
 20
0.0
 30
0.0
  3
SW_CENTERMARKSYMBOL_0
  1

  0
LINE
  5
AD
330
AA
100
AcDbEntity
  8
0
  6
Continuous
 62
     0
370
     0
100
AcDbLine
 10
0.0
 20
0.0
 30
0.0
 11
0.0
 21
2.5
 31
0.0
  0
LINE
  5
AE
330
AA
100
AcDbEntity
  8
0
  6
Continuous
 62
     0
370
     0
100
AcDbLine
 10
0.0
 20
0.0
 30
0.0
 11
-2.5
 21
0.0
 31
0.0
  0
LINE
  5
AF
330
AA
100
AcDbEntity
  8
0
  6
Continuous
 62
     0
370
     0
100
AcDbLine
 10
0.0
 20
0.0
 30
0.0
 11
0.0
 21
-2.5
 31
0.0
  0
LINE
  5
B0
330
AA
100
AcDbEntity
  8
0
  6
Continuous
 62
     0
370
     0
100
AcDbLine
 10
0.0
 20
0.0
 30
0.0
 11
2.5
 21
0.0
 31
0.0
  0
LINE
  5
B1
330
AA
100
AcDbEntity
  8
0
  6
Continuous
 62
     0
370
     0
100
AcDbLine
 10
0.0
 20
2.5
 30
0.0
 11
0.0
 21
5.0
 31
0.0
  0
LINE
  5
B2
330
AA
100
AcDbEntity
  8
0
  6
Continuous
 62
     0
370
     0
100
AcDbLine
 10
-2.5
 20
0.0
 30
0.0
 11
-5.0
 21
0.0
 31
0.0
  0
LINE
  5
B3
330
AA
100
AcDbEntity
  8
0
  6
Continuous
 62
     0
370
     0
100
AcDbLine
 10
0.0
 20
-2.5
 30
0.0
 11
0.0
 21
-5.0
 31
0.0
  0
LINE
  5
B4
330
AA
100
AcDbEntity
  8
0
  6
Continuous
 62
     0
370
     0
100
AcDbLine
 10
2.5
 20
0.0
 30
0.0
 11
5.0
 21
0.0
 31
0.0
  0
ENDBLK
  5
AC
330
AA
100
AcDbEntity
  8
0
100
AcDbBlockEnd
  0
BLOCK
  5
B7
330
B6
100
AcDbEntity
  8
0
100
AcDbBlockBegin
  2
SW_CENTERMARKSYMBOL_1
 70
     0
 10
0.0
 20
0.0
 30
0.0
  3
SW_CENTERMARKSYMBOL_1
  1

  0
LINE
  5
B9
330
B6
100
AcDbEntity
  8
0
  6
Continuous
 62
     0
370
     0
100
AcDbLine
 10
0.0
 20
0.0
 30
0.0
 11
0.0
 21
2.5
 31
0.0
  0
LINE
  5
BA
330
B6
100
AcDbEntity
  8
0
  6
Continuous
 62
     0
370
     0
100
AcDbLine
 10
0.0
 20
0.0
 30
0.0
 11
-2.5
 21
0.0
 31
0.0
  0
LINE
  5
BB
330
B6
100
AcDbEntity
  8
0
  6
Continuous
 62
     0
370
     0
100
AcDbLine
 10
0.0
 20
0.0
 30
0.0
 11
0.0
 21
-2.5
 31
0.0
  0
LINE
  5
BC
330
B6
100
AcDbEntity
  8
0
  6
Continuous
 62
     0
370
     0
100
AcDbLine
 10
0.0
 20
0.0
 30
0.0
 11
2.5
 21
0.0
 31
0.0
  0
LINE
  5
BD
330
B6
100
AcDbEntity
  8
0
  6
Continuous
 62
     0
370
     0
100
AcDbLine
 10
0.0
 20
2.5
 30
0.0
 11
0.0
 21
3.75
 31
0.0
  0
LINE
  5
BE
330
B6
100
AcDbEntity
  8
0
  6
Continuous
 62
     0
370
     0
100
AcDbLine
 10
-2.5
 20
0.0
 30
0.0
 11
-3.75
 21
0.0
 31
0.0
  0
LINE
  5
BF
330
B6
100
AcDbEntity
  8
0
  6
Continuous
 62
     0
370
     0
100
AcDbLine
 10
0.0
 20
-2.5
 30
0.0
 11
0.0
 21
-3.75
 31
0.0
  0
LINE
  5
C0
330
B6
100
AcDbEntity
  8
0
  6
Continuous
 62
     0
370
     0
100
AcDbLine
 10
2.5
 20
0.0
 30
0.0
 11
3.75
 21
0.0
 31
0.0
  0
ENDBLK
  5
B8
330
B6
100
AcDbEntity
  8
0
100
AcDbBlockEnd
  0
BLOCK
  5
C3
330
C2
100
AcDbEntity
  8
0
100
AcDbBlockBegin
  2
SW_CENTERMARKSYMBOL_2
 70
     0
 10
0.0
 20
0.0
 30
0.0
  3
SW_CENTERMARKSYMBOL_2
  1

  0
LINE
  5
C5
330
C2
100
AcDbEntity
  8
0
  6
Continuous
 62
     0
370
     0
100
AcDbLine
 10
0.0
 20
0.0
 30
0.0
 11
0.0
 21
2.5
 31
0.0
  0
LINE
  5
C6
330
C2
100
AcDbEntity
  8
0
  6
Continuous
 62
     0
370
     0
100
AcDbLine
 10
0.0
 20
0.0
 30
0.0
 11
-2.5
 21
0.0
 31
0.0
  0
LINE
  5
C7
330
C2
100
AcDbEntity
  8
0
  6
Continuous
 62
     0
370
     0
100
AcDbLine
 10
0.0
 20
0.0
 30
0.0
 11
0.0
 21
-2.5
 31
0.0
  0
LINE
  5
C8
330
C2
100
AcDbEntity
  8
0
  6
Continuous
 62
     0
370
     0
100
AcDbLine
 10
0.0
 20
0.0
 30
0.0
 11
2.5
 21
0.0
 31
0.0
  0
LINE
  5
C9
330
C2
100
AcDbEntity
  8
0
  6
Continuous
 62
     0
370
     0
100
AcDbLine
 10
0.0
 20
2.5
 30
0.0
 11
0.0
 21
3.75
 31
0.0
  0
LINE
  5
CA
330
C2
100
AcDbEntity
  8
0
  6
Continuous
 62
     0
370
     0
100
AcDbLine
 10
-2.5
 20
0.0
 30
0.0
 11
-3.75
 21
0.0
 31
0.0
  0
LINE
  5
CB
330
C2
100
AcDbEntity
  8
0
  6
Continuous
 62
     0
370
     0
100
AcDbLine
 10
0.0
 20
-2.5
 30
0.0
 11
0.0
 21
-3.75
 31
0.0
  0
LINE
  5
CC
330
C2
100
AcDbEntity
  8
0
  6
Continuous
 62
     0
370
     0
100
AcDbLine
 10
2.5
 20
0.0
 30
0.0
 11
3.75
 21
0.0
 31
0.0
  0
ENDBLK
  5
C4
330
C2
100
AcDbEntity
  8
0
100
AcDbBlockEnd
  0
BLOCK
  5
11D
330
11C
100
AcDbEntity
  8
0
100
AcDbBlockBegin
  2
SW_CENTERMARKSYMBOL_3
 70
     0
 10
0.0
 20
0.0
 30
0.0
  3
SW_CENTERMARKSYMBOL_3
  1

  0
LINE
  5
11F
330
11C
100
AcDbEntity
  8
0
  6
Continuous
 62
     0
370
     0
100
AcDbLine
 10
0.0
 20
0.0
 30
0.0
 11
0.0
 21
2.5
 31
0.0
  0
LINE
  5
120
330
11C
100
AcDbEntity
  8
0
  6
Continuous
 62
     0
370
     0
100
AcDbLine
 10
0.0
 20
0.0
 30
0.0
 11
-2.5
 21
0.0
 31
0.0
  0
LINE
  5
121
330
11C
100
AcDbEntity
  8
0
  6
Continuous
 62
     0
370
     0
100
AcDbLine
 10
0.0
 20
0.0
 30
0.0
 11
0.0
 21
-2.5
 31
0.0
  0
LINE
  5
122
330
11C
100
AcDbEntity
  8
0
  6
Continuous
 62
     0
370
     0
100
AcDbLine
 10
0.0
 20
0.0
 30
0.0
 11
2.5
 21
0.0
 31
0.0
  0
LINE
  5
123
330
11C
100
AcDbEntity
  8
0
  6
Continuous
 62
     0
370
     0
100
AcDbLine
 10
0.0
 20
2.5
 30
0.0
 11
0.0
 21
5.0
 31
0.0
  0
LINE
  5
124
330
11C
100
AcDbEntity
  8
0
  6
Continuous
 62
     0
370
     0
100
AcDbLine
 10
-2.5
 20
0.0
 30
0.0
 11
-5.0
 21
0.0
 31
0.0
  0
LINE
  5
125
330
11C
100
AcDbEntity
  8
0
  6
Continuous
 62
     0
370
     0
100
AcDbLine
 10
0.0
 20
-2.5
 30
0.0
 11
0.0
 21
-5.0
 31
0.0
  0
LINE
  5
126
330
11C
100
AcDbEntity
  8
0
  6
Continuous
 62
     0
370
     0
100
AcDbLine
 10
2.5
 20
0.0
 30
0.0
 11
5.0
 21
0.0
 31
0.0
  0
ENDBLK
  5
11E
330
11C
100
AcDbEntity
  8
0
100
AcDbBlockEnd
  0
BLOCK
  5
129
330
128
100
AcDbEntity
  8
0
100
AcDbBlockBegin
  2
SW_CENTERMARKSYMBOL_4
 70
     0
 10
0.0
 20
0.0
 30
0.0
  3
SW_CENTERMARKSYMBOL_4
  1

  0
LINE
  5
12B
330
128
100
AcDbEntity
  8
0
  6
Continuous
 62
     0
370
     0
100
AcDbLine
 10
0.0
 20
0.0
 30
0.0
 11
0.0
 21
2.5
 31
0.0
  0
LINE
  5
12C
330
128
100
AcDbEntity
  8
0
  6
Continuous
 62
     0
370
     0
100
AcDbLine
 10
0.0
 20
0.0
 30
0.0
 11
-2.5
 21
0.0
 31
0.0
  0
LINE
  5
12D
330
128
100
AcDbEntity
  8
0
  6
Continuous
 62
     0
370
     0
100
AcDbLine
 10
0.0
 20
0.0
 30
0.0
 11
0.0
 21
-2.5
 31
0.0
  0
LINE
  5
12E
330
128
100
AcDbEntity
  8
0
  6
Continuous
 62
     0
370
     0
100
AcDbLine
 10
0.0
 20
0.0
 30
0.0
 11
2.5
 21
0.0
 31
0.0
  0
LINE
  5
12F
330
128
100
AcDbEntity
  8
0
  6
Continuous
 62
     0
370
     0
100
AcDbLine
 10
0.0
 20
2.5
 30
0.0
 11
0.0
 21
5.0
 31
0.0
  0
LINE
  5
130
330
128
100
AcDbEntity
  8
0
  6
Continuous
 62
     0
370
     0
100
AcDbLine
 10
-2.5
 20
0.0
 30
0.0
 11
-5.0
 21
0.0
 31
0.0
  0
LINE
  5
131
330
128
100
AcDbEntity
  8
0
  6
Continuous
 62
     0
370
     0
100
AcDbLine
 10
0.0
 20
-2.5
 30
0.0
 11
0.0
 21
-5.0
 31
0.0
  0
LINE
  5
132
330
128
100
AcDbEntity
  8
0
  6
Continuous
 62
     0
370
     0
100
AcDbLine
 10
2.5
 20
0.0
 30
0.0
 11
5.0
 21
0.0
 31
0.0
  0
ENDBLK
  5
12A
330
128
100
AcDbEntity
  8
0
100
AcDbBlockEnd
  0
BLOCK
  5
1B2
330
1B1
100
AcDbEntity
  8
0
100
AcDbBlockBegin
  2
SW_CENTERMARKSYMBOL_5
 70
     0
 10
0.0
 20
0.0
 30
0.0
  3
SW_CENTERMARKSYMBOL_5
  1

  0
LINE
  5
1B4
330
1B1
100
AcDbEntity
  8
0
  6
Continuous
 62
     0
370
     0
100
AcDbLine
 10
0.0
 20
0.0
 30
0.0
 11
0.0
 21
2.5
 31
0.0
  0
LINE
  5
1B5
330
1B1
100
AcDbEntity
  8
0
  6
Continuous
 62
     0
370
     0
100
AcDbLine
 10
0.0
 20
0.0
 30
0.0
 11
-2.5
 21
0.0
 31
0.0
  0
LINE
  5
1B6
330
1B1
100
AcDbEntity
  8
0
  6
Continuous
 62
     0
370
     0
100
AcDbLine
 10
0.0
 20
0.0
 30
0.0
 11
0.0
 21
-2.5
 31
0.0
  0
LINE
  5
1B7
330
1B1
100
AcDbEntity
  8
0
  6
Continuous
 62
     0
370
     0
100
AcDbLine
 10
0.0
 20
0.0
 30
0.0
 11
2.5
 21
0.0
 31
0.0
  0
LINE
  5
1B8
330
1B1
100
AcDbEntity
  8
0
  6
Continuous
 62
     0
370
     0
100
AcDbLine
 10
0.0
 20
5.0
 30
0.0
 11
0.0
 21
6.75
 31
0.0
  0
LINE
  5
1B9
330
1B1
100
AcDbEntity
  8
0
  6
Continuous
 62
     0
370
     0
100
AcDbLine
 10
-5.0
 20
0.0
 30
0.0
 11
-6.75
 21
0.0
 31
0.0
  0
LINE
  5
1BA
330
1B1
100
AcDbEntity
  8
0
  6
Continuous
 62
     0
370
     0
100
AcDbLine
 10
0.0
 20
-5.0
 30
0.0
 11
0.0
 21
-6.75
 31
0.0
  0
LINE
  5
1BB
330
1B1
100
AcDbEntity
  8
0
  6
Continuous
 62
     0
370
     0
100
AcDbLine
 10
5.0
 20
0.0
 30
0.0
 11
6.75
 21
0.0
 31
0.0
  0
ENDBLK
  5
1B3
330
1B1
100
AcDbEntity
  8
0
100
AcDbBlockEnd
  0
BLOCK
  5
1BE
330
1BD
100
AcDbEntity
  8
0
100
AcDbBlockBegin
  2
SW_CENTERMARKSYMBOL_6
 70
     0
 10
0.0
 20
0.0
 30
0.0
  3
SW_CENTERMARKSYMBOL_6
  1

  0
LINE
  5
1C0
330
1BD
100
AcDbEntity
  8
0
  6
Continuous
 62
     0
370
     0
100
AcDbLine
 10
0.0
 20
0.0
 30
0.0
 11
0.0
 21
2.5
 31
0.0
  0
LINE
  5
1C1
330
1BD
100
AcDbEntity
  8
0
  6
Continuous
 62
     0
370
     0
100
AcDbLine
 10
0.0
 20
0.0
 30
0.0
 11
-2.5
 21
0.0
 31
0.0
  0
LINE
  5
1C2
330
1BD
100
AcDbEntity
  8
0
  6
Continuous
 62
     0
370
     0
100
AcDbLine
 10
0.0
 20
0.0
 30
0.0
 11
0.0
 21
-2.5
 31
0.0
  0
LINE
  5
1C3
330
1BD
100
AcDbEntity
  8
0
  6
Continuous
 62
     0
370
     0
100
AcDbLine
 10
0.0
 20
0.0
 30
0.0
 11
2.5
 21
0.0
 31
0.0
  0
LINE
  5
1C4
330
1BD
100
AcDbEntity
  8
0
  6
Continuous
 62
     0
370
     0
100
AcDbLine
 10
0.0
 20
5.0
 30
0.0
 11
0.0
 21
6.75
 31
0.0
  0
LINE
  5
1C5
330
1BD
100
AcDbEntity
  8
0
  6
Continuous
 62
     0
370
     0
100
AcDbLine
 10
-5.0
 20
0.0
 30
0.0
 11
-6.75
 21
0.0
 31
0.0
  0
LINE
  5
1C6
330
1BD
100
AcDbEntity
  8
0
  6
Continuous
 62
     0
370
     0
100
AcDbLine
 10
0.0
 20
-5.0
 30
0.0
 11
0.0
 21
-6.75
 31
0.0
  0
LINE
  5
1C7
330
1BD
100
AcDbEntity
  8
0
  6
Continuous
 62
     0
370
     0
100
AcDbLine
 10
5.0
 20
0.0
 30
0.0
 11
6.75
 21
0.0
 31
0.0
  0
ENDBLK
  5
1BF
330
1BD
100
AcDbEntity
  8
0
100
AcDbBlockEnd
  0
BLOCK
  5
1CA
330
1C9
100
AcDbEntity
  8
0
100
AcDbBlockBegin
  2
SW_CENTERMARKSYMBOL_7
 70
     0
 10
0.0
 20
0.0
 30
0.0
  3
SW_CENTERMARKSYMBOL_7
  1

  0
LINE
  5
1CC
330
1C9
100
AcDbEntity
  8
0
  6
Continuous
 62
     0
370
     0
100
AcDbLine
 10
0.0
 20
0.0
 30
0.0
 11
0.0
 21
2.5
 31
0.0
  0
LINE
  5
1CD
330
1C9
100
AcDbEntity
  8
0
  6
Continuous
 62
     0
370
     0
100
AcDbLine
 10
0.0
 20
0.0
 30
0.0
 11
-2.5
 21
0.0
 31
0.0
  0
LINE
  5
1CE
330
1C9
100
AcDbEntity
  8
0
  6
Continuous
 62
     0
370
     0
100
AcDbLine
 10
0.0
 20
0.0
 30
0.0
 11
0.0
 21
-2.5
 31
0.0
  0
LINE
  5
1CF
330
1C9
100
AcDbEntity
  8
0
  6
Continuous
 62
     0
370
     0
100
AcDbLine
 10
0.0
 20
0.0
 30
0.0
 11
2.5
 21
0.0
 31
0.0
  0
LINE
  5
1D0
330
1C9
100
AcDbEntity
  8
0
  6
Continuous
 62
     0
370
     0
100
AcDbLine
 10
0.0
 20
5.0
 30
0.0
 11
0.0
 21
6.75
 31
0.0
  0
LINE
  5
1D1
330
1C9
100
AcDbEntity
  8
0
  6
Continuous
 62
     0
370
     0
100
AcDbLine
 10
-5.0
 20
0.0
 30
0.0
 11
-6.75
 21
0.0
 31
0.0
  0
LINE
  5
1D2
330
1C9
100
AcDbEntity
  8
0
  6
Continuous
 62
     0
370
     0
100
AcDbLine
 10
0.0
 20
-5.0
 30
0.0
 11
0.0
 21
-6.75
 31
0.0
  0
LINE
  5
1D3
330
1C9
100
AcDbEntity
  8
0
  6
Continuous
 62
     0
370
     0
100
AcDbLine
 10
5.0
 20
0.0
 30
0.0
 11
6.75
 21
0.0
 31
0.0
  0
ENDBLK
  5
1CB
330
1C9
100
AcDbEntity
  8
0
100
AcDbBlockEnd
  0
BLOCK
  5
1D6
330
1D5
100
AcDbEntity
  8
0
100
AcDbBlockBegin
  2
SW_CENTERMARKSYMBOL_8
 70
     0
 10
0.0
 20
0.0
 30
0.0
  3
SW_CENTERMARKSYMBOL_8
  1

  0
LINE
  5
1D8
330
1D5
100
AcDbEntity
  8
0
  6
Continuous
 62
     0
370
     0
100
AcDbLine
 10
0.0
 20
0.0
 30
0.0
 11
0.0
 21
2.5
 31
0.0
  0
LINE
  5
1D9
330
1D5
100
AcDbEntity
  8
0
  6
Continuous
 62
     0
370
     0
100
AcDbLine
 10
0.0
 20
0.0
 30
0.0
 11
-2.5
 21
0.0
 31
0.0
  0
LINE
  5
1DA
330
1D5
100
AcDbEntity
  8
0
  6
Continuous
 62
     0
370
     0
100
AcDbLine
 10
0.0
 20
0.0
 30
0.0
 11
0.0
 21
-2.5
 31
0.0
  0
LINE
  5
1DB
330
1D5
100
AcDbEntity
  8
0
  6
Continuous
 62
     0
370
     0
100
AcDbLine
 10
0.0
 20
0.0
 30
0.0
 11
2.5
 21
0.0
 31
0.0
  0
LINE
  5
1DC
330
1D5
100
AcDbEntity
  8
0
  6
Continuous
 62
     0
370
     0
100
AcDbLine
 10
0.0
 20
5.0
 30
0.0
 11
0.0
 21
6.75
 31
0.0
  0
LINE
  5
1DD
330
1D5
100
AcDbEntity
  8
0
  6
Continuous
 62
     0
370
     0
100
AcDbLine
 10
-5.0
 20
0.0
 30
0.0
 11
-6.75
 21
0.0
 31
0.0
  0
LINE
  5
1DE
330
1D5
100
AcDbEntity
  8
0
  6
Continuous
 62
     0
370
     0
100
AcDbLine
 10
0.0
 20
-5.0
 30
0.0
 11
0.0
 21
-6.75
 31
0.0
  0
LINE
  5
1DF
330
1D5
100
AcDbEntity
  8
0
  6
Continuous
 62
     0
370
     0
100
AcDbLine
 10
5.0
 20
0.0
 30
0.0
 11
6.75
 21
0.0
 31
0.0
  0
ENDBLK
  5
1D7
330
1D5
100
AcDbEntity
  8
0
100
AcDbBlockEnd
  0
BLOCK
  5
1E2
330
1E1
100
AcDbEntity
  8
0
100
AcDbBlockBegin
  2
SW_CENTERMARKSYMBOL_9
 70
     0
 10
0.0
 20
0.0
 30
0.0
  3
SW_CENTERMARKSYMBOL_9
  1

  0
LINE
  5
1E4
330
1E1
100
AcDbEntity
  8
0
  6
Continuous
 62
     0
370
     0
100
AcDbLine
 10
0.0
 20
0.0
 30
0.0
 11
0.0
 21
2.5
 31
0.0
  0
LINE
  5
1E5
330
1E1
100
AcDbEntity
  8
0
  6
Continuous
 62
     0
370
     0
100
AcDbLine
 10
0.0
 20
0.0
 30
0.0
 11
-2.5
 21
0.0
 31
0.0
  0
LINE
  5
1E6
330
1E1
100
AcDbEntity
  8
0
  6
Continuous
 62
     0
370
     0
100
AcDbLine
 10
0.0
 20
0.0
 30
0.0
 11
0.0
 21
-2.5
 31
0.0
  0
LINE
  5
1E7
330
1E1
100
AcDbEntity
  8
0
  6
Continuous
 62
     0
370
     0
100
AcDbLine
 10
0.0
 20
0.0
 30
0.0
 11
2.5
 21
0.0
 31
0.0
  0
LINE
  5
1E8
330
1E1
100
AcDbEntity
  8
0
  6
Continuous
 62
     0
370
     0
100
AcDbLine
 10
0.0
 20
5.0
 30
0.0
 11
0.0
 21
6.75
 31
0.0
  0
LINE
  5
1E9
330
1E1
100
AcDbEntity
  8
0
  6
Continuous
 62
     0
370
     0
100
AcDbLine
 10
-5.0
 20
0.0
 30
0.0
 11
-6.75
 21
0.0
 31
0.0
  0
LINE
  5
1EA
330
1E1
100
AcDbEntity
  8
0
  6
Continuous
 62
     0
370
     0
100
AcDbLine
 10
0.0
 20
-5.0
 30
0.0
 11
0.0
 21
-6.75
 31
0.0
  0
LINE
  5
1EB
330
1E1
100
AcDbEntity
  8
0
  6
Continuous
 62
     0
370
     0
100
AcDbLine
 10
5.0
 20
0.0
 30
0.0
 11
6.75
 21
0.0
 31
0.0
  0
ENDBLK
  5
1E3
330
1E1
100
AcDbEntity
  8
0
100
AcDbBlockEnd
  0
BLOCK
  5
1EE
330
1ED
100
AcDbEntity
  8
0
100
AcDbBlockBegin
  2
SW_CENTERMARKSYMBOL_10
 70
     0
 10
0.0
 20
0.0
 30
0.0
  3
SW_CENTERMARKSYMBOL_10
  1

  0
LINE
  5
1F0
330
1ED
100
AcDbEntity
  8
0
  6
Continuous
 62
     0
370
     0
100
AcDbLine
 10
0.0
 20
0.0
 30
0.0
 11
0.0
 21
2.5
 31
0.0
  0
LINE
  5
1F1
330
1ED
100
AcDbEntity
  8
0
  6
Continuous
 62
     0
370
     0
100
AcDbLine
 10
0.0
 20
0.0
 30
0.0
 11
-2.5
 21
0.0
 31
0.0
  0
LINE
  5
1F2
330
1ED
100
AcDbEntity
  8
0
  6
Continuous
 62
     0
370
     0
100
AcDbLine
 10
0.0
 20
0.0
 30
0.0
 11
0.0
 21
-2.5
 31
0.0
  0
LINE
  5
1F3
330
1ED
100
AcDbEntity
  8
0
  6
Continuous
 62
     0
370
     0
100
AcDbLine
 10
0.0
 20
0.0
 30
0.0
 11
2.5
 21
0.0
 31
0.0
  0
LINE
  5
1F4
330
1ED
100
AcDbEntity
  8
0
  6
Continuous
 62
     0
370
     0
100
AcDbLine
 10
0.0
 20
5.0
 30
0.0
 11
0.0
 21
6.75
 31
0.0
  0
LINE
  5
1F5
330
1ED
100
AcDbEntity
  8
0
  6
Continuous
 62
     0
370
     0
100
AcDbLine
 10
-5.0
 20
0.0
 30
0.0
 11
-6.75
 21
0.0
 31
0.0
  0
LINE
  5
1F6
330
1ED
100
AcDbEntity
  8
0
  6
Continuous
 62
     0
370
     0
100
AcDbLine
 10
0.0
 20
-5.0
 30
0.0
 11
0.0
 21
-6.75
 31
0.0
  0
LINE
  5
1F7
330
1ED
100
AcDbEntity
  8
0
  6
Continuous
 62
     0
370
     0
100
AcDbLine
 10
5.0
 20
0.0
 30
0.0
 11
6.75
 21
0.0
 31
0.0
  0
ENDBLK
  5
1EF
330
1ED
100
AcDbEntity
  8
0
100
AcDbBlockEnd
  0
BLOCK
  5
1FA
330
1F9
100
AcDbEntity
  8
0
100
AcDbBlockBegin
  2
SW_CENTERMARKSYMBOL_11
 70
     0
 10
0.0
 20
0.0
 30
0.0
  3
SW_CENTERMARKSYMBOL_11
  1

  0
LINE
  5
1FC
330
1F9
100
AcDbEntity
  8
0
  6
Continuous
 62
     0
370
     0
100
AcDbLine
 10
0.0
 20
0.0
 30
0.0
 11
0.0
 21
2.5
 31
0.0
  0
LINE
  5
1FD
330
1F9
100
AcDbEntity
  8
0
  6
Continuous
 62
     0
370
     0
100
AcDbLine
 10
0.0
 20
0.0
 30
0.0
 11
-2.5
 21
0.0
 31
0.0
  0
LINE
  5
1FE
330
1F9
100
AcDbEntity
  8
0
  6
Continuous
 62
     0
370
     0
100
AcDbLine
 10
0.0
 20
0.0
 30
0.0
 11
0.0
 21
-2.5
 31
0.0
  0
LINE
  5
1FF
330
1F9
100
AcDbEntity
  8
0
  6
Continuous
 62
     0
370
     0
100
AcDbLine
 10
0.0
 20
0.0
 30
0.0
 11
2.5
 21
0.0
 31
0.0
  0
LINE
  5
200
330
1F9
100
AcDbEntity
  8
0
  6
Continuous
 62
     0
370
     0
100
AcDbLine
 10
0.0
 20
2.5
 30
0.0
 11
0.0
 21
5.0
 31
0.0
  0
LINE
  5
201
330
1F9
100
AcDbEntity
  8
0
  6
Continuous
 62
     0
370
     0
100
AcDbLine
 10
-2.5
 20
0.0
 30
0.0
 11
-5.0
 21
0.0
 31
0.0
  0
LINE
  5
202
330
1F9
100
AcDbEntity
  8
0
  6
Continuous
 62
     0
370
     0
100
AcDbLine
 10
0.0
 20
-2.5
 30
0.0
 11
0.0
 21
-5.0
 31
0.0
  0
LINE
  5
203
330
1F9
100
AcDbEntity
  8
0
  6
Continuous
 62
     0
370
     0
100
AcDbLine
 10
2.5
 20
0.0
 30
0.0
 11
5.0
 21
0.0
 31
0.0
  0
ENDBLK
  5
1FB
330
1F9
100
AcDbEntity
  8
0
100
AcDbBlockEnd
  0
BLOCK
  5
206
330
205
100
AcDbEntity
  8
0
100
AcDbBlockBegin
  2
SW_CENTERMARKSYMBOL_12
 70
     0
 10
0.0
 20
0.0
 30
0.0
  3
SW_CENTERMARKSYMBOL_12
  1

  0
LINE
  5
208
330
205
100
AcDbEntity
  8
0
  6
Continuous
 62
     0
370
     0
100
AcDbLine
 10
0.0
 20
0.0
 30
0.0
 11
0.0
 21
2.5
 31
0.0
  0
LINE
  5
209
330
205
100
AcDbEntity
  8
0
  6
Continuous
 62
     0
370
     0
100
AcDbLine
 10
0.0
 20
0.0
 30
0.0
 11
-2.5
 21
0.0
 31
0.0
  0
LINE
  5
20A
330
205
100
AcDbEntity
  8
0
  6
Continuous
 62
     0
370
     0
100
AcDbLine
 10
0.0
 20
0.0
 30
0.0
 11
0.0
 21
-2.5
 31
0.0
  0
LINE
  5
20B
330
205
100
AcDbEntity
  8
0
  6
Continuous
 62
     0
370
     0
100
AcDbLine
 10
0.0
 20
0.0
 30
0.0
 11
2.5
 21
0.0
 31
0.0
  0
LINE
  5
20C
330
205
100
AcDbEntity
  8
0
  6
Continuous
 62
     0
370
     0
100
AcDbLine
 10
0.0
 20
2.5
 30
0.0
 11
0.0
 21
2.9
 31
0.0
  0
LINE
  5
20D
330
205
100
AcDbEntity
  8
0
  6
Continuous
 62
     0
370
     0
100
AcDbLine
 10
-2.5
 20
0.0
 30
0.0
 11
-2.9
 21
0.0
 31
0.0
  0
LINE
  5
20E
330
205
100
AcDbEntity
  8
0
  6
Continuous
 62
     0
370
     0
100
AcDbLine
 10
0.0
 20
-2.5
 30
0.0
 11
0.0
 21
-2.9
 31
0.0
  0
LINE
  5
20F
330
205
100
AcDbEntity
  8
0
  6
Continuous
 62
     0
370
     0
100
AcDbLine
 10
2.5
 20
0.0
 30
0.0
 11
2.9
 21
0.0
 31
0.0
  0
ENDBLK
  5
207
330
205
100
AcDbEntity
  8
0
100
AcDbBlockEnd
  0
BLOCK
  5
212
330
211
100
AcDbEntity
  8
0
100
AcDbBlockBegin
  2
SW_CENTERMARKSYMBOL_13
 70
     0
 10
0.0
 20
0.0
 30
0.0
  3
SW_CENTERMARKSYMBOL_13
  1

  0
LINE
  5
214
330
211
100
AcDbEntity
  8
0
  6
Continuous
 62
     0
370
     0
100
AcDbLine
 10
0.0
 20
0.0
 30
0.0
 11
0.0
 21
2.5
 31
0.0
  0
LINE
  5
215
330
211
100
AcDbEntity
  8
0
  6
Continuous
 62
     0
370
     0
100
AcDbLine
 10
0.0
 20
0.0
 30
0.0
 11
-2.5
 21
0.0
 31
0.0
  0
LINE
  5
216
330
211
100
AcDbEntity
  8
0
  6
Continuous
 62
     0
370
     0
100
AcDbLine
 10
0.0
 20
0.0
 30
0.0
 11
0.0
 21
-2.5
 31
0.0
  0
LINE
  5
217
330
211
100
AcDbEntity
  8
0
  6
Continuous
 62
     0
370
     0
100
AcDbLine
 10
0.0
 20
0.0
 30
0.0
 11
2.5
 21
0.0
 31
0.0
  0
LINE
  5
218
330
211
100
AcDbEntity
  8
0
  6
Continuous
 62
     0
370
     0
100
AcDbLine
 10
0.0
 20
2.5
 30
0.0
 11
0.0
 21
5.0
 31
0.0
  0
LINE
  5
219
330
211
100
AcDbEntity
  8
0
  6
Continuous
 62
     0
370
     0
100
AcDbLine
 10
-2.5
 20
0.0
 30
0.0
 11
-5.0
 21
0.0
 31
0.0
  0
LINE
  5
21A
330
211
100
AcDbEntity
  8
0
  6
Continuous
 62
     0
370
     0
100
AcDbLine
 10
0.0
 20
-2.5
 30
0.0
 11
0.0
 21
-5.0
 31
0.0
  0
LINE
  5
21B
330
211
100
AcDbEntity
  8
0
  6
Continuous
 62
     0
370
     0
100
AcDbLine
 10
2.5
 20
0.0
 30
0.0
 11
5.0
 21
0.0
 31
0.0
  0
ENDBLK
  5
213
330
211
100
AcDbEntity
  8
0
100
AcDbBlockEnd
  0
BLOCK
  5
21E
330
21D
100
AcDbEntity
  8
0
100
AcDbBlockBegin
  2
SW_CENTERMARKSYMBOL_14
 70
     0
 10
0.0
 20
0.0
 30
0.0
  3
SW_CENTERMARKSYMBOL_14
  1

  0
LINE
  5
220
330
21D
100
AcDbEntity
  8
0
  6
Continuous
 62
     0
370
     0
100
AcDbLine
 10
0.0
 20
0.0
 30
0.0
 11
0.0
 21
2.5
 31
0.0
  0
LINE
  5
221
330
21D
100
AcDbEntity
  8
0
  6
Continuous
 62
     0
370
     0
100
AcDbLine
 10
0.0
 20
0.0
 30
0.0
 11
-2.5
 21
0.0
 31
0.0
  0
LINE
  5
222
330
21D
100
AcDbEntity
  8
0
  6
Continuous
 62
     0
370
     0
100
AcDbLine
 10
0.0
 20
0.0
 30
0.0
 11
0.0
 21
-2.5
 31
0.0
  0
LINE
  5
223
330
21D
100
AcDbEntity
  8
0
  6
Continuous
 62
     0
370
     0
100
AcDbLine
 10
0.0
 20
0.0
 30
0.0
 11
2.5
 21
0.0
 31
0.0
  0
LINE
  5
224
330
21D
100
AcDbEntity
  8
0
  6
Continuous
 62
     0
370
     0
100
AcDbLine
 10
0.0
 20
2.5
 30
0.0
 11
0.0
 21
2.9
 31
0.0
  0
LINE
  5
225
330
21D
100
AcDbEntity
  8
0
  6
Continuous
 62
     0
370
     0
100
AcDbLine
 10
-2.5
 20
0.0
 30
0.0
 11
-2.9
 21
0.0
 31
0.0
  0
LINE
  5
226
330
21D
100
AcDbEntity
  8
0
  6
Continuous
 62
     0
370
     0
100
AcDbLine
 10
0.0
 20
-2.5
 30
0.0
 11
0.0
 21
-2.9
 31
0.0
  0
LINE
  5
227
330
21D
100
AcDbEntity
  8
0
  6
Continuous
 62
     0
370
     0
100
AcDbLine
 10
2.5
 20
0.0
 30
0.0
 11
2.9
 21
0.0
 31
0.0
  0
ENDBLK
  5
21F
330
21D
100
AcDbEntity
  8
0
100
AcDbBlockEnd
  0
ENDSEC
  0
SECTION
  2
ENTITIES
  0
ARC
  5
62
330
1F
100
AcDbEntity
  8
0
  6
Continuous
 62
     7
370
     0
100
AcDbCircle
 10
83.0960285856
 20
28.0406905026
 30
0.0
 40
2.860000000002603
100
AcDbArc
 50
180.3758669589
 51
262.8091481769
  0
LINE
  5
63
330
1F
100
AcDbEntity
  8
0
  6
Continuous
 62
     7
370
     0
100
AcDbLine
 10
80.2360901256
 20
28.0219287055
 30
0.0
 11
79.4380285856
 21
28.4826905026
 31
0.0
  0
LINE
  5
64
330
1F
100
AcDbEntity
  8
0
  6
Continuous
 62
     7
370
     0
100
AcDbLine
 10
79.4380285856
 20
28.4826905026
 30
0.0
 11
79.4380285856
 21
36.9826905026
 31
0.0
  0
LINE
  5
65
330
1F
100
AcDbEntity
  8
0
  6
Continuous
 62
     7
370
     0
100
AcDbLine
 10
79.4380285856
 20
36.9826905026
 30
0.0
 11
80.2360901256
 21
37.4434522998
 31
0.0
  0
ARC
  5
66
330
1F
100
AcDbEntity
  8
0
  6
Continuous
 62
     7
370
     0
100
AcDbCircle
 10
83.0960285856
 20
37.4246905026
 30
0.0
 40
2.859999999994528
100
AcDbArc
 50
97.190851823
 51
179.6241330412
  0
LINE
  5
67
330
1F
100
AcDbEntity
  8
0
  6
Continuous
 62
     7
370
     0
100
AcDbLine
 10
82.7380285856
 20
40.2621957449
 30
0.0
 11
82.7380285856
 21
42.3801905026
 31
0.0
  0
LINE
  5
68
330
1F
100
AcDbEntity
  8
0
  6
Continuous
 62
     7
370
     0
100
AcDbLine
 10
82.7380285856
 20
42.3801905026
 30
0.0
 11
82.4174775599
 21
42.7007415284
 31
0.0
  0
LINE
  5
69
330
1F
100
AcDbEntity
  8
0
  6
Continuous
 62
     7
370
     0
100
AcDbLine
 10
82.4174775599
 20
42.7007415284
 30
0.0
 11
83.055718864
 21
45.0826905026
 31
0.0
  0
LINE
  5
6A
330
1F
100
AcDbEntity
  8
0
  6
Continuous
 62
     7
370
     0
100
AcDbLine
 10
83.055718864
 20
45.0826905026
 30
0.0
 11
57.8203383073
 21
45.0826905026
 31
0.0
  0
LINE
  5
6B
330
1F
100
AcDbEntity
  8
0
  6
Continuous
 62
     7
370
     0
100
AcDbLine
 10
57.8203383073
 20
45.0826905026
 30
0.0
 11
58.4585796114
 21
42.7007415284
 31
0.0
  0
LINE
  5
6C
330
1F
100
AcDbEntity
  8
0
  6
Continuous
 62
     7
370
     0
100
AcDbLine
 10
58.4585796114
 20
42.7007415284
 30
0.0
 11
58.1380285856
 21
42.3801905026
 31
0.0
  0
LINE
  5
6D
330
1F
100
AcDbEntity
  8
0
  6
Continuous
 62
     7
370
     0
100
AcDbLine
 10
58.1380285856
 20
42.3801905026
 30
0.0
 11
58.1380285856
 21
40.2621957449
 31
0.0
  0
ARC
  5
6E
330
1F
100
AcDbEntity
  8
0
  6
Continuous
 62
     7
370
     0
100
AcDbCircle
 10
57.7800285857
 20
37.4246905026
 30
0.0
 40
2.859999999994526
100
AcDbArc
 50
0.3758669588
 51
82.809148177
  0
LINE
  5
6F
330
1F
100
AcDbEntity
  8
0
  6
Continuous
 62
     7
370
     0
100
AcDbLine
 10
60.6399670456
 20
37.4434522998
 30
0.0
 11
61.4380285857
 21
36.9826905026
 31
0.0
  0
LINE
  5
70
330
1F
100
AcDbEntity
  8
0
  6
Continuous
 62
     7
370
     0
100
AcDbLine
 10
61.4380285857
 20
36.9826905026
 30
0.0
 11
61.4380285857
 21
28.4826905026
 31
0.0
  0
LINE
  5
71
330
1F
100
AcDbEntity
  8
0
  6
Continuous
 62
     7
370
     0
100
AcDbLine
 10
61.4380285857
 20
28.4826905026
 30
0.0
 11
60.6399670456
 21
28.0219287055
 31
0.0
  0
ARC
  5
72
330
1F
100
AcDbEntity
  8
0
  6
Continuous
 62
     7
370
     0
100
AcDbCircle
 10
57.7800285856
 20
28.0406905026
 30
0.0
 40
2.86000000000261
100
AcDbArc
 50
277.1908518231
 51
359.6241330411
  0
LINE
  5
73
330
1F
100
AcDbEntity
  8
0
  6
Continuous
 62
     7
370
     0
100
AcDbLine
 10
58.1380285856
 20
25.2031852604
 30
0.0
 11
58.1380285856
 21
22.9326905026
 31
0.0
  0
LINE
  5
74
330
1F
100
AcDbEntity
  8
0
  6
Continuous
 62
     7
370
     0
100
AcDbLine
 10
41.2380285856
 20
25.1526905026
 30
0.0
 11
43.4580285856
 21
22.9326905026
 31
0.0
  0
LINE
  5
75
330
1F
100
AcDbEntity
  8
0
  6
Continuous
 62
     7
370
     0
100
AcDbLine
 10
41.2380285856
 20
56.3826905026
 30
0.0
 11
41.2380285856
 21
25.1526905026
 31
0.0
  0
ARC
  5
76
330
1F
100
AcDbEntity
  8
0
  6
Continuous
 62
     7
370
     0
100
AcDbCircle
 10
42.2380285856
 20
56.3826905026
 30
0.0
 40
1.0
100
AcDbArc
 50
90.0
 51
180.0
  0
LINE
  5
77
330
1F
100
AcDbEntity
  8
0
  6
Continuous
 62
     7
370
     0
100
AcDbLine
 10
61.5380285856
 20
57.3826905026
 30
0.0
 11
42.2380285856
 21
57.3826905026
 31
0.0
  0
LINE
  5
78
330
1F
100
AcDbEntity
  8
0
  6
Continuous
 62
     7
370
     0
100
AcDbLine
 10
61.7880285856
 20
57.6326905026
 30
0.0
 11
61.5380285856
 21
57.3826905026
 31
0.0
  0
LINE
  5
79
330
1F
100
AcDbEntity
  8
0
  6
Continuous
 62
     7
370
     0
100
AcDbLine
 10
79.0880285856
 20
57.6326905026
 30
0.0
 11
61.7880285856
 21
57.6326905026
 31
0.0
  0
LINE
  5
7A
330
1F
100
AcDbEntity
  8
0
  6
Continuous
 62
     7
370
     0
100
AcDbLine
 10
79.3380285856
 20
57.3826905026
 30
0.0
 11
79.0880285856
 21
57.6326905026
 31
0.0
  0
LINE
  5
7B
330
1F
100
AcDbEntity
  8
0
  6
Continuous
 62
     7
370
     0
100
AcDbLine
 10
98.6380285856
 20
57.3826905026
 30
0.0
 11
79.3380285856
 21
57.3826905026
 31
0.0
  0
ARC
  5
7C
330
1F
100
AcDbEntity
  8
0
  6
Continuous
 62
     7
370
     0
100
AcDbCircle
 10
98.6380285856
 20
56.3826905026
 30
0.0
 40
1.0
100
AcDbArc
 50
0.0
 51
90.0
  0
LINE
  5
7D
330
1F
100
AcDbEntity
  8
0
  6
Continuous
 62
     7
370
     0
100
AcDbLine
 10
99.6380285856
 20
25.1526905026
 30
0.0
 11
99.6380285856
 21
56.3826905026
 31
0.0
  0
LINE
  5
7E
330
1F
100
AcDbEntity
  8
0
  6
Continuous
 62
     7
370
     0
100
AcDbLine
 10
97.4180285856
 20
22.9326905026
 30
0.0
 11
99.6380285856
 21
25.1526905026
 31
0.0
  0
LINE
  5
7F
330
1F
100
AcDbEntity
  8
0
  6
Continuous
 62
     7
370
     0
100
AcDbLine
 10
82.7380285856
 20
22.9326905026
 30
0.0
 11
97.4180285856
 21
22.9326905026
 31
0.0
  0
LINE
  5
80
330
1F
100
AcDbEntity
  8
0
  6
Continuous
 62
     7
370
     0
100
AcDbLine
 10
82.7380285856
 20
22.9326905026
 30
0.0
 11
82.7380285856
 21
25.2031852604
 31
0.0
  0
CIRCLE
  5
81
330
1F
100
AcDbEntity
  8
0
  6
Continuous
 62
     7
370
     0
100
AcDbCircle
 10
46.2380285856
 20
43.6326905026
 30
0.0
 40
1.850000000000001
  0
CIRCLE
  5
82
330
1F
100
AcDbEntity
  8
0
  6
Continuous
 62
     7
370
     0
100
AcDbCircle
 10
70.4380285856
 20
52.1826905026
 30
0.0
 40
3.09999999999998
  0
CIRCLE
  5
83
330
1F
100
AcDbEntity
  8
0
  6
Continuous
 62
     7
370
     0
100
AcDbCircle
 10
94.6380285856
 20
43.6326905026
 30
0.0
 40
1.850000000000009
  0
LINE
  5
84
330
1F
100
AcDbEntity
  8
0
  6
Continuous
 62
     7
370
     0
100
AcDbLine
 10
43.4580285856
 20
22.9326905026
 30
0.0
 11
58.1380285856
 21
22.9326905026
 31
0.0
  0
CIRCLE
  5
85
330
1F
100
AcDbEntity
  8
0
  6
Continuous
 62
     7
370
     0
100
AcDbCircle
 10
94.6380285856
 20
43.6326905026
 30
0.0
 40
1.25
  0
CIRCLE
  5
86
330
1F
100
AcDbEntity
  8
0
  6
Continuous
 62
     7
370
     0
100
AcDbCircle
 10
70.4380285856
 20
52.1826905026
 30
0.0
 40
2.5
  0
CIRCLE
  5
87
330
1F
100
AcDbEntity
  8
0
  6
Continuous
 62
     7
370
     0
100
AcDbCircle
 10
46.2380285856
 20
43.6326905026
 30
0.0
 40
1.25
  0
SPLINE
  5
88
330
1F
100
AcDbEntity
  8
0
  6
Continuous
 62
     7
370
     0
100
AcDbSpline
210
0.0
220
0.0
230
1.0
 70
     8
 71
     3
 72
    30
 73
    26
 74
     0
 42
0.00000001
 43
0.00000001
 40
-0.062500000000001
 40
-0.062500000000001
 40
0.0
 40
0.0
 40
0.0624999999999988
 40
0.0624999999999988
 40
0.1249999999999976
 40
0.1249999999999976
 40
0.2499999999999977
 40
0.2499999999999977
 40
0.3749999999999977
 40
0.3749999999999977
 40
0.4374999999999977
 40
0.4374999999999977
 40
0.4999999999999978
 40
0.4999999999999978
 40
0.5624999999999978
 40
0.5624999999999978
 40
0.6249999999999979
 40
0.6249999999999979
 40
0.7499999999999978
 40
0.7499999999999978
 40
0.8749999999999979
 40
0.8749999999999979
 40
0.937499999999999
 40
0.937499999999999
 40
1.0
 40
1.0
 40
1.062499999999999
 40
1.062499999999999
 10
70.31497420139716
 20
51.80907913471814
 30
0.0
 10
70.39423614703281
 20
51.76364835837082
 30
0.0
 10
70.44370987985532
 20
51.75679827035158
 30
0.0
 10
70.53064338440484
 20
51.78521665024972
 30
0.0
 10
70.56626474320534
 20
51.81594997992155
 30
0.0
 10
70.64914744386249
 20
51.91929039425874
 30
0.0
 10
70.67945413714396
 20
52.00639918492499
 30
0.0
 10
70.7044767073647
 20
52.18579224498939
 30
0.0
 10
70.69730278071798
 20
52.27950154200298
 30
0.0
 10
70.65730379394675
 20
52.40769446672102
 30
0.0
 10
70.63920658659931
 20
52.44855210874212
 30
0.0
 10
70.59107366035624
 20
52.5225278844902
 30
0.0
 10
70.56021145233828
 20
52.55692640745143
 30
0.0
 10
70.48184552325145
 20
52.60159226076477
 30
0.0
 10
70.43232555082928
 20
52.60869002575307
 30
0.0
 10
70.34467287828726
 20
52.57980675621033
 30
0.0
 10
70.3098025331204
 20
52.54947697599202
 30
0.0
 10
70.2265904950835
 20
52.44562570060628
 30
0.0
 10
70.19660928489601
 20
52.35890224213251
 30
0.0
 10
70.1716068043381
 20
52.17990183062162
 30
0.0
 10
70.17883205060382
 20
52.08558459497173
 30
0.0
 10
70.21875349806601
 20
51.95770917296107
 30
0.0
 10
70.2365247083078
 20
51.91739156206146
 30
0.0
 10
70.28498283718802
 20
51.84279274711255
 30
0.0
 10
70.31497420139716
 20
51.80907913471814
 30
0.0
 10
70.39423614703281
 20
51.76364835837082
 30
0.0
  0
LINE
  5
89
330
1F
100
AcDbEntity
  8
0
  6
Continuous
 62
     7
370
     0
100
AcDbLine
 10
97.4380285856
 20
22.8826905026
 30
0.0
 11
98.9380285856
 21
24.3826905026
 31
0.0
  0
LINE
  5
8A
330
1F
100
AcDbEntity
  8
0
  6
Continuous
 62
     7
370
     0
100
AcDbLine
 10
82.7380285856
 20
22.8826905026
 30
0.0
 11
82.7380285856
 21
22.9326905026
 31
0.0
  0
LINE
  5
8B
330
1F
100
AcDbEntity
  8
0
  6
Continuous
 62
     7
370
     0
100
AcDbLine
 10
58.1380285856
 20
22.9326905026
 30
0.0
 11
58.1380285856
 21
22.8826905026
 31
0.0
  0
LINE
  5
8C
330
1F
100
AcDbEntity
  8
0
  6
Continuous
 62
     7
370
     0
100
AcDbLine
 10
43.4380285856
 20
22.8826905026
 30
0.0
 11
58.1380285856
 21
22.8826905026
 31
0.0
  0
LINE
  5
8D
330
1F
100
AcDbEntity
  8
0
  6
Continuous
 62
     7
370
     0
100
AcDbLine
 10
41.9380285856
 20
24.3826905026
 30
0.0
 11
41.9380285856
 21
24.4526905026
 31
0.0
  0
LINE
  5
8E
330
1F
100
AcDbEntity
  8
0
  6
Continuous
 62
     7
370
     0
100
AcDbLine
 10
25.9380285856
 20
47.2326905026
 30
0.0
 11
41.2380285856
 21
47.2326905026
 31
0.0
  0
LINE
  5
8F
330
1F
100
AcDbEntity
  8
0
  6
Continuous
 62
     7
370
     0
100
AcDbLine
 10
115.4380285856
 20
56.7326905026
 30
0.0
 11
113.9380285856
 21
58.2326905026
 31
0.0
  0
LINE
  5
90
330
1F
100
AcDbEntity
  8
0
  6
Continuous
 62
     7
370
     0
100
AcDbLine
 10
115.4380285856
 20
47.2326905026
 30
0.0
 11
115.4380285856
 21
56.7326905026
 31
0.0
  0
LINE
  5
91
330
1F
100
AcDbEntity
  8
0
  6
Continuous
 62
     7
370
     0
100
AcDbLine
 10
99.6380285856
 20
47.2326905026
 30
0.0
 11
115.4380285856
 21
47.2326905026
 31
0.0
  0
LINE
  5
92
330
1F
100
AcDbEntity
  8
0
  6
Continuous
 62
     7
370
     0
100
AcDbLine
 10
98.9380285856
 20
24.4526905026
 30
0.0
 11
98.9380285856
 21
24.3826905026
 31
0.0
  0
LINE
  5
93
330
1F
100
AcDbEntity
  8
0
  6
Continuous
 62
     7
370
     0
100
AcDbLine
 10
25.9380285856
 20
51.2326905026
 30
0.0
 11
25.9380285856
 21
47.2326905026
 31
0.0
  0
LINE
  5
94
330
1F
100
AcDbEntity
  8
0
  6
Continuous
 62
     7
370
     0
100
AcDbLine
 10
25.4380285856
 20
51.7326905026
 30
0.0
 11
25.9380285856
 21
51.2326905026
 31
0.0
  0
LINE
  5
95
330
1F
100
AcDbEntity
  8
0
  6
Continuous
 62
     7
370
     0
100
AcDbLine
 10
25.4380285856
 20
56.7326905026
 30
0.0
 11
25.4380285856
 21
51.7326905026
 31
0.0
  0
LINE
  5
96
330
1F
100
AcDbEntity
  8
0
  6
Continuous
 62
     7
370
     0
100
AcDbLine
 10
26.9380285856
 20
58.2326905026
 30
0.0
 11
25.4380285856
 21
56.7326905026
 31
0.0
  0
LINE
  5
97
330
1F
100
AcDbEntity
  8
0
  6
Continuous
 62
     7
370
     0
100
AcDbLine
 10
41.9380285856
 20
24.3826905026
 30
0.0
 11
43.4380285856
 21
22.8826905026
 31
0.0
  0
LINE
  5
98
330
1F
100
AcDbEntity
  8
0
  6
Continuous
 62
     7
370
     0
100
AcDbLine
 10
43.4380285856
 20
57.7326905026
 30
0.0
 11
42.9380285856
 21
58.2326905026
 31
0.0
  0
LINE
  5
99
330
1F
100
AcDbEntity
  8
0
  6
Continuous
 62
     7
370
     0
100
AcDbLine
 10
61.9380285856
 20
58.2326905026
 30
0.0
 11
61.4380285856
 21
57.7326905026
 31
0.0
  0
LINE
  5
9A
330
1F
100
AcDbEntity
  8
0
  6
Continuous
 62
     7
370
     0
100
AcDbLine
 10
78.9380285856
 20
58.2326905026
 30
0.0
 11
61.9380285856
 21
58.2326905026
 31
0.0
  0
LINE
  5
9B
330
1F
100
AcDbEntity
  8
0
  6
Continuous
 62
     7
370
     0
100
AcDbLine
 10
79.4380285856
 20
57.7326905026
 30
0.0
 11
78.9380285856
 21
58.2326905026
 31
0.0
  0
LINE
  5
9C
330
1F
100
AcDbEntity
  8
0
  6
Continuous
 62
     7
370
     0
100
AcDbLine
 10
97.4380285856
 20
57.7326905026
 30
0.0
 11
79.4380285856
 21
57.7326905026
 31
0.0
  0
LINE
  5
9D
330
1F
100
AcDbEntity
  8
0
  6
Continuous
 62
     7
370
     0
100
AcDbLine
 10
97.9380285856
 20
58.2326905026
 30
0.0
 11
97.4380285856
 21
57.7326905026
 31
0.0
  0
LINE
  5
9E
330
1F
100
AcDbEntity
  8
0
  6
Continuous
 62
     7
370
     0
100
AcDbLine
 10
113.9380285856
 20
58.2326905026
 30
0.0
 11
97.9380285856
 21
58.2326905026
 31
0.0
  0
LINE
  5
9F
330
1F
100
AcDbEntity
  8
0
  6
Continuous
 62
     7
370
     0
100
AcDbLine
 10
82.7380285856
 20
22.8826905026
 30
0.0
 11
97.4380285856
 21
22.8826905026
 31
0.0
  0
LINE
  5
A0
330
1F
100
AcDbEntity
  8
0
  6
Continuous
 62
     7
370
     0
100
AcDbLine
 10
42.9380285856
 20
58.2326905026
 30
0.0
 11
26.9380285856
 21
58.2326905026
 31
0.0
  0
LINE
  5
A1
330
1F
100
AcDbEntity
  8
0
  6
Continuous
 62
     7
370
     0
100
AcDbLine
 10
61.4380285856
 20
57.7326905026
 30
0.0
 11
43.4380285856
 21
57.7326905026
 31
0.0
  0
LINE
  5
A2
330
1F
100
AcDbEntity
  8
0
  6
Continuous
 62
     7
370
     0
100
AcDbLine
 10
34.4380285856
 20
31.8826905026
 30
0.0
 11
34.4380285856
 21
47.2326905026
 31
0.0
  0
LINE
  5
A3
330
1F
100
AcDbEntity
  8
0
  6
Continuous
 62
     7
370
     0
100
AcDbLine
 10
41.9380285856
 20
24.3826905026
 30
0.0
 11
34.4380285856
 21
31.8826905026
 31
0.0
  0
LINE
  5
A4
330
1F
100
AcDbEntity
  8
0
  6
Continuous
 62
     7
370
     0
100
AcDbLine
 10
106.4380285856
 20
31.8826905026
 30
0.0
 11
106.4380285856
 21
47.2326905026
 31
0.0
  0
LINE
  5
A5
330
1F
100
AcDbEntity
  8
0
  6
Continuous
 62
     7
370
     0
100
AcDbLine
 10
106.4380285856
 20
31.8826905026
 30
0.0
 11
98.9380285856
 21
24.3826905026
 31
0.0
  0
LINE
  5
A6
330
1F
100
AcDbEntity
  8
0
  6
Continuous
 62
     7
370
     0
100
AcDbLine
 10
25.9380285856
 20
40.3826905026
 30
0.0
 11
25.9380285856
 21
47.2326905026
 31
0.0
  0
LINE
  5
A7
330
1F
100
AcDbEntity
  8
0
  6
Continuous
 62
     7
370
     0
100
AcDbLine
 10
34.4380285856
 20
31.8826905026
 30
0.0
 11
25.9380285856
 21
40.3826905026
 31
0.0
  0
LINE
  5
A8
330
1F
100
AcDbEntity
  8
0
  6
Continuous
 62
     7
370
     0
100
AcDbLine
 10
115.4380285856
 20
40.8826905026
 30
0.0
 11
115.4380285856
 21
47.2326905026
 31
0.0
  0
LINE
  5
A9
330
1F
100
AcDbEntity
  8
0
  6
Continuous
 62
     7
370
     0
100
AcDbLine
 10
115.4380285856
 20
40.8826905026
 30
0.0
 11
106.4380285856
 21
31.8826905026
 31
0.0
  0
INSERT
  5
B5
330
1F
100
AcDbEntity
  8
0
  6
Continuous
 62
     7
370
     0
100
AcDbBlockReference
  2
SW_CENTERMARKSYMBOL_0
 10
70.4380285856
 20
52.1826905026
 30
0.0
  0
INSERT
  5
C1
330
1F
100
AcDbEntity
  8
0
  6
Continuous
 62
     7
370
     0
100
AcDbBlockReference
  2
SW_CENTERMARKSYMBOL_1
 10
46.2380285856
 20
43.6326905026
 30
0.0
  0
INSERT
  5
CD
330
1F
100
AcDbEntity
  8
0
  6
Continuous
 62
     7
370
     0
100
AcDbBlockReference
  2
SW_CENTERMARKSYMBOL_2
 10
94.6380285856
 20
43.6326905026
 30
0.0
  0
ARC
  5
CE
330
1F
100
AcDbEntity
  8
0
  6
Continuous
 62
     7
370
     0
100
AcDbCircle
 10
70.4380285856
 20
52.1826905026
 30
0.0
 40
3.000000000000008
100
AcDbArc
 50
255.0
 51
195.0
  0
ARC
  5
CF
330
1F
100
AcDbEntity
  8
0
  6
Continuous
 62
     7
370
     0
100
AcDbCircle
 10
70.4380285856
 20
52.1826905026
 30
0.0
 40
3.000000000000008
100
AcDbArc
 50
255.0
 51
195.0
  0
ARC
  5
D0
330
1F
100
AcDbEntity
  8
0
  6
Continuous
 62
     7
370
     0
100
AcDbCircle
 10
94.6380285856
 20
43.6326905026
 30
0.0
 40
1.499999999999997
100
AcDbArc
 50
255.0
 51
195.0
  0
ARC
  5
D1
330
1F
100
AcDbEntity
  8
0
  6
Continuous
 62
     7
370
     0
100
AcDbCircle
 10
94.6380285856
 20
43.6326905026
 30
0.0
 40
1.499999999999997
100
AcDbArc
 50
255.0
 51
195.0
  0
ARC
  5
D2
330
1F
100
AcDbEntity
  8
0
  6
Continuous
 62
     7
370
     0
100
AcDbCircle
 10
46.2380285856
 20
43.6326905026
 30
0.0
 40
1.500000000000004
100
AcDbArc
 50
255.0
 51
195.0
  0
ARC
  5
D3
330
1F
100
AcDbEntity
  8
0
  6
Continuous
 62
     7
370
     0
100
AcDbCircle
 10
46.2380285856
 20
43.6326905026
 30
0.0
 40
1.500000000000004
100
AcDbArc
 50
255.0
 51
195.0
  0
LINE
  5
D4
330
1F
100
AcDbEntity
  8
0
  6
Continuous
 62
     7
370
     0
100
AcDbLine
 10
236.5380285856
 20
25.1526905026
 30
0.0
 11
221.3880285856
 21
25.1526905026
 31
0.0
  0
LINE
  5
D5
330
1F
100
AcDbEntity
  8
0
  6
Continuous
 62
     7
370
     0
100
AcDbLine
 10
236.5380285856
 20
22.9326905026
 30
0.0
 11
236.5380285856
 21
25.1526905026
 31
0.0
  0
LINE
  5
D6
330
1F
100
AcDbEntity
  8
0
  6
Continuous
 62
     7
370
     0
100
AcDbLine
 10
236.5380285856
 20
22.9326905026
 30
0.0
 11
221.3880285856
 21
22.9326905026
 31
0.0
  0
LINE
  5
D7
330
1F
100
AcDbEntity
  8
0
  6
Continuous
 62
     7
370
     0
100
AcDbLine
 10
221.3880285856
 20
24.4526905026
 30
0.0
 11
221.3880285856
 21
25.1526905026
 31
0.0
  0
LINE
  5
D8
330
1F
100
AcDbEntity
  8
0
  6
Continuous
 62
     7
370
     0
100
AcDbLine
 10
236.5380285856
 20
56.3826905026
 30
0.0
 11
221.3880285856
 21
56.3826905026
 31
0.0
  0
LINE
  5
D9
330
1F
100
AcDbEntity
  8
0
  6
Continuous
 62
     7
370
     0
100
AcDbLine
 10
236.5380285856
 20
25.1526905026
 30
0.0
 11
236.5380285856
 21
56.3826905026
 31
0.0
  0
LINE
  5
DA
330
1F
100
AcDbEntity
  8
0
  6
Continuous
 62
     7
370
     0
100
AcDbLine
 10
221.3880285856
 20
25.1526905026
 30
0.0
 11
221.3880285856
 21
47.2326905026
 31
0.0
  0
CIRCLE
  5
DB
330
1F
100
AcDbEntity
  8
0
  6
Continuous
 62
     7
370
     0
100
AcDbCircle
 10
229.3880285856
 20
52.1826905026
 30
0.0
 40
3.100000000000001
  0
LINE
  5
DC
330
1F
100
AcDbEntity
  8
0
  6
Continuous
 62
     7
370
     0
100
AcDbLine
 10
236.5380285856
 20
57.3826905026
 30
0.0
 11
221.3880285856
 21
57.3826905026
 31
0.0
  0
LINE
  5
DD
330
1F
100
AcDbEntity
  8
0
  6
Continuous
 62
     7
370
     0
100
AcDbLine
 10
236.5380285856
 20
56.3826905026
 30
0.0
 11
236.5380285856
 21
57.3826905026
 31
0.0
  0
CIRCLE
  5
DE
330
1F
100
AcDbEntity
  8
0
  6
Continuous
 62
     7
370
     0
100
AcDbCircle
 10
229.3880285856
 20
52.1826905026
 30
0.0
 40
2.5
  0
LINE
  5
DF
330
1F
100
AcDbEntity
  8
0
  6
Continuous
 62
     7
370
     0
100
AcDbLine
 10
236.5380285856
 20
57.6326905026
 30
0.0
 11
221.3880285856
 21
57.6326905026
 31
0.0
  0
LINE
  5
E0
330
1F
100
AcDbEntity
  8
0
  6
Continuous
 62
     7
370
     0
100
AcDbLine
 10
236.5380285856
 20
57.3826905026
 30
0.0
 11
236.5380285856
 21
57.6326905026
 31
0.0
  0
LINE
  5
E1
330
1F
100
AcDbEntity
  8
0
  6
Continuous
 62
     7
370
     0
100
AcDbLine
 10
236.5380285856
 20
36.9826905026
 30
0.0
 11
236.5380285856
 21
28.4826905026
 31
0.0
  0
LINE
  5
E2
330
1F
100
AcDbEntity
  8
0
  6
Continuous
 62
     7
370
     0
100
AcDbLine
 10
236.5380285856
 20
28.4826905026
 30
0.0
 11
236.5380285856
 21
28.0219287055
 31
0.0
  0
LINE
  5
E3
330
1F
100
AcDbEntity
  8
0
  6
Continuous
 62
     7
370
     0
100
AcDbLine
 10
236.5380285856
 20
37.4434522998
 30
0.0
 11
236.5380285856
 21
36.9826905026
 31
0.0
  0
LINE
  5
E4
330
1F
100
AcDbEntity
  8
0
  6
Continuous
 62
     7
370
     0
100
AcDbLine
 10
236.5380285856
 20
40.2621957449
 30
0.0
 11
236.5380285856
 21
37.4434522998
 31
0.0
  0
LINE
  5
E5
330
1F
100
AcDbEntity
  8
0
  6
Continuous
 62
     7
370
     0
100
AcDbLine
 10
236.5380285856
 20
28.0219287055
 30
0.0
 11
236.5380285856
 21
25.2031852604
 31
0.0
  0
LINE
  5
E6
330
1F
100
AcDbEntity
  8
0
  6
Continuous
 62
     7
370
     0
100
AcDbLine
 10
236.5380285856
 20
42.7007415284
 30
0.0
 11
236.5380285856
 21
42.3801905026
 31
0.0
  0
LINE
  5
E7
330
1F
100
AcDbEntity
  8
0
  6
Continuous
 62
     7
370
     0
100
AcDbLine
 10
236.5380285856
 20
45.0826905026
 30
0.0
 11
236.5380285856
 21
42.7007415284
 31
0.0
  0
LINE
  5
E8
330
1F
100
AcDbEntity
  8
0
  6
Continuous
 62
     7
370
     0
100
AcDbLine
 10
236.5380285856
 20
42.3801905026
 30
0.0
 11
236.5380285856
 21
40.2621957449
 31
0.0
  0
LINE
  5
E9
330
1F
100
AcDbEntity
  8
0
  6
Continuous
 62
     7
370
     0
100
AcDbLine
 10
236.5380285856
 20
25.2031852604
 30
0.0
 11
236.5380285856
 21
22.9326905026
 31
0.0
  0
LINE
  5
EA
330
1F
100
AcDbEntity
  8
0
  6
Continuous
 62
     7
370
     0
100
AcDbLine
 10
138.8380285856
 20
22.9326905026
 30
0.0
 11
153.9880285856
 21
22.9326905026
 31
0.0
  0
LINE
  5
EB
330
1F
100
AcDbEntity
  8
0
  6
Continuous
 62
     7
370
     0
100
AcDbLine
 10
138.8380285856
 20
22.9326905026
 30
0.0
 11
138.8380285856
 21
25.1526905026
 31
0.0
  0
LINE
  5
EC
330
1F
100
AcDbEntity
  8
0
  6
Continuous
 62
     7
370
     0
100
AcDbLine
 10
138.8380285856
 20
25.1526905026
 30
0.0
 11
153.9880285856
 21
25.1526905026
 31
0.0
  0
LINE
  5
ED
330
1F
100
AcDbEntity
  8
0
  6
Continuous
 62
     7
370
     0
100
AcDbLine
 10
153.9880285856
 20
24.4526905026
 30
0.0
 11
153.9880285856
 21
25.1526905026
 31
0.0
  0
LINE
  5
EE
330
1F
100
AcDbEntity
  8
0
  6
Continuous
 62
     7
370
     0
100
AcDbLine
 10
138.8380285856
 20
25.1526905026
 30
0.0
 11
138.8380285856
 21
56.3826905026
 31
0.0
  0
LINE
  5
EF
330
1F
100
AcDbEntity
  8
0
  6
Continuous
 62
     7
370
     0
100
AcDbLine
 10
138.8380285856
 20
56.3826905026
 30
0.0
 11
153.9880285856
 21
56.3826905026
 31
0.0
  0
CIRCLE
  5
F0
330
1F
100
AcDbEntity
  8
0
  6
Continuous
 62
     7
370
     0
100
AcDbCircle
 10
145.9880285856
 20
52.1826905026
 30
0.0
 40
3.100000000000009
  0
LINE
  5
F1
330
1F
100
AcDbEntity
  8
0
  6
Continuous
 62
     7
370
     0
100
AcDbLine
 10
153.9880285856
 20
25.1526905026
 30
0.0
 11
153.9880285856
 21
47.2326905026
 31
0.0
  0
LINE
  5
F2
330
1F
100
AcDbEntity
  8
0
  6
Continuous
 62
     7
370
     0
100
AcDbLine
 10
138.8380285856
 20
56.3826905026
 30
0.0
 11
138.8380285856
 21
57.3826905026
 31
0.0
  0
LINE
  5
F3
330
1F
100
AcDbEntity
  8
0
  6
Continuous
 62
     7
370
     0
100
AcDbLine
 10
138.8380285856
 20
57.3826905026
 30
0.0
 11
153.9880285856
 21
57.3826905026
 31
0.0
  0
CIRCLE
  5
F4
330
1F
100
AcDbEntity
  8
0
  6
Continuous
 62
     7
370
     0
100
AcDbCircle
 10
145.9880285856
 20
52.1826905026
 30
0.0
 40
2.5
  0
LINE
  5
F5
330
1F
100
AcDbEntity
  8
0
  6
Continuous
 62
     7
370
     0
100
AcDbLine
 10
138.8380285856
 20
57.6326905026
 30
0.0
 11
153.9880285856
 21
57.6326905026
 31
0.0
  0
LINE
  5
F6
330
1F
100
AcDbEntity
  8
0
  6
Continuous
 62
     7
370
     0
100
AcDbLine
 10
138.8380285856
 20
57.3826905026
 30
0.0
 11
138.8380285856
 21
57.6326905026
 31
0.0
  0
LINE
  5
F7
330
1F
100
AcDbEntity
  8
0
  6
Continuous
 62
     7
370
     0
100
AcDbLine
 10
138.8380285856
 20
36.9826905026
 30
0.0
 11
138.8380285856
 21
28.4826905026
 31
0.0
  0
LINE
  5
F8
330
1F
100
AcDbEntity
  8
0
  6
Continuous
 62
     7
370
     0
100
AcDbLine
 10
138.8380285856
 20
28.4826905026
 30
0.0
 11
138.8380285856
 21
28.0219287055
 31
0.0
  0
LINE
  5
F9
330
1F
100
AcDbEntity
  8
0
  6
Continuous
 62
     7
370
     0
100
AcDbLine
 10
138.8380285856
 20
37.4434522998
 30
0.0
 11
138.8380285856
 21
36.9826905026
 31
0.0
  0
LINE
  5
FA
330
1F
100
AcDbEntity
  8
0
  6
Continuous
 62
     7
370
     0
100
AcDbLine
 10
138.8380285856
 20
40.2621957449
 30
0.0
 11
138.8380285856
 21
37.4434522998
 31
0.0
  0
LINE
  5
FB
330
1F
100
AcDbEntity
  8
0
  6
Continuous
 62
     7
370
     0
100
AcDbLine
 10
138.8380285856
 20
28.0219287055
 30
0.0
 11
138.8380285856
 21
25.2031852604
 31
0.0
  0
LINE
  5
FC
330
1F
100
AcDbEntity
  8
0
  6
Continuous
 62
     7
370
     0
100
AcDbLine
 10
138.8380285856
 20
42.7007415284
 30
0.0
 11
138.8380285856
 21
42.3801905026
 31
0.0
  0
LINE
  5
FD
330
1F
100
AcDbEntity
  8
0
  6
Continuous
 62
     7
370
     0
100
AcDbLine
 10
138.8380285856
 20
45.0826905026
 30
0.0
 11
138.8380285856
 21
42.7007415284
 31
0.0
  0
LINE
  5
FE
330
1F
100
AcDbEntity
  8
0
  6
Continuous
 62
     7
370
     0
100
AcDbLine
 10
138.8380285856
 20
42.3801905026
 30
0.0
 11
138.8380285856
 21
40.2621957449
 31
0.0
  0
LINE
  5
FF
330
1F
100
AcDbEntity
  8
0
  6
Continuous
 62
     7
370
     0
100
AcDbLine
 10
138.8380285856
 20
25.2031852604
 30
0.0
 11
138.8380285856
 21
22.9326905026
 31
0.0
  0
LINE
  5
100
330
1F
100
AcDbEntity
  8
0
  6
Continuous
 62
     7
370
     0
100
AcDbLine
 10
153.9880285856
 20
22.8826905026
 30
0.0
 11
221.3880285856
 21
22.8826905026
 31
0.0
  0
LINE
  5
101
330
1F
100
AcDbEntity
  8
0
  6
Continuous
 62
     7
370
     0
100
AcDbLine
 10
153.9880285856
 20
22.8826905026
 30
0.0
 11
153.9880285856
 21
24.3826905026
 31
0.0
  0
LINE
  5
102
330
1F
100
AcDbEntity
  8
0
  6
Continuous
 62
     7
370
     0
100
AcDbLine
 10
161.6880285856
 20
24.3826905026
 30
0.0
 11
153.9880285856
 21
24.3826905026
 31
0.0
  0
ARC
  5
103
330
1F
100
AcDbEntity
  8
0
  6
Continuous
 62
     7
370
     0
100
AcDbCircle
 10
161.6880285856
 20
31.8826905026
 30
0.0
 40
7.499999999999972
100
AcDbArc
 50
270.0
 51
0.0
  0
LINE
  5
104
330
1F
100
AcDbEntity
  8
0
  6
Continuous
 62
     7
370
     0
100
AcDbLine
 10
169.1880285856
 20
40.8826905026
 30
0.0
 11
169.1880285856
 21
31.8826905026
 31
0.0
  0
LINE
  5
105
330
1F
100
AcDbEntity
  8
0
  6
Continuous
 62
     7
370
     0
100
AcDbLine
 10
169.1880285856
 20
40.8826905026
 30
0.0
 11
206.1880285856
 21
40.8826905026
 31
0.0
  0
LINE
  5
106
330
1F
100
AcDbEntity
  8
0
  6
Continuous
 62
     7
370
     0
100
AcDbLine
 10
206.1880285856
 20
31.8826905026
 30
0.0
 11
206.1880285856
 21
40.8826905026
 31
0.0
  0
ARC
  5
107
330
1F
100
AcDbEntity
  8
0
  6
Continuous
 62
     7
370
     0
100
AcDbCircle
 10
213.6880285856
 20
31.8826905026
 30
0.0
 40
7.499999999999972
100
AcDbArc
 50
180.0
 51
270.0
  0
LINE
  5
108
330
1F
100
AcDbEntity
  8
0
  6
Continuous
 62
     7
370
     0
100
AcDbLine
 10
221.3880285856
 20
24.3826905026
 30
0.0
 11
213.6880285856
 21
24.3826905026
 31
0.0
  0
LINE
  5
109
330
1F
100
AcDbEntity
  8
0
  6
Continuous
 62
     7
370
     0
100
AcDbLine
 10
221.3880285856
 20
22.8826905026
 30
0.0
 11
221.3880285856
 21
24.3826905026
 31
0.0
  0
LINE
  5
10A
330
1F
100
AcDbEntity
  8
0
  6
Continuous
 62
     7
370
     0
100
AcDbLine
 10
169.1880285856
 20
40.8826905026
 30
0.0
 11
169.1880285856
 21
47.2326905026
 31
0.0
  0
LINE
  5
10B
330
1F
100
AcDbEntity
  8
0
  6
Continuous
 62
     7
370
     0
100
AcDbLine
 10
153.9880285856
 20
47.2326905026
 30
0.0
 11
169.1880285856
 21
47.2326905026
 31
0.0
  0
LINE
  5
10C
330
1F
100
AcDbEntity
  8
0
  6
Continuous
 62
     7
370
     0
100
AcDbLine
 10
153.9880285856
 20
47.2326905026
 30
0.0
 11
153.9880285856
 21
56.7326905026
 31
0.0
  0
LINE
  5
10D
330
1F
100
AcDbEntity
  8
0
  6
Continuous
 62
     7
370
     0
100
AcDbLine
 10
153.9880285856
 20
56.7326905026
 30
0.0
 11
221.3880285856
 21
56.7326905026
 31
0.0
  0
LINE
  5
10E
330
1F
100
AcDbEntity
  8
0
  6
Continuous
 62
     7
370
     0
100
AcDbLine
 10
221.3880285856
 20
47.2326905026
 30
0.0
 11
221.3880285856
 21
56.7326905026
 31
0.0
  0
LINE
  5
10F
330
1F
100
AcDbEntity
  8
0
  6
Continuous
 62
     7
370
     0
100
AcDbLine
 10
206.1880285856
 20
47.2326905026
 30
0.0
 11
221.3880285856
 21
47.2326905026
 31
0.0
  0
LINE
  5
110
330
1F
100
AcDbEntity
  8
0
  6
Continuous
 62
     7
370
     0
100
AcDbLine
 10
206.1880285856
 20
40.8826905026
 30
0.0
 11
206.1880285856
 21
47.2326905026
 31
0.0
  0
LINE
  5
111
330
1F
100
AcDbEntity
  8
0
  6
Continuous
 62
     7
370
     0
100
AcDbLine
 10
153.9880285856
 20
56.7326905026
 30
0.0
 11
153.9880285856
 21
58.2326905026
 31
0.0
  0
LINE
  5
112
330
1F
100
AcDbEntity
  8
0
  6
Continuous
 62
     7
370
     0
100
AcDbLine
 10
153.9880285856
 20
58.2326905026
 30
0.0
 11
221.3880285856
 21
58.2326905026
 31
0.0
  0
LINE
  5
113
330
1F
100
AcDbEntity
  8
0
  6
Continuous
 62
     7
370
     0
100
AcDbLine
 10
221.3880285856
 20
56.7326905026
 30
0.0
 11
221.3880285856
 21
58.2326905026
 31
0.0
  0
LINE
  5
114
330
1F
100
AcDbEntity
  8
0
  6
Continuous
 62
     7
370
     0
100
AcDbLine
 10
213.6880285856
 20
24.3826905026
 30
0.0
 11
213.6880285856
 21
47.2326905026
 31
0.0
  0
LINE
  5
115
330
1F
100
AcDbEntity
  8
0
  6
Continuous
 62
     7
370
     0
100
AcDbLine
 10
161.6880285856
 20
24.3826905026
 30
0.0
 11
161.6880285856
 21
47.2326905026
 31
0.0
  0
LINE
  5
116
330
1F
100
AcDbEntity
  8
0
  6
Continuous
 62
     7
370
     0
100
AcDbLine
 10
221.3880285856
 20
24.4526905026
 30
0.0
 11
221.3880285856
 21
24.3826905026
 31
0.0
  0
LINE
  5
117
330
1F
100
AcDbEntity
  8
0
  6
Continuous
 62
     7
370
     0
100
AcDbLine
 10
153.9880285856
 20
24.4526905026
 30
0.0
 11
153.9880285856
 21
24.3826905026
 31
0.0
  0
LINE
  5
118
330
1F
100
AcDbEntity
  8
0
  6
Continuous
 62
     7
370
     0
100
AcDbLine
 10
153.9880285856
 20
57.7326905026
 30
0.0
 11
153.9880285856
 21
58.2326905026
 31
0.0
  0
LINE
  5
119
330
1F
100
AcDbEntity
  8
0
  6
Continuous
 62
     7
370
     0
100
AcDbLine
 10
221.3880285856
 20
57.7326905026
 30
0.0
 11
221.3880285856
 21
58.2326905026
 31
0.0
  0
LINE
  5
11A
330
1F
100
AcDbEntity
  8
0
  6
Continuous
 62
     7
370
     0
100
AcDbLine
 10
153.9880285856
 20
57.7326905026
 30
0.0
 11
153.9880285856
 21
58.2326905026
 31
0.0
  0
LINE
  5
11B
330
1F
100
AcDbEntity
  8
0
  6
Continuous
 62
     7
370
     0
100
AcDbLine
 10
221.3880285856
 20
57.7326905026
 30
0.0
 11
221.3880285856
 21
58.2326905026
 31
0.0
  0
INSERT
  5
127
330
1F
100
AcDbEntity
  8
0
  6
Continuous
 62
     7
370
     0
100
AcDbBlockReference
  2
SW_CENTERMARKSYMBOL_3
 10
229.3880285856
 20
52.1826905026
 30
0.0
  0
INSERT
  5
133
330
1F
100
AcDbEntity
  8
0
  6
Continuous
 62
     7
370
     0
100
AcDbBlockReference
  2
SW_CENTERMARKSYMBOL_4
 10
145.9880285856
 20
52.1826905026
 30
0.0
  0
LINE
  5
134
330
1F
100
AcDbEntity
  8
0
  6
HIDDEN
 62
     7
370
     0
100
AcDbLine
 10
138.9380285856
 20
55.1826905026
 30
0.0
 11
143.8380285856
 21
55.1826905026
 31
0.0
  0
LINE
  5
135
330
1F
100
AcDbEntity
  8
0
  6
HIDDEN
 62
     7
370
     0
100
AcDbLine
 10
138.9380285856
 20
49.1826905026
 30
0.0
 11
143.8380285856
 21
49.1826905026
 31
0.0
  0
LINE
  5
136
330
1F
100
AcDbEntity
  8
0
  6
HIDDEN
 62
     7
370
     0
100
AcDbLine
 10
143.8380285856
 20
49.1826905026
 30
0.0
 11
143.8380285856
 21
55.1826905026
 31
0.0
  0
LINE
  5
137
330
1F
100
AcDbEntity
  8
0
  6
HIDDEN
 62
     7
370
     0
100
AcDbLine
 10
236.4380285856
 20
49.1826905026
 30
0.0
 11
231.5380285856
 21
49.1826905026
 31
0.0
  0
LINE
  5
138
330
1F
100
AcDbEntity
  8
0
  6
HIDDEN
 62
     7
370
     0
100
AcDbLine
 10
236.4380285856
 20
55.1826905026
 30
0.0
 11
231.5380285856
 21
55.1826905026
 31
0.0
  0
LINE
  5
139
330
1F
100
AcDbEntity
  8
0
  6
HIDDEN
 62
     7
370
     0
100
AcDbLine
 10
231.5380285856
 20
55.1826905026
 30
0.0
 11
231.5380285856
 21
49.1826905026
 31
0.0
  0
LINE
  5
13A
330
1F
100
AcDbEntity
  8
0
  6
HIDDEN
 62
     7
370
     0
100
AcDbLine
 10
139.1880285856
 20
45.1326905026
 30
0.0
 11
143.8380285856
 21
45.1326905026
 31
0.0
  0
LINE
  5
13B
330
1F
100
AcDbEntity
  8
0
  6
HIDDEN
 62
     7
370
     0
100
AcDbLine
 10
139.1880285856
 20
42.1326905026
 30
0.0
 11
143.8380285856
 21
42.1326905026
 31
0.0
  0
LINE
  5
13C
330
1F
100
AcDbEntity
  8
0
  6
HIDDEN
 62
     7
370
     0
100
AcDbLine
 10
143.8380285856
 20
42.1326905026
 30
0.0
 11
143.8380285856
 21
45.1326905026
 31
0.0
  0
LINE
  5
13D
330
1F
100
AcDbEntity
  8
0
  6
HIDDEN
 62
     7
370
     0
100
AcDbLine
 10
236.1880285856
 20
42.1326905026
 30
0.0
 11
231.5380285856
 21
42.1326905026
 31
0.0
  0
LINE
  5
13E
330
1F
100
AcDbEntity
  8
0
  6
HIDDEN
 62
     7
370
     0
100
AcDbLine
 10
236.1880285856
 20
45.1326905026
 30
0.0
 11
231.5380285856
 21
45.1326905026
 31
0.0
  0
LINE
  5
13F
330
1F
100
AcDbEntity
  8
0
  6
HIDDEN
 62
     7
370
     0
100
AcDbLine
 10
231.5380285856
 20
45.1326905026
 30
0.0
 11
231.5380285856
 21
42.1326905026
 31
0.0
  0
LINE
  5
140
330
1F
100
AcDbEntity
  8
0
  6
HIDDEN
 62
     7
370
     0
100
AcDbLine
 10
139.1880285856
 20
45.1326905026
 30
0.0
 11
143.8380285856
 21
45.1326905026
 31
0.0
  0
LINE
  5
141
330
1F
100
AcDbEntity
  8
0
  6
HIDDEN
 62
     7
370
     0
100
AcDbLine
 10
139.1880285856
 20
42.1326905026
 30
0.0
 11
143.8380285856
 21
42.1326905026
 31
0.0
  0
LINE
  5
142
330
1F
100
AcDbEntity
  8
0
  6
HIDDEN
 62
     7
370
     0
100
AcDbLine
 10
143.8380285856
 20
42.1326905026
 30
0.0
 11
143.8380285856
 21
45.1326905026
 31
0.0
  0
LINE
  5
143
330
1F
100
AcDbEntity
  8
0
  6
HIDDEN
 62
     7
370
     0
100
AcDbLine
 10
236.1880285856
 20
42.1326905026
 30
0.0
 11
231.5380285856
 21
42.1326905026
 31
0.0
  0
LINE
  5
144
330
1F
100
AcDbEntity
  8
0
  6
HIDDEN
 62
     7
370
     0
100
AcDbLine
 10
236.1880285856
 20
45.1326905026
 30
0.0
 11
231.5380285856
 21
45.1326905026
 31
0.0
  0
LINE
  5
145
330
1F
100
AcDbEntity
  8
0
  6
HIDDEN
 62
     7
370
     0
100
AcDbLine
 10
231.5380285856
 20
45.1326905026
 30
0.0
 11
231.5380285856
 21
42.1326905026
 31
0.0
  0
ARC
  5
146
330
1F
100
AcDbEntity
  8
0
  6
HIDDEN
 62
     7
370
     0
100
AcDbCircle
 10
145.9880285856
 20
52.1826905026
 30
0.0
 40
3.000000000000022
100
AcDbArc
 50
255.0
 51
195.0
  0
ARC
  5
147
330
1F
100
AcDbEntity
  8
0
  6
HIDDEN
 62
     7
370
     0
100
AcDbCircle
 10
229.3880285856
 20
52.1826905026
 30
0.0
 40
3.000000000000049
100
AcDbArc
 50
255.0
 51
195.0
  0
ARC
  5
148
330
1F
100
AcDbEntity
  8
0
  6
Continuous
 62
     7
370
     0
100
AcDbCircle
 10
145.9880285856
 20
52.1826905026
 30
0.0
 40
2.999999999999994
100
AcDbArc
 50
255.0
 51
195.0
  0
ARC
  5
149
330
1F
100
AcDbEntity
  8
0
  6
Continuous
 62
     7
370
     0
100
AcDbCircle
 10
229.3880285856
 20
52.1826905026
 30
0.0
 40
3.000000000000022
100
AcDbArc
 50
255.0
 51
195.0
  0
LINE
  5
14A
330
1F
100
AcDbEntity
  8
0
  6
HIDDEN
 62
     7
370
     0
100
AcDbLine
 10
236.1885285856
 20
42.1321905026
 30
0.0
 11
231.5380285856
 21
42.1321905026
 31
0.0
  0
LINE
  5
14B
330
1F
100
AcDbEntity
  8
0
  6
HIDDEN
 62
     7
370
     0
100
AcDbLine
 10
236.1885285856
 20
45.1331905026
 30
0.0
 11
231.5380285856
 21
45.1331905026
 31
0.0
  0
LINE
  5
14C
330
1F
100
AcDbEntity
  8
0
  6
HIDDEN
 62
     7
370
     0
100
AcDbLine
 10
231.5380285856
 20
45.1331905026
 30
0.0
 11
231.5380285856
 21
42.1321905026
 31
0.0
  0
LINE
  5
14D
330
1F
100
AcDbEntity
  8
0
  6
HIDDEN
 62
     7
370
     0
100
AcDbLine
 10
236.1885285856
 20
42.1321905026
 30
0.0
 11
231.5380285856
 21
42.1321905026
 31
0.0
  0
LINE
  5
14E
330
1F
100
AcDbEntity
  8
0
  6
HIDDEN
 62
     7
370
     0
100
AcDbLine
 10
236.1885285856
 20
45.1331905026
 30
0.0
 11
231.5380285856
 21
45.1331905026
 31
0.0
  0
LINE
  5
14F
330
1F
100
AcDbEntity
  8
0
  6
HIDDEN
 62
     7
370
     0
100
AcDbLine
 10
231.5380285856
 20
45.1331905026
 30
0.0
 11
231.5380285856
 21
42.1321905026
 31
0.0
  0
LINE
  5
150
330
1F
100
AcDbEntity
  8
0
  6
HIDDEN
 62
     7
370
     0
100
AcDbLine
 10
236.4380285856
 20
49.1826905026
 30
0.0
 11
231.5380285856
 21
49.1826905026
 31
0.0
  0
LINE
  5
151
330
1F
100
AcDbEntity
  8
0
  6
HIDDEN
 62
     7
370
     0
100
AcDbLine
 10
236.4380285856
 20
55.1826905026
 30
0.0
 11
231.5380285856
 21
55.1826905026
 31
0.0
  0
LINE
  5
152
330
1F
100
AcDbEntity
  8
0
  6
HIDDEN
 62
     7
370
     0
100
AcDbLine
 10
231.5380285856
 20
55.1826905026
 30
0.0
 11
231.5380285856
 21
49.1826905026
 31
0.0
  0
ARC
  5
153
330
1F
100
AcDbEntity
  8
0
  6
HIDDEN
 62
     7
370
     0
100
AcDbCircle
 10
229.3880285856
 20
52.1826905026
 30
0.0
 40
3.000000000000049
100
AcDbArc
 50
255.0
 51
195.0
  0
ARC
  5
154
330
1F
100
AcDbEntity
  8
0
  6
Continuous
 62
     7
370
     0
100
AcDbCircle
 10
229.3880285856
 20
52.1826905026
 30
0.0
 40
3.000000000000022
100
AcDbArc
 50
255.0
 51
195.0
  0
LINE
  5
155
330
1F
100
AcDbEntity
  8
0
  6
Continuous
 62
     7
370
     0
100
AcDbLine
 10
61.7880285856
 20
179.3326905026
 30
0.0
 11
61.7880285856
 21
164.1826905026
 31
0.0
  0
LINE
  5
156
330
1F
100
AcDbEntity
  8
0
  6
Continuous
 62
     7
370
     0
100
AcDbLine
 10
79.0880285856
 20
179.3326905026
 30
0.0
 11
61.7880285856
 21
179.3326905026
 31
0.0
  0
LINE
  5
157
330
1F
100
AcDbEntity
  8
0
  6
Continuous
 62
     7
370
     0
100
AcDbLine
 10
79.0880285856
 20
179.3326905026
 30
0.0
 11
79.0880285856
 21
164.1826905026
 31
0.0
  0
CIRCLE
  5
158
330
1F
100
AcDbEntity
  8
0
  6
Continuous
 62
     7
370
     0
100
AcDbCircle
 10
70.4380285856
 20
170.4826905026
 30
0.0
 40
2.500000000000014
  0
LINE
  5
159
330
1F
100
AcDbEntity
  8
0
  6
Continuous
 62
     7
370
     0
100
AcDbLine
 10
79.3380285856
 20
179.3326905026
 30
0.0
 11
79.0880285856
 21
179.3326905026
 31
0.0
  0
LINE
  5
15A
330
1F
100
AcDbEntity
  8
0
  6
Continuous
 62
     7
370
     0
100
AcDbLine
 10
79.3380285856
 20
179.3326905026
 30
0.0
 11
79.3380285856
 21
164.1826905026
 31
0.0
  0
LINE
  5
15B
330
1F
100
AcDbEntity
  8
0
  6
Continuous
 62
     7
370
     0
100
AcDbLine
 10
61.5380285856
 20
179.3326905026
 30
0.0
 11
61.5380285856
 21
164.1826905026
 31
0.0
  0
LINE
  5
15C
330
1F
100
AcDbEntity
  8
0
  6
Continuous
 62
     7
370
     0
100
AcDbLine
 10
61.7880285856
 20
179.3326905026
 30
0.0
 11
61.5380285856
 21
179.3326905026
 31
0.0
  0
LINE
  5
15D
330
1F
100
AcDbEntity
  8
0
  6
Continuous
 62
     7
370
     0
100
AcDbLine
 10
98.6380285856
 20
179.3326905026
 30
0.0
 11
98.6380285856
 21
164.1826905026
 31
0.0
  0
LINE
  5
15E
330
1F
100
AcDbEntity
  8
0
  6
Continuous
 62
     7
370
     0
100
AcDbLine
 10
99.6380285856
 20
179.3326905026
 30
0.0
 11
99.6380285856
 21
164.1826905026
 31
0.0
  0
LINE
  5
15F
330
1F
100
AcDbEntity
  8
0
  6
Continuous
 62
     7
370
     0
100
AcDbLine
 10
99.6380285856
 20
179.3326905026
 30
0.0
 11
98.6380285856
 21
179.3326905026
 31
0.0
  0
LINE
  5
160
330
1F
100
AcDbEntity
  8
0
  6
Continuous
 62
     7
370
     0
100
AcDbLine
 10
98.6380285856
 20
179.3326905026
 30
0.0
 11
79.3380285856
 21
179.3326905026
 31
0.0
  0
LINE
  5
161
330
1F
100
AcDbEntity
  8
0
  6
Continuous
 62
     7
370
     0
100
AcDbLine
 10
42.2380285856
 20
179.3326905026
 30
0.0
 11
42.2380285856
 21
164.1826905026
 31
0.0
  0
LINE
  5
162
330
1F
100
AcDbEntity
  8
0
  6
Continuous
 62
     7
370
     0
100
AcDbLine
 10
61.5380285856
 20
179.3326905026
 30
0.0
 11
42.2380285856
 21
179.3326905026
 31
0.0
  0
LINE
  5
163
330
1F
100
AcDbEntity
  8
0
  6
Continuous
 62
     7
370
     0
100
AcDbLine
 10
41.2380285856
 20
179.3326905026
 30
0.0
 11
41.2380285856
 21
164.1826905026
 31
0.0
  0
LINE
  5
164
330
1F
100
AcDbEntity
  8
0
  6
Continuous
 62
     7
370
     0
100
AcDbLine
 10
42.2380285856
 20
179.3326905026
 30
0.0
 11
41.2380285856
 21
179.3326905026
 31
0.0
  0
CIRCLE
  5
165
330
1F
100
AcDbEntity
  8
0
  6
Continuous
 62
     7
370
     0
100
AcDbCircle
 10
70.4380285856
 20
169.6826905026
 30
0.0
 40
0.4000000000000057
  0
LINE
  5
166
330
1F
100
AcDbEntity
  8
0
  6
Continuous
 62
     7
370
     0
100
AcDbLine
 10
82.4174775599
 20
179.3326905026
 30
0.0
 11
83.055718864
 21
179.3326905026
 31
0.0
  0
LINE
  5
167
330
1F
100
AcDbEntity
  8
0
  6
Continuous
 62
     7
370
     0
100
AcDbLine
 10
57.8203383073
 20
179.3326905026
 30
0.0
 11
58.4585796114
 21
179.3326905026
 31
0.0
  0
LINE
  5
168
330
1F
100
AcDbEntity
  8
0
  6
Continuous
 62
     7
370
     0
100
AcDbLine
 10
80.2360901256
 20
179.3326905026
 30
0.0
 11
82.7380285856
 21
179.3326905026
 31
0.0
  0
LINE
  5
169
330
1F
100
AcDbEntity
  8
0
  6
Continuous
 62
     7
370
     0
100
AcDbLine
 10
58.1380285856
 20
179.3326905026
 30
0.0
 11
60.6399670456
 21
179.3326905026
 31
0.0
  0
LINE
  5
16A
330
1F
100
AcDbEntity
  8
0
  6
Continuous
 62
     7
370
     0
100
AcDbLine
 10
79.4380285856
 20
179.3326905026
 30
0.0
 11
80.2360901256
 21
179.3326905026
 31
0.0
  0
LINE
  5
16B
330
1F
100
AcDbEntity
  8
0
  6
Continuous
 62
     7
370
     0
100
AcDbLine
 10
60.6399670456
 20
179.3326905026
 30
0.0
 11
61.4380285857
 21
179.3326905026
 31
0.0
  0
LINE
  5
16C
330
1F
100
AcDbEntity
  8
0
  6
Continuous
 62
     7
370
     0
100
AcDbLine
 10
79.3380285856
 20
81.6326905026
 30
0.0
 11
79.3380285856
 21
96.7826905026
 31
0.0
  0
LINE
  5
16D
330
1F
100
AcDbEntity
  8
0
  6
Continuous
 62
     7
370
     0
100
AcDbLine
 10
79.3380285856
 20
81.6326905026
 30
0.0
 11
79.0880285856
 21
81.6326905026
 31
0.0
  0
LINE
  5
16E
330
1F
100
AcDbEntity
  8
0
  6
Continuous
 62
     7
370
     0
100
AcDbLine
 10
79.0880285856
 20
81.6326905026
 30
0.0
 11
79.0880285856
 21
96.7826905026
 31
0.0
  0
CIRCLE
  5
16F
330
1F
100
AcDbEntity
  8
0
  6
Continuous
 62
     7
370
     0
100
AcDbCircle
 10
70.4380285856
 20
90.4826905026
 30
0.0
 40
2.5
  0
LINE
  5
170
330
1F
100
AcDbEntity
  8
0
  6
Continuous
 62
     7
370
     0
100
AcDbLine
 10
79.0880285856
 20
81.6326905026
 30
0.0
 11
61.7880285856
 21
81.6326905026
 31
0.0
  0
LINE
  5
171
330
1F
100
AcDbEntity
  8
0
  6
Continuous
 62
     7
370
     0
100
AcDbLine
 10
61.7880285856
 20
81.6326905026
 30
0.0
 11
61.7880285856
 21
96.7826905026
 31
0.0
  0
LINE
  5
172
330
1F
100
AcDbEntity
  8
0
  6
Continuous
 62
     7
370
     0
100
AcDbLine
 10
61.7880285856
 20
81.6326905026
 30
0.0
 11
61.5380285856
 21
81.6326905026
 31
0.0
  0
LINE
  5
173
330
1F
100
AcDbEntity
  8
0
  6
Continuous
 62
     7
370
     0
100
AcDbLine
 10
61.5380285856
 20
81.6326905026
 30
0.0
 11
61.5380285856
 21
96.7826905026
 31
0.0
  0
LINE
  5
174
330
1F
100
AcDbEntity
  8
0
  6
Continuous
 62
     7
370
     0
100
AcDbLine
 10
99.6380285856
 20
81.6326905026
 30
0.0
 11
99.6380285856
 21
96.7826905026
 31
0.0
  0
LINE
  5
175
330
1F
100
AcDbEntity
  8
0
  6
Continuous
 62
     7
370
     0
100
AcDbLine
 10
98.6380285856
 20
81.6326905026
 30
0.0
 11
98.6380285856
 21
96.7826905026
 31
0.0
  0
LINE
  5
176
330
1F
100
AcDbEntity
  8
0
  6
Continuous
 62
     7
370
     0
100
AcDbLine
 10
99.6380285856
 20
81.6326905026
 30
0.0
 11
98.6380285856
 21
81.6326905026
 31
0.0
  0
LINE
  5
177
330
1F
100
AcDbEntity
  8
0
  6
Continuous
 62
     7
370
     0
100
AcDbLine
 10
98.6380285856
 20
81.6326905026
 30
0.0
 11
79.3380285856
 21
81.6326905026
 31
0.0
  0
LINE
  5
178
330
1F
100
AcDbEntity
  8
0
  6
Continuous
 62
     7
370
     0
100
AcDbLine
 10
42.2380285856
 20
81.6326905026
 30
0.0
 11
42.2380285856
 21
96.7826905026
 31
0.0
  0
LINE
  5
179
330
1F
100
AcDbEntity
  8
0
  6
Continuous
 62
     7
370
     0
100
AcDbLine
 10
61.5380285856
 20
81.6326905026
 30
0.0
 11
42.2380285856
 21
81.6326905026
 31
0.0
  0
LINE
  5
17A
330
1F
100
AcDbEntity
  8
0
  6
Continuous
 62
     7
370
     0
100
AcDbLine
 10
41.2380285856
 20
81.6326905026
 30
0.0
 11
41.2380285856
 21
96.7826905026
 31
0.0
  0
LINE
  5
17B
330
1F
100
AcDbEntity
  8
0
  6
Continuous
 62
     7
370
     0
100
AcDbLine
 10
42.2380285856
 20
81.6326905026
 30
0.0
 11
41.2380285856
 21
81.6326905026
 31
0.0
  0
CIRCLE
  5
17C
330
1F
100
AcDbEntity
  8
0
  6
Continuous
 62
     7
370
     0
100
AcDbCircle
 10
70.4380285856
 20
91.2826905026
 30
0.0
 40
0.3999999999999915
  0
LINE
  5
17D
330
1F
100
AcDbEntity
  8
0
  6
Continuous
 62
     7
370
     0
100
AcDbLine
 10
57.8203383073
 20
81.6326905026
 30
0.0
 11
58.4585796114
 21
81.6326905026
 31
0.0
  0
LINE
  5
17E
330
1F
100
AcDbEntity
  8
0
  6
Continuous
 62
     7
370
     0
100
AcDbLine
 10
82.4174775599
 20
81.6326905026
 30
0.0
 11
83.055718864
 21
81.6326905026
 31
0.0
  0
LINE
  5
17F
330
1F
100
AcDbEntity
  8
0
  6
Continuous
 62
     7
370
     0
100
AcDbLine
 10
58.1380285856
 20
81.6326905026
 30
0.0
 11
60.6399670456
 21
81.6326905026
 31
0.0
  0
LINE
  5
180
330
1F
100
AcDbEntity
  8
0
  6
Continuous
 62
     7
370
     0
100
AcDbLine
 10
80.2360901256
 20
81.6326905026
 30
0.0
 11
82.7380285856
 21
81.6326905026
 31
0.0
  0
LINE
  5
181
330
1F
100
AcDbEntity
  8
0
  6
Continuous
 62
     7
370
     0
100
AcDbLine
 10
60.6399670456
 20
81.6326905026
 30
0.0
 11
61.4380285857
 21
81.6326905026
 31
0.0
  0
LINE
  5
182
330
1F
100
AcDbEntity
  8
0
  6
Continuous
 62
     7
370
     0
100
AcDbLine
 10
79.4380285856
 20
81.6326905026
 30
0.0
 11
80.2360901256
 21
81.6326905026
 31
0.0
  0
LINE
  5
183
330
1F
100
AcDbEntity
  8
0
  6
Continuous
 62
     7
370
     0
100
AcDbLine
 10
43.4380285856
 20
96.7826905026
 30
0.0
 11
43.4380285856
 21
164.1826905026
 31
0.0
  0
LINE
  5
184
330
1F
100
AcDbEntity
  8
0
  6
Continuous
 62
     7
370
     0
100
AcDbLine
 10
43.4380285856
 20
96.7826905026
 30
0.0
 11
42.9380285856
 21
96.7826905026
 31
0.0
  0
LINE
  5
185
330
1F
100
AcDbEntity
  8
0
  6
Continuous
 62
     7
370
     0
100
AcDbLine
 10
42.9380285856
 20
96.7826905026
 30
0.0
 11
42.9380285856
 21
164.1826905026
 31
0.0
  0
LINE
  5
186
330
1F
100
AcDbEntity
  8
0
  6
Continuous
 62
     7
370
     0
100
AcDbLine
 10
43.4380285856
 20
164.1826905026
 30
0.0
 11
42.9380285856
 21
164.1826905026
 31
0.0
  0
LINE
  5
187
330
1F
100
AcDbEntity
  8
0
  6
Continuous
 62
     7
370
     0
100
AcDbLine
 10
113.9380285856
 20
96.7826905026
 30
0.0
 11
113.9380285856
 21
164.1826905026
 31
0.0
  0
LINE
  5
188
330
1F
100
AcDbEntity
  8
0
  6
Continuous
 62
     7
370
     0
100
AcDbLine
 10
113.9380285856
 20
96.7826905026
 30
0.0
 11
97.9380285856
 21
96.7826905026
 31
0.0
  0
LINE
  5
189
330
1F
100
AcDbEntity
  8
0
  6
Continuous
 62
     7
370
     0
100
AcDbLine
 10
97.9380285856
 20
96.7826905026
 30
0.0
 11
97.9380285856
 21
164.1826905026
 31
0.0
  0
CIRCLE
  5
18A
330
1F
100
AcDbEntity
  8
0
  6
Continuous
 62
     7
370
     0
100
AcDbCircle
 10
106.4380285856
 20
104.4826905026
 30
0.0
 40
4.850000000000009
  0
CIRCLE
  5
18B
330
1F
100
AcDbEntity
  8
0
  6
Continuous
 62
     7
370
     0
100
AcDbCircle
 10
106.4380285856
 20
156.4826905026
 30
0.0
 40
4.850000000000009
  0
LINE
  5
18C
330
1F
100
AcDbEntity
  8
0
  6
Continuous
 62
     7
370
     0
100
AcDbLine
 10
113.9380285856
 20
164.1826905026
 30
0.0
 11
97.9380285856
 21
164.1826905026
 31
0.0
  0
LINE
  5
18D
330
1F
100
AcDbEntity
  8
0
  6
Continuous
 62
     7
370
     0
100
AcDbLine
 10
42.9380285856
 20
96.7826905026
 30
0.0
 11
26.9380285856
 21
96.7826905026
 31
0.0
  0
LINE
  5
18E
330
1F
100
AcDbEntity
  8
0
  6
Continuous
 62
     7
370
     0
100
AcDbLine
 10
26.9380285856
 20
96.7826905026
 30
0.0
 11
26.9380285856
 21
164.1826905026
 31
0.0
  0
CIRCLE
  5
18F
330
1F
100
AcDbEntity
  8
0
  6
Continuous
 62
     7
370
     0
100
AcDbCircle
 10
34.4380285856
 20
104.4826905026
 30
0.0
 40
4.849999999999994
  0
CIRCLE
  5
190
330
1F
100
AcDbEntity
  8
0
  6
Continuous
 62
     7
370
     0
100
AcDbCircle
 10
34.4380285856
 20
156.4826905026
 30
0.0
 40
4.849999999999994
  0
LINE
  5
191
330
1F
100
AcDbEntity
  8
0
  6
Continuous
 62
     7
370
     0
100
AcDbLine
 10
42.9380285856
 20
164.1826905026
 30
0.0
 11
26.9380285856
 21
164.1826905026
 31
0.0
  0
LINE
  5
192
330
1F
100
AcDbEntity
  8
0
  6
Continuous
 62
     7
370
     0
100
AcDbLine
 10
97.9380285856
 20
96.7826905026
 30
0.0
 11
97.4380285856
 21
96.7826905026
 31
0.0
  0
LINE
  5
193
330
1F
100
AcDbEntity
  8
0
  6
Continuous
 62
     7
370
     0
100
AcDbLine
 10
97.4380285856
 20
96.7826905026
 30
0.0
 11
97.4380285856
 21
164.1826905026
 31
0.0
  0
LINE
  5
194
330
1F
100
AcDbEntity
  8
0
  6
Continuous
 62
     7
370
     0
100
AcDbLine
 10
97.9380285856
 20
164.1826905026
 30
0.0
 11
97.4380285856
 21
164.1826905026
 31
0.0
  0
LINE
  5
195
330
1F
100
AcDbEntity
  8
0
  6
Continuous
 62
     7
370
     0
100
AcDbLine
 10
61.9380285856
 20
96.7826905026
 30
0.0
 11
61.9380285856
 21
164.1826905026
 31
0.0
  0
LINE
  5
196
330
1F
100
AcDbEntity
  8
0
  6
Continuous
 62
     7
370
     0
100
AcDbLine
 10
61.9380285856
 20
96.7826905026
 30
0.0
 11
61.4380285856
 21
96.7826905026
 31
0.0
  0
LINE
  5
197
330
1F
100
AcDbEntity
  8
0
  6
Continuous
 62
     7
370
     0
100
AcDbLine
 10
61.4380285856
 20
96.7826905026
 30
0.0
 11
61.4380285856
 21
164.1826905026
 31
0.0
  0
LINE
  5
198
330
1F
100
AcDbEntity
  8
0
  6
Continuous
 62
     7
370
     0
100
AcDbLine
 10
61.9380285856
 20
164.1826905026
 30
0.0
 11
61.4380285856
 21
164.1826905026
 31
0.0
  0
LINE
  5
199
330
1F
100
AcDbEntity
  8
0
  6
Continuous
 62
     7
370
     0
100
AcDbLine
 10
78.9380285856
 20
96.7826905026
 30
0.0
 11
78.9380285856
 21
164.1826905026
 31
0.0
  0
LINE
  5
19A
330
1F
100
AcDbEntity
  8
0
  6
Continuous
 62
     7
370
     0
100
AcDbLine
 10
78.9380285856
 20
96.7826905026
 30
0.0
 11
61.9380285856
 21
96.7826905026
 31
0.0
  0
CIRCLE
  5
19B
330
1F
100
AcDbEntity
  8
0
  6
Continuous
 62
     7
370
     0
100
AcDbCircle
 10
70.4380285856
 20
108.4826905026
 30
0.0
 40
4.850000000002453
  0
CIRCLE
  5
19C
330
1F
100
AcDbEntity
  8
0
  6
Continuous
 62
     7
370
     0
100
AcDbCircle
 10
70.4380285856
 20
152.4826905026
 30
0.0
 40
4.850000000002467
  0
LINE
  5
19D
330
1F
100
AcDbEntity
  8
0
  6
Continuous
 62
     7
370
     0
100
AcDbLine
 10
78.9380285856
 20
164.1826905026
 30
0.0
 11
61.9380285856
 21
164.1826905026
 31
0.0
  0
LINE
  5
19E
330
1F
100
AcDbEntity
  8
0
  6
Continuous
 62
     7
370
     0
100
AcDbLine
 10
115.4380285856
 20
96.7826905026
 30
0.0
 11
115.4380285856
 21
164.1826905026
 31
0.0
  0
LINE
  5
19F
330
1F
100
AcDbEntity
  8
0
  6
Continuous
 62
     7
370
     0
100
AcDbLine
 10
115.4380285856
 20
96.7826905026
 30
0.0
 11
113.9380285856
 21
96.7826905026
 31
0.0
  0
LINE
  5
1A0
330
1F
100
AcDbEntity
  8
0
  6
Continuous
 62
     7
370
     0
100
AcDbLine
 10
115.4380285856
 20
164.1826905026
 30
0.0
 11
113.9380285856
 21
164.1826905026
 31
0.0
  0
LINE
  5
1A1
330
1F
100
AcDbEntity
  8
0
  6
Continuous
 62
     7
370
     0
100
AcDbLine
 10
26.9380285856
 20
96.7826905026
 30
0.0
 11
25.4380285856
 21
96.7826905026
 31
0.0
  0
LINE
  5
1A2
330
1F
100
AcDbEntity
  8
0
  6
Continuous
 62
     7
370
     0
100
AcDbLine
 10
25.4380285856
 20
96.7826905026
 30
0.0
 11
25.4380285856
 21
164.1826905026
 31
0.0
  0
LINE
  5
1A3
330
1F
100
AcDbEntity
  8
0
  6
Continuous
 62
     7
370
     0
100
AcDbLine
 10
26.9380285856
 20
164.1826905026
 30
0.0
 11
25.4380285856
 21
164.1826905026
 31
0.0
  0
LINE
  5
1A4
330
1F
100
AcDbEntity
  8
0
  6
Continuous
 62
     7
370
     0
100
AcDbLine
 10
79.4380285856
 20
96.7826905026
 30
0.0
 11
79.4380285856
 21
164.1826905026
 31
0.0
  0
LINE
  5
1A5
330
1F
100
AcDbEntity
  8
0
  6
Continuous
 62
     7
370
     0
100
AcDbLine
 10
79.4380285856
 20
96.7826905026
 30
0.0
 11
78.9380285856
 21
96.7826905026
 31
0.0
  0
LINE
  5
1A6
330
1F
100
AcDbEntity
  8
0
  6
Continuous
 62
     7
370
     0
100
AcDbLine
 10
79.4380285856
 20
164.1826905026
 30
0.0
 11
78.9380285856
 21
164.1826905026
 31
0.0
  0
CIRCLE
  5
1A7
330
1F
100
AcDbEntity
  8
0
  6
Continuous
 62
     7
370
     0
100
AcDbCircle
 10
106.4380285856
 20
156.4826905026
 30
0.0
 40
4.249999999999972
  0
CIRCLE
  5
1A8
330
1F
100
AcDbEntity
  8
0
  6
Continuous
 62
     7
370
     0
100
AcDbCircle
 10
34.4380285856
 20
156.4826905026
 30
0.0
 40
4.249999999999972
  0
CIRCLE
  5
1A9
330
1F
100
AcDbEntity
  8
0
  6
Continuous
 62
     7
370
     0
100
AcDbCircle
 10
70.4380285856
 20
152.4826905026
 30
0.0
 40
4.25
  0
CIRCLE
  5
1AA
330
1F
100
AcDbEntity
  8
0
  6
Continuous
 62
     7
370
     0
100
AcDbCircle
 10
70.4380285856
 20
108.4826905026
 30
0.0
 40
4.250000000000014
  0
CIRCLE
  5
1AB
330
1F
100
AcDbEntity
  8
0
  6
Continuous
 62
     7
370
     0
100
AcDbCircle
 10
106.4380285856
 20
104.4826905026
 30
0.0
 40
4.249999999999986
  0
CIRCLE
  5
1AC
330
1F
100
AcDbEntity
  8
0
  6
Continuous
 62
     7
370
     0
100
AcDbCircle
 10
34.4380285856
 20
104.4826905026
 30
0.0
 40
4.249999999999986
  0
LINE
  5
1AD
330
1F
100
AcDbEntity
  8
0
  6
Continuous
 62
     7
370
     0
100
AcDbLine
 10
97.4380285856
 20
96.7826905026
 30
0.0
 11
79.4380285856
 21
96.7826905026
 31
0.0
  0
LINE
  5
1AE
330
1F
100
AcDbEntity
  8
0
  6
Continuous
 62
     7
370
     0
100
AcDbLine
 10
97.4380285856
 20
164.1826905026
 30
0.0
 11
79.4380285856
 21
164.1826905026
 31
0.0
  0
LINE
  5
1AF
330
1F
100
AcDbEntity
  8
0
  6
Continuous
 62
     7
370
     0
100
AcDbLine
 10
61.4380285856
 20
96.7826905026
 30
0.0
 11
43.4380285856
 21
96.7826905026
 31
0.0
  0
LINE
  5
1B0
330
1F
100
AcDbEntity
  8
0
  6
Continuous
 62
     7
370
     0
100
AcDbLine
 10
61.4380285856
 20
164.1826905026
 30
0.0
 11
43.4380285856
 21
164.1826905026
 31
0.0
  0
INSERT
  5
1BC
330
1F
100
AcDbEntity
  8
0
  6
Continuous
 62
     7
370
     0
100
AcDbBlockReference
  2
SW_CENTERMARKSYMBOL_5
 10
34.4380285856
 20
156.4826905026
 30
0.0
  0
INSERT
  5
1C8
330
1F
100
AcDbEntity
  8
0
  6
Continuous
 62
     7
370
     0
100
AcDbBlockReference
  2
SW_CENTERMARKSYMBOL_6
 10
106.4380285856
 20
104.4826905026
 30
0.0
  0
INSERT
  5
1D4
330
1F
100
AcDbEntity
  8
0
  6
Continuous
 62
     7
370
     0
100
AcDbBlockReference
  2
SW_CENTERMARKSYMBOL_7
 10
70.4380285856
 20
152.4826905026
 30
0.0
  0
INSERT
  5
1E0
330
1F
100
AcDbEntity
  8
0
  6
Continuous
 62
     7
370
     0
100
AcDbBlockReference
  2
SW_CENTERMARKSYMBOL_8
 10
70.4380285856
 20
108.4826905026
 30
0.0
  0
INSERT
  5
1EC
330
1F
100
AcDbEntity
  8
0
  6
Continuous
 62
     7
370
     0
100
AcDbBlockReference
  2
SW_CENTERMARKSYMBOL_9
 10
34.4380285856
 20
104.4826905026
 30
0.0
  0
INSERT
  5
1F8
330
1F
100
AcDbEntity
  8
0
  6
Continuous
 62
     7
370
     0
100
AcDbBlockReference
  2
SW_CENTERMARKSYMBOL_10
 10
106.4380285856
 20
156.4826905026
 30
0.0
  0
INSERT
  5
204
330
1F
100
AcDbEntity
  8
0
  6
Continuous
 62
     7
370
     0
100
AcDbBlockReference
  2
SW_CENTERMARKSYMBOL_11
 10
70.4380285856
 20
170.4826905026
 30
0.0
  0
INSERT
  5
210
330
1F
100
AcDbEntity
  8
0
  6
Continuous
 62
     7
370
     0
100
AcDbBlockReference
  2
SW_CENTERMARKSYMBOL_12
 10
70.4380285856
 20
169.6826905026
 30
0.0
  0
INSERT
  5
21C
330
1F
100
AcDbEntity
  8
0
  6
Continuous
 62
     7
370
     0
100
AcDbBlockReference
  2
SW_CENTERMARKSYMBOL_13
 10
70.4380285856
 20
90.4826905026
 30
0.0
  0
INSERT
  5
228
330
1F
100
AcDbEntity
  8
0
  6
Continuous
 62
     7
370
     0
100
AcDbBlockReference
  2
SW_CENTERMARKSYMBOL_14
 10
70.4380285856
 20
91.2826905026
 30
0.0
  0
ARC
  5
229
330
1F
100
AcDbEntity
  8
0
  6
Continuous
 62
     7
370
     0
100
AcDbCircle
 10
70.4380285856
 20
108.4826905026
 30
0.0
 40
5.000000000000007
100
AcDbArc
 50
255.0
 51
195.0
  0
ARC
  5
22A
330
1F
100
AcDbEntity
  8
0
  6
Continuous
 62
     7
370
     0
100
AcDbCircle
 10
70.4380285856
 20
152.4826905026
 30
0.0
 40
5.000000000000007
100
AcDbArc
 50
255.0
 51
195.0
  0
ARC
  5
22B
330
1F
100
AcDbEntity
  8
0
  6
Continuous
 62
     7
370
     0
100
AcDbCircle
 10
34.4380285856
 20
104.4826905026
 30
0.0
 40
5.000000000000002
100
AcDbArc
 50
255.0
 51
195.0
  0
ARC
  5
22C
330
1F
100
AcDbEntity
  8
0
  6
Continuous
 62
     7
370
     0
100
AcDbCircle
 10
106.4380285856
 20
104.4826905026
 30
0.0
 40
5.000000000000004
100
AcDbArc
 50
255.0
 51
195.0
  0
ARC
  5
22D
330
1F
100
AcDbEntity
  8
0
  6
Continuous
 62
     7
370
     0
100
AcDbCircle
 10
106.4380285856
 20
156.4826905026
 30
0.0
 40
5.000000000000007
100
AcDbArc
 50
255.0
 51
195.0
  0
ARC
  5
22E
330
1F
100
AcDbEntity
  8
0
  6
Continuous
 62
     7
370
     0
100
AcDbCircle
 10
34.4380285856
 20
156.4826905026
 30
0.0
 40
5.000000000000004
100
AcDbArc
 50
255.0
 51
195.0
  0
SPLINE
  5
22F
330
1F
100
AcDbEntity
  8
0
  6
Continuous
 62
     7
370
     0
100
AcDbSpline
210
0.0
220
0.0
230
1.0
 70
    24
 71
     1
 72
     4
 73
     2
 74
     0
 42
0.00000001
 43
0.00000001
 40
0.0
 40
0.0
 40
1.0
 40
1.0
 10
219.3017956651843
 20
179.6149297184425
 30
0.0
 10
209.3973661957986
 20
173.8972242905483
 30
0.0
  0
SPLINE
  5
230
330
1F
100
AcDbEntity
  8
0
  6
Continuous
 62
     7
370
     0
100
AcDbSpline
210
0.0
220
0.0
230
1.0
 70
    24
 71
     1
 72
     4
 73
     2
 74
     0
 42
0.00000001
 43
0.00000001
 40
0.0
 40
0.0
 40
1.0
 40
1.0
 10
179.3552471476296
 20
109.8651796000942
 30
0.0
 10
178.1785075876197
 20
109.1858623117756
 30
0.0
  0
SPLINE
  5
231
330
1F
100
AcDbEntity
  8
0
  6
Continuous
 62
     7
370
     0
100
AcDbSpline
210
0.0
220
0.0
230
1.0
 70
    24
 71
     1
 72
     4
 73
     2
 74
     0
 42
0.00000001
 43
0.00000001
 40
0.0
 40
0.0
 40
1.0
 40
1.0
 10
160.9301308782346
 20
145.9176849029603
 30
0.0
 10
150.2174631432584
 20
139.7333934559033
 30
0.0
  0
SPLINE
  5
232
330
1F
100
AcDbEntity
  8
0
  6
Continuous
 62
     7
370
     0
100
AcDbSpline
210
0.0
220
0.0
230
1.0
 70
    24
 71
     1
 72
     4
 73
     2
 74
     0
 42
0.00000001
 43
0.00000001
 40
0.0
 40
0.0
 40
1.0
 40
1.0
 10
163.1371598904519
 20
106.903737719671
 30
0.0
 10
173.8498276254282
 20
113.088029166728
 30
0.0
  0
SPLINE
  5
233
330
1F
100
AcDbEntity
  8
0
  6
Continuous
 62
     7
370
     0
100
AcDbSpline
210
0.0
220
0.0
230
1.0
 70
    24
 71
     1
 72
     4
 73
     2
 74
     0
 42
0.00000001
 43
0.00000001
 40
0.0
 40
0.0
 40
1.0
 40
1.0
 10
173.8498276254282
 20
113.088029166728
 30
0.0
 10
176.6199810178874
 20
114.6872046807868
 30
0.0
  0
ARC
  5
234
330
1F
100
AcDbEntity
  8
0
  6
Continuous
 62
     7
370
     0
100
AcDbCircle
 10
258.8544681702
 20
155.2481071945
 30
0.0
 40
1.536804807571938
100
AcDbArc
 50
2.6054784857
 51
57.39452166
  0
LINE
  5
235
330
1F
100
AcDbEntity
  8
0
  6
Continuous
 62
     7
370
     0
100
AcDbLine
 10
260.3896842716
 20
129.8173984916
 30
0.0
 11
260.3896842716
 21
134.9473714512
 31
0.0
  0
LINE
  5
236
330
1F
100
AcDbEntity
  8
0
  6
Continuous
 62
     7
370
     0
100
AcDbLine
 10
260.3896842716
 20
143.7659259645
 30
0.0
 11
260.3896842716
 21
155.3179680468
 31
0.0
  0
LINE
  5
237
330
1F
100
AcDbEntity
  8
0
  6
Continuous
 62
     7
370
     0
100
AcDbLine
 10
260.3896842716
 20
129.8173984916
 30
0.0
 11
250.1012806053
 21
123.878029478
 31
0.0
  0
LWPOLYLINE
  5
238
330
1F
100
AcDbEntity
  8
0
  6
Continuous
 62
     7
370
     0
100
AcDbPolyline
 90
       21
 70
   128
 43
0.0
 10
253.2563563294
 20
148.5779682219
 10
253.2975249979
 20
148.7312022565
 10
253.5195508259
 20
149.3429726583
 10
253.8264122387
 20
149.9372956812
 10
254.2037607378
 20
150.4863814412
 10
254.6339519268
 20
150.9645552984
 10
255.0968705437
 20
151.3494583748
 10
255.5708710285
 20
151.6230930302
 10
256.0337896455
 20
151.7726644123
 10
256.4639808344
 20
151.7911787296
 10
256.8413293335
 20
151.677770273
 10
257.1481907464
 20
151.437741896
 10
257.3702165744
 20
151.0823170588
 10
257.4970251366
 20
150.6281150316
 10
257.5226870055
 20
150.0963737966
 10
257.4460022607
 20
149.5119569827
 10
257.2705565956
 20
148.9021912708
 10
257.0045536545
 20
148.2955886278
 10
256.6604314394
 20
147.7205131191
 10
256.2542807224
 20
147.2038546363
 10
256.0334463609
 20
146.9747882714
  0
LINE
  5
239
330
1F
100
AcDbEntity
  8
0
  6
Continuous
 62
     7
370
     0
100
AcDbLine
 10
246.0354166135
 20
164.4210511936
 30
0.0
 11
235.5702764789
 21
158.3796543887
 31
0.0
  0
LINE
  5
23A
330
1F
100
AcDbEntity
  8
0
  6
Continuous
 62
     7
370
     0
100
AcDbLine
 10
259.6825774904
 20
156.5427129145
 30
0.0
 11
246.0354166135
 21
164.4210511936
 31
0.0
  0
LWPOLYLINE
  5
23B
330
1F
100
AcDbEntity
  8
0
  6
Continuous
 62
     7
370
     0
100
AcDbPolyline
 90
       14
 70
   128
 43
0.0
 10
255.2636716657
 20
147.419169744
 10
255.5364655181
 20
147.6679406486
 10
255.9138128038
 20
148.1144761196
 10
256.232799282
 20
148.6249560945
 10
256.4748866179
 20
149.1697133326
 10
256.6260055755
 20
149.7170885234
 10
256.6773736704
 20
150.2352702104
 10
256.6260055755
 20
150.6941435575
 10
256.4748866179
 20
151.0670405136
 10
256.232799282
 20
151.3322896632
 10
255.9138128038
 20
151.4744756898
 10
255.5364655181
 20
151.4853352583
 10
255.1226874774
 20
151.3642372501
 10
255.1099904839
 20
151.358633946
  0
LINE
  5
23C
330
1F
100
AcDbEntity
  8
0
  6
Continuous
 62
     7
370
     0
100
AcDbLine
 10
245.8586399182
 20
164.7272374106
 30
0.0
 11
235.3050841381
 21
158.6347993399
 31
0.0
  0
LINE
  5
23D
330
1F
100
AcDbEntity
  8
0
  6
Continuous
 62
     7
370
     0
100
AcDbLine
 10
246.0354166135
 20
164.4210511936
 30
0.0
 11
245.8586399182
 21
164.7272374106
 31
0.0
  0
LINE
  5
23E
330
1F
100
AcDbEntity
  8
0
  6
Continuous
 62
     7
370
     0
100
AcDbLine
 10
233.6256926037
 20
171.7891675779
 30
0.0
 11
223.3373578979
 21
165.8498383744
 31
0.0
  0
LWPOLYLINE
  5
23F
330
1F
100
AcDbEntity
  8
0
  6
Continuous
 62
     7
370
     0
100
AcDbPolyline
 90
       27
 70
   128
 43
0.0
 10
231.7165042945
 20
165.6661067392
 10
231.3448180667
 20
165.3922285072
 10
231.0974690812
 20
165.0749587426
 10
230.9888323619
 20
164.732736011
 10
231.0252214801
 20
164.3854490535
 10
231.2045216325
 20
164.0532809257
 10
231.5163125459
 20
163.755536032
 10
231.9424740659
 20
163.5095182231
 10
232.4582392338
 20
163.32952516
 10
233.0336336529
 20
163.2260173853
 10
233.635217491
 20
163.2050103945
 10
234.2280288821
 20
163.2677250376
 10
234.7776157829
 20
163.4105165676
 10
235.2520382004
 20
163.6250864596
 10
235.6237244282
 20
163.8989646916
 10
235.8710734137
 20
164.2162344562
 10
235.979710133
 20
164.5584571878
 10
235.9433210148
 20
164.9057441453
 10
235.7640208624
 20
165.2379122731
 10
235.452229949
 20
165.5356571669
 10
235.026068429
 20
165.7816749757
 10
234.5103032611
 20
165.9616680388
 10
233.934908842
 20
166.0651758135
 10
233.3333250039
 20
166.0861828043
 10
232.7405136128
 20
166.0234681612
 10
232.190926712
 20
165.8806766312
 10
231.7165042945
 20
165.6661067392
  0
LINE
  5
240
330
1F
100
AcDbEntity
  8
0
  6
Continuous
 62
     7
370
     0
100
AcDbLine
 10
245.8586399182
 20
164.7272374106
 30
0.0
 11
233.6256926037
 21
171.7891675779
 31
0.0
  0
ARC
  5
241
330
1F
100
AcDbEntity
  8
0
  6
Continuous
 62
     7
370
     0
100
AcDbCircle
 10
232.3814125967
 20
163.5348688556
 30
0.0
 40
1.47327235793346
100
AcDbArc
 50
116.8280140782
 51
151.5233396377
  0
ARC
  5
242
330
1F
100
AcDbEntity
  8
0
  6
Continuous
 62
     7
370
     0
100
AcDbCircle
 10
233.4309171748
 20
162.0367922653
 30
0.0
 40
3.294071522901411
100
AcDbArc
 50
41.9150915506
 51
121.3627135137
  0
LWPOLYLINE
  5
243
330
1F
100
AcDbEntity
  8
0
  6
Continuous
 62
     7
370
     0
100
AcDbPolyline
 90
       17
 70
   128
 43
0.0
 10
232.63574311
 20
163.6657741652
 10
232.5490340095
 20
163.59085992
 10
232.5185858225
 20
163.5024925428
 10
232.5490340095
 20
163.4141251655
 10
232.63574311
 20
163.3392109204
 10
232.7655124496
 20
163.2891548222
 10
232.9185858225
 20
163.271577458
 10
233.0716591955
 20
163.2891548222
 10
233.201428535
 20
163.3392109204
 10
233.2881376355
 20
163.4141251655
 10
233.3185858225
 20
163.5024925428
 10
233.2881376355
 20
163.59085992
 10
233.201428535
 20
163.6657741652
 10
233.0716591955
 20
163.7158302634
 10
232.9185858225
 20
163.7334076276
 10
232.7655124496
 20
163.7158302634
 10
232.63574311
 20
163.6657741652
  0
LINE
  5
244
330
1F
100
AcDbEntity
  8
0
  6
Continuous
 62
     7
370
     0
100
AcDbLine
 10
258.8199072174
 20
128.9108908933
 30
0.0
 11
250.1012806053
 21
123.8777348839
 31
0.0
  0
LINE
  5
245
330
1F
100
AcDbEntity
  8
0
  6
Continuous
 62
     7
370
     0
100
AcDbLine
 10
258.8199072174
 20
128.9108908933
 30
0.0
 11
260.3896842716
 21
129.8173984916
 31
0.0
  0
LINE
  5
246
330
1F
100
AcDbEntity
  8
0
  6
Continuous
 62
     7
370
     0
100
AcDbLine
 10
233.4488871749
 20
171.6870999764
 30
0.0
 11
219.8017550315
 21
179.5654216679
 31
0.0
  0
LWPOLYLINE
  5
247
330
1F
100
AcDbEntity
  8
0
  6
Continuous
 62
     7
370
     0
100
AcDbPolyline
 90
        6
 70
   128
 43
0.0
 10
219.8017550315
 20
179.5654216679
 10
219.6638053419
 20
179.6293687259
 10
219.5311569814
 20
179.6594791288
 10
219.4089075523
 20
179.6545957508
 10
219.3017550315
 20
179.6149062573
 10
219.3017956652
 20
179.6149297184
  0
ARC
  5
248
330
1F
100
AcDbEntity
  8
0
  6
Continuous
 62
     7
370
     0
100
AcDbCircle
 10
182.0445405244
 20
100.4399421847
 30
0.0
 40
4.464955007352727
100
AcDbArc
 50
183.0976922634
 51
232.9643793306
  0
LINE
  5
249
330
1F
100
AcDbEntity
  8
0
  6
Continuous
 62
     7
370
     0
100
AcDbLine
 10
177.5861094965
 20
100.1986622926
 30
0.0
 11
177.0217947697
 21
100.900665062
 31
0.0
  0
LINE
  5
24A
330
1F
100
AcDbEntity
  8
0
  6
Continuous
 62
     7
370
     0
100
AcDbLine
 10
177.0217947697
 20
100.900665062
 30
0.0
 11
177.0217947697
 21
107.841261963
 31
0.0
  0
LINE
  5
24B
330
1F
100
AcDbEntity
  8
0
  6
Continuous
 62
     7
370
     0
100
AcDbLine
 10
177.0217947697
 20
107.841261963
 30
0.0
 11
177.5861094965
 21
107.8917208175
 31
0.0
  0
LWPOLYLINE
  5
24C
330
1F
100
AcDbEntity
  8
0
  6
Continuous
 62
     7
370
     0
100
AcDbPolyline
 90
        9
 70
   128
 43
0.0
 10
177.5861094965
 20
107.8917208175
 10
177.6210977959
 20
108.2889912813
 10
177.7201880272
 20
108.6352965057
 10
177.8801839463
 20
108.919466106
 10
178.0959247417
 20
109.1323339375
 10
178.3604515011
 20
109.267033758
 10
178.6652316773
 20
109.3192207042
 10
179.000434313
 20
109.2872114396
 10
179.3552471476
 20
109.1720384516
  0
LINE
  5
24D
330
1F
100
AcDbEntity
  8
0
  6
Continuous
 62
     7
370
     0
100
AcDbLine
 10
179.3552471476
 20
109.1720384516
 30
0.0
 11
179.3552471476
 21
110.9014676107
 31
0.0
  0
LINE
  5
24E
330
1F
100
AcDbEntity
  8
0
  6
Continuous
 62
     7
370
     0
100
AcDbLine
 10
179.3552471476
 20
110.9014676107
 30
0.0
 11
179.1285833436
 21
111.2940608343
 31
0.0
  0
LINE
  5
24F
330
1F
100
AcDbEntity
  8
0
  6
Continuous
 62
     7
370
     0
100
AcDbLine
 10
179.1285833436
 20
111.2940608343
 30
0.0
 11
179.5798880978
 21
112.9784866947
 31
0.0
  0
LINE
  5
250
330
1F
100
AcDbEntity
  8
0
  6
Continuous
 62
     7
370
     0
100
AcDbLine
 10
179.5798880978
 20
112.9784866947
 30
0.0
 11
161.7357793803
 21
123.2796713904
 31
0.0
  0
LINE
  5
251
330
1F
100
AcDbEntity
  8
0
  6
Continuous
 62
     7
370
     0
100
AcDbLine
 10
161.7357793803
 20
123.2796713904
 30
0.0
 11
162.1870841344
 21
121.0741801521
 31
0.0
  0
LINE
  5
252
330
1F
100
AcDbEntity
  8
0
  6
Continuous
 62
     7
370
     0
100
AcDbLine
 10
162.1870841344
 20
121.0741801521
 30
0.0
 11
161.9604203304
 21
120.9432873861
 31
0.0
  0
LINE
  5
253
330
1F
100
AcDbEntity
  8
0
  6
Continuous
 62
     7
370
     0
100
AcDbLine
 10
161.9604203304
 20
120.9432873861
 30
0.0
 11
161.9604203304
 21
119.2138582271
 31
0.0
  0
ARC
  5
254
330
1F
100
AcDbEntity
  8
0
  6
Continuous
 62
     7
370
     0
100
AcDbCircle
 10
159.2711269536
 20
115.6496578467
 30
0.0
 40
4.464955007339188
100
AcDbArc
 50
3.0976922634
 51
52.9643793307
  0
LINE
  5
255
330
1F
100
AcDbEntity
  8
0
  6
Continuous
 62
     7
370
     0
100
AcDbLine
 10
163.7295579816
 20
115.8909377389
 30
0.0
 11
164.2938727084
 21
115.1889349694
 31
0.0
  0
LINE
  5
256
330
1F
100
AcDbEntity
  8
0
  6
Continuous
 62
     7
370
     0
100
AcDbLine
 10
164.2938727084
 20
115.1889349694
 30
0.0
 11
164.2938727084
 21
108.2483380684
 31
0.0
  0
LINE
  5
257
330
1F
100
AcDbEntity
  8
0
  6
Continuous
 62
     7
370
     0
100
AcDbLine
 10
164.2938727084
 20
108.2483380684
 30
0.0
 11
163.7295579816
 21
108.197879214
 31
0.0
  0
LWPOLYLINE
  5
258
330
1F
100
AcDbEntity
  8
0
  6
Continuous
 62
     7
370
     0
100
AcDbPolyline
 90
        9
 70
   128
 43
0.0
 10
163.7295579816
 20
108.197879214
 10
163.6945696821
 20
107.8006087502
 10
163.5954794508
 20
107.4543035258
 10
163.4354835318
 20
107.1701339255
 10
163.2197427364
 20
106.9572660939
 10
162.955215977
 20
106.8225662735
 10
162.6504358008
 20
106.7703793272
 10
162.315233165
 20
106.8023885918
 10
161.9604203304
 20
106.9175615798
  0
LINE
  5
259
330
1F
100
AcDbEntity
  8
0
  6
Continuous
 62
     7
370
     0
100
AcDbLine
 10
161.9604203304
 20
106.9175615798
 30
0.0
 11
161.9604203304
 21
105.063609947
 31
0.0
  0
LINE
  5
25A
330
1F
100
AcDbEntity
  8
0
  6
Continuous
 62
     7
370
     0
100
AcDbLine
 10
151.5800927826
 20
111.0560454877
 30
0.0
 11
161.9604203304
 21
105.063609947
 31
0.0
  0
LINE
  5
25B
330
1F
100
AcDbEntity
  8
0
  6
Continuous
 62
     7
370
     0
100
AcDbLine
 10
150.0103157284
 20
113.7749790942
 30
0.0
 11
151.5800927826
 21
111.0560454877
 31
0.0
  0
LINE
  5
25C
330
1F
100
AcDbEntity
  8
0
  6
Continuous
 62
     7
370
     0
100
AcDbLine
 10
150.0103157284
 20
139.2755486494
 30
0.0
 11
150.0103157284
 21
113.7749790942
 31
0.0
  0
ARC
  5
25D
330
1F
100
AcDbEntity
  8
0
  6
Continuous
 62
     7
370
     0
100
AcDbCircle
 10
150.4413900958
 20
139.3454758463
 30
0.0
 40
0.436709197428502
100
AcDbArc
 50
50.7967147643
 51
189.2140369905
  0
LINE
  5
25E
330
1F
100
AcDbEntity
  8
0
  6
Continuous
 62
     7
370
     0
100
AcDbLine
 10
164.3645833865
 20
131.8055471263
 30
0.0
 11
150.7174225096
 21
139.6838854054
 31
0.0
  0
LINE
  5
25F
330
1F
100
AcDbEntity
  8
0
  6
Continuous
 62
     7
370
     0
100
AcDbLine
 10
164.5413600818
 20
131.9076313153
 30
0.0
 11
164.3645833865
 21
131.8055471263
 31
0.0
  0
LINE
  5
260
330
1F
100
AcDbEntity
  8
0
  6
Continuous
 62
     7
370
     0
100
AcDbLine
 10
176.7743073963
 20
124.845701148
 30
0.0
 11
164.5413600818
 21
131.9076313153
 31
0.0
  0
LINE
  5
261
330
1F
100
AcDbEntity
  8
0
  6
Continuous
 62
     7
370
     0
100
AcDbLine
 10
176.9510840916
 20
124.5395149311
 30
0.0
 11
176.7743073963
 21
124.845701148
 31
0.0
  0
LINE
  5
262
330
1F
100
AcDbEntity
  8
0
  6
Continuous
 62
     7
370
     0
100
AcDbLine
 10
190.5982449685
 20
116.661176652
 30
0.0
 11
176.9510840916
 21
124.5395149311
 31
0.0
  0
ARC
  5
263
330
1F
100
AcDbEntity
  8
0
  6
Continuous
 62
     7
370
     0
100
AcDbCircle
 10
189.7701356483
 20
115.366570932
 30
0.0
 40
1.536804807571921
100
AcDbArc
 50
2.6054784856
 51
57.39452166
  0
LINE
  5
264
330
1F
100
AcDbEntity
  8
0
  6
Continuous
 62
     7
370
     0
100
AcDbLine
 10
191.3053517497
 20
89.935862229
 30
0.0
 11
191.3053517497
 21
115.4364317842
 31
0.0
  0
LINE
  5
265
330
1F
100
AcDbEntity
  8
0
  6
Continuous
 62
     7
370
     0
100
AcDbLine
 10
189.7355746955
 20
89.0293546308
 30
0.0
 11
191.3053517497
 21
89.935862229
 31
0.0
  0
LINE
  5
266
330
1F
100
AcDbEntity
  8
0
  6
Continuous
 62
     7
370
     0
100
AcDbLine
 10
179.3552471476
 20
95.0217901715
 30
0.0
 11
189.7355746955
 21
89.0293546308
 31
0.0
  0
LINE
  5
267
330
1F
100
AcDbEntity
  8
0
  6
Continuous
 62
     7
370
     0
100
AcDbLine
 10
179.3552471476
 20
95.0217901715
 30
0.0
 11
179.3552471476
 21
96.8757418044
 31
0.0
  0
LWPOLYLINE
  5
268
330
1F
100
AcDbEntity
  8
0
  6
Continuous
 62
     7
370
     0
100
AcDbPolyline
 90
       23
 70
   128
 43
0.0
 10
154.8539971795
 20
126.0684555149
 10
154.8010080124
 20
125.6734601682
 10
154.6463333782
 20
125.3716449854
 10
154.4025040959
 20
125.1874612378
 10
154.0892737638
 20
125.1358303971
 10
153.7320184407
 20
125.2209352871
 10
153.359680828
 20
125.4358812156
 10
153.0024255048
 20
125.7632545419
 10
152.6891951728
 20
126.1765334261
 10
152.4453658905
 20
126.6422364708
 10
152.2906912563
 20
127.1226351849
 10
152.2377020891
 20
127.5788105218
 10
152.2906912563
 20
127.9738058685
 10
152.4453658905
 20
128.2756210513
 10
152.6891951728
 20
128.4598047989
 10
153.0024255048
 20
128.5114356395
 10
153.359680828
 20
128.4263307496
 10
153.7320184407
 20
128.211384821
 10
154.0892737638
 20
127.8840114947
 10
154.4025040959
 20
127.4707326106
 10
154.6463333782
 20
127.0050295659
 10
154.8010080124
 20
126.5246308517
 10
154.8539971795
 20
126.0684555149
  0
LWPOLYLINE
  5
269
330
1F
100
AcDbEntity
  8
0
  6
Continuous
 62
     7
370
     0
100
AcDbPolyline
 90
       30
 70
   128
 43
0.0
 10
172.8498647607
 20
122.6610862336
 10
172.7986162936
 20
122.1465217168
 10
172.6472672135
 20
121.7151878856
 10
172.4028944352
 20
121.3872534306
 10
172.0769245583
 20
121.1780522024
 10
171.6845995719
 20
121.097366218
 10
171.2442641563
 20
121.1489682642
 10
170.7765079061
 20
121.3304454867
 10
170.3032025838
 20
121.6333122124
 10
169.8464794202
 20
122.0434067297
 10
169.4276942828
 20
122.5415534749
 10
169.0664290991
 20
123.1044596596
 10
168.7795762277
 20
123.7058044165
 10
168.58054859
 20
124.3174695329
 10
168.4786524971
 20
124.9108542279
 10
168.4786524971
 20
125.4582124926
 10
168.58054859
 20
125.933950463
 10
168.7795762277
 20
126.3158231602
 10
169.0664290991
 20
126.5859746413
 10
169.4276942828
 20
126.7317729234
 10
169.8464794202
 20
126.7464006409
 10
170.3032025838
 20
126.6291738178
 10
170.7765079061
 20
126.3855738503
 10
171.2442641563
 20
126.0269912019
 10
171.6845995719
 20
125.5701927989
 10
172.0769245583
 20
125.0365380268
 10
172.4028944352
 20
124.4509799897
 10
172.6472672135
 20
123.8408987306
 10
172.7986162936
 20
123.234820971
 10
172.8498647607
 20
122.6610862336
  0
LWPOLYLINE
  5
26A
330
1F
100
AcDbEntity
  8
0
  6
Continuous
 62
     7
370
     0
100
AcDbPolyline
 90
       23
 70
   128
 43
0.0
 10
189.0779653889
 20
106.3113792088
 10
189.0249762218
 20
105.9163838621
 10
188.8703015876
 20
105.6145686793
 10
188.6264723053
 20
105.4303849317
 10
188.3132419732
 20
105.378754091
 10
187.9559866501
 20
105.463858981
 10
187.5836490374
 20
105.6788049095
 10
187.2263937143
 20
106.0061782358
 10
186.9131633822
 20
106.41945712
 10
186.6693340999
 20
106.8851601647
 10
186.5146594657
 20
107.3655588788
 10
186.4616702986
 20
107.8217342157
 10
186.5146594657
 20
108.2167295624
 10
186.6693340999
 20
108.5185447451
 10
186.9131633822
 20
108.7027284928
 10
187.2263937143
 20
108.7543593334
 10
187.5836490374
 20
108.6692544435
 10
187.9559866501
 20
108.4543085149
 10
188.3132419732
 20
108.1269351886
 10
188.6264723053
 20
107.7136563045
 10
188.8703015876
 20
107.2479532598
 10
189.0249762218
 20
106.7675545456
 10
189.0779653889
 20
106.3113792088
  0
LINE
  5
26B
330
1F
100
AcDbEntity
  8
0
  6
Continuous
 62
     7
370
     0
100
AcDbLine
 10
191.3053517497
 20
115.4364317842
 30
0.0
 11
202.0180194847
 21
121.6207232313
 31
0.0
  0
LINE
  5
26C
330
1F
100
AcDbEntity
  8
0
  6
Continuous
 62
     7
370
     0
100
AcDbLine
 10
190.5982449685
 20
116.661176652
 30
0.0
 11
201.3109127035
 21
122.8454680991
 31
0.0
  0
ARC
  5
26D
330
1F
100
AcDbEntity
  8
0
  6
Continuous
 62
     7
370
     0
100
AcDbCircle
 10
200.4828033833
 20
121.550862379
 30
0.0
 40
1.536804807572084
100
AcDbArc
 50
2.6054784857
 51
57.39452166
  0
LINE
  5
26E
330
1F
100
AcDbEntity
  8
0
  6
Continuous
 62
     7
370
     0
100
AcDbLine
 10
191.3053517497
 20
89.935862229
 30
0.0
 11
202.0180194847
 21
96.1201536761
 31
0.0
  0
LINE
  5
26F
330
1F
100
AcDbEntity
  8
0
  6
Continuous
 62
     7
370
     0
100
AcDbLine
 10
202.0180194847
 20
96.1201536761
 30
0.0
 11
202.0180194847
 21
121.6207232313
 31
0.0
  0
LWPOLYLINE
  5
270
330
1F
100
AcDbEntity
  8
0
  6
Continuous
 62
     7
370
     0
100
AcDbPolyline
 90
       30
 70
   128
 43
0.0
 10
196.3611652352
 20
112.3943428572
 10
195.8899433615
 20
112.1814920982
 10
195.4407552989
 20
112.0969536807
 10
195.0346045819
 20
112.1446805272
 10
194.6904823668
 20
112.3224409833
 10
194.4244794257
 20
112.6219231679
 10
194.2490337606
 20
113.0291236266
 10
194.1723490158
 20
113.5250021187
 10
194.1980108847
 20
114.0863719169
 10
194.3248194469
 20
114.6869839935
 10
194.5468452749
 20
115.2987543953
 10
194.8537066878
 20
115.8930774182
 10
195.2310551869
 20
116.4421631782
 10
195.6612463758
 20
116.9203370354
 10
196.1241649927
 20
117.3052401118
 10
196.5981654776
 20
117.5788747672
 10
197.0610840945
 20
117.7284461493
 10
197.4912752834
 20
117.7469604666
 10
197.8686237826
 20
117.63355201
 10
198.1754851954
 20
117.393523633
 10
198.3975110234
 20
117.0380987958
 10
198.5243195856
 20
116.5838967686
 10
198.5499814545
 20
116.0521555335
 10
198.4732967097
 20
115.4677387197
 10
198.2978510446
 20
114.8579730078
 10
198.0318481036
 20
114.2513703648
 10
197.6877258884
 20
113.6762948561
 10
197.2815751715
 20
113.1596363733
 10
196.8323871089
 20
112.7255532929
 10
196.3611652352
 20
112.3943428572
  0
LINE
  5
271
330
1F
100
AcDbEntity
  8
0
  6
Continuous
 62
     7
370
     0
100
AcDbLine
 10
176.9510840916
 20
124.5395149311
 30
0.0
 11
187.6637518266
 21
130.7238063782
 31
0.0
  0
LINE
  5
272
330
1F
100
AcDbEntity
  8
0
  6
Continuous
 62
     7
370
     0
100
AcDbLine
 10
201.3109127035
 20
122.8454680991
 30
0.0
 11
187.6637518266
 21
130.7238063782
 31
0.0
  0
LWPOLYLINE
  5
273
330
1F
100
AcDbEntity
  8
0
  6
Continuous
 62
     7
370
     0
100
AcDbPolyline
 90
       21
 70
   128
 43
0.0
 10
194.1805606919
 20
113.9249026202
 10
194.2205023084
 20
113.6911583207
 10
194.371621266
 20
113.3182613646
 10
194.6137086019
 20
113.053012215
 10
194.93269508
 20
112.9108261884
 10
195.3100423658
 20
112.8999666199
 10
195.7238204065
 20
113.0210646281
 10
196.1499819264
 20
113.267082437
 10
196.5637599671
 20
113.6237223856
 10
196.9411072529
 20
114.0702578566
 10
197.260093731
 20
114.5807378315
 10
197.5021810669
 20
115.1254950696
 10
197.6533000246
 20
115.6728702604
 10
197.7046681194
 20
116.1910519474
 10
197.6533000246
 20
116.6499252945
 10
197.5021810669
 20
117.0228222506
 10
197.260093731
 20
117.2880714002
 10
196.9411072529
 20
117.4302574268
 10
196.5637599671
 20
117.4411169953
 10
196.1499819264
 20
117.3200189871
 10
196.1372849331
 20
117.3144156831
  0
LWPOLYLINE
  5
274
330
1F
100
AcDbEntity
  8
0
  6
Continuous
 62
     7
370
     0
100
AcDbPolyline
 90
       14
 70
   128
 43
0.0
 10
188.0030496817
 20
108.4183120142
 10
187.7521401742
 20
108.4505380386
 10
187.5169878869
 20
108.3584351025
 10
187.363503132
 20
108.1400538266
 10
187.310198436
 20
107.8217342157
 10
187.363503132
 20
107.4418703128
 10
187.5169878869
 20
107.0462793108
 10
187.7521401742
 20
106.6826753228
 10
188.0405971575
 20
106.3949143561
 10
188.3475666674
 20
106.21770463
 10
188.6360236507
 20
106.1724202529
 10
188.871175938
 20
106.2645231891
 10
189.0246606929
 20
106.482904465
 10
189.057043719
 20
106.5925429649
  0
LINE
  5
275
330
1F
100
AcDbEntity
  8
0
  6
Continuous
 62
     7
370
     0
100
AcDbLine
 10
176.7743073963
 20
124.845701148
 30
0.0
 11
187.4869751313
 21
131.0299925951
 31
0.0
  0
LINE
  5
276
330
1F
100
AcDbEntity
  8
0
  6
Continuous
 62
     7
370
     0
100
AcDbLine
 10
187.6637518266
 20
130.7238063782
 30
0.0
 11
187.4869751313
 21
131.0299925951
 31
0.0
  0
LWPOLYLINE
  5
277
330
1F
100
AcDbEntity
  8
0
  6
Continuous
 62
     7
370
     0
100
AcDbPolyline
 90
       27
 70
   128
 43
0.0
 10
178.6834957055
 20
130.9687619867
 10
178.209073288
 20
130.7541920947
 10
177.6594863872
 20
130.6114005647
 10
177.0666749961
 20
130.5486859216
 10
176.465091158
 20
130.5696929124
 10
175.8896967389
 20
130.6732006871
 10
175.373931571
 20
130.8531937502
 10
174.947770051
 20
131.099211559
 10
174.6359791376
 20
131.3969564528
 10
174.4566789852
 20
131.7291245806
 10
174.420289867
 20
132.0764115381
 10
174.5289265863
 20
132.4186342697
 10
174.7762755718
 20
132.7359040343
 10
175.1479617996
 20
133.0097822663
 10
175.6223842171
 20
133.2243521583
 10
176.1719711179
 20
133.3671436883
 10
176.764782509
 20
133.4298583314
 10
177.3663663471
 20
133.4088513406
 10
177.9417607662
 20
133.3053435659
 10
178.4575259341
 20
133.1253505028
 10
178.8836874541
 20
132.8793326939
 10
179.1954783675
 20
132.5815878002
 10
179.3747785199
 20
132.2494196724
 10
179.4111676381
 20
131.9021327149
 10
179.3025309188
 20
131.5599099832
 10
179.0551819333
 20
131.2426402187
 10
178.6834957055
 20
130.9687619867
  0
LINE
  5
278
330
1F
100
AcDbEntity
  8
0
  6
Continuous
 62
     7
370
     0
100
AcDbLine
 10
164.5413600818
 20
131.9076313153
 30
0.0
 11
175.2540278167
 21
138.0919227624
 31
0.0
  0
LINE
  5
279
330
1F
100
AcDbEntity
  8
0
  6
Continuous
 62
     7
370
     0
100
AcDbLine
 10
187.4869751313
 20
131.0299925951
 30
0.0
 11
175.2540278167
 21
138.0919227624
 31
0.0
  0
LWPOLYLINE
  5
27A
330
1F
100
AcDbEntity
  8
0
  6
Continuous
 62
     7
370
     0
100
AcDbPolyline
 90
       21
 70
   128
 43
0.0
 10
170.8817140411
 20
126.3153151159
 10
170.8690170478
 20
126.3209184199
 10
170.4552390071
 20
126.4420164281
 10
170.0778917213
 20
126.4311568596
 10
169.7589052432
 20
126.288970833
 10
169.5168179073
 20
126.0237216835
 10
169.3656989497
 20
125.6508247273
 10
169.3143308548
 20
125.1919513802
 10
169.3656989497
 20
124.6737696932
 10
169.5168179073
 20
124.1263945024
 10
169.7589052432
 20
123.5816372643
 10
170.0778917213
 20
123.0711572895
 10
170.4552390071
 20
122.6246218185
 10
170.8690170478
 20
122.2679818698
 10
171.2951785677
 20
122.021964061
 10
171.7089566084
 20
121.9008660528
 10
172.0863038942
 20
121.9117256213
 10
172.4052903723
 20
122.0539116479
 10
172.6473777082
 20
122.3191607974
 10
172.7984966658
 20
122.6920577536
 10
172.8384382823
 20
122.9258020531
  0
LINE
  5
27B
330
1F
100
AcDbEntity
  8
0
  6
Continuous
 62
     7
370
     0
100
AcDbLine
 10
189.7355746955
 20
89.0293546308
 30
0.0
 11
200.4482424304
 21
95.2136460778
 31
0.0
  0
LINE
  5
27C
330
1F
100
AcDbEntity
  8
0
  6
Continuous
 62
     7
370
     0
100
AcDbLine
 10
200.4482424304
 20
95.2136460778
 30
0.0
 11
202.0180194847
 21
96.1201536761
 31
0.0
  0
ARC
  5
27D
330
1F
100
AcDbEntity
  8
0
  6
Continuous
 62
     7
370
     0
100
AcDbCircle
 10
176.9157287525
 20
129.5648801112
 30
0.0
 40
3.132823612836892
100
AcDbArc
 50
40.0568784121
 51
139.9431215879
  0
LWPOLYLINE
  5
27E
330
1F
100
AcDbEntity
  8
0
  6
Continuous
 62
     7
370
     0
100
AcDbPolyline
 90
       17
 70
   128
 43
0.0
 10
177.76425689
 20
131.336012937
 10
177.8509659905
 20
131.4109271821
 10
177.8814141775
 20
131.4992945593
 10
177.8509659905
 20
131.5876619366
 10
177.76425689
 20
131.6625761817
 10
177.6344875504
 20
131.71263228
 10
177.4814141775
 20
131.7302096442
 10
177.3283408045
 20
131.71263228
 10
177.198571465
 20
131.6625761817
 10
177.1118623645
 20
131.5876619366
 10
177.0814141775
 20
131.4992945593
 10
177.1118623645
 20
131.4109271821
 10
177.198571465
 20
131.336012937
 10
177.3283408045
 20
131.2859568387
 10
177.4814141775
 20
131.2683794745
 10
177.6344875504
 20
131.2859568387
 10
177.76425689
 20
131.336012937
  0
LINE
  5
27F
330
1F
100
AcDbEntity
  8
0
  6
Continuous
 62
     7
370
     0
100
AcDbLine
 10
150.7174225096
 20
139.6838854054
 30
0.0
 11
161.4300902446
 21
145.8681768525
 31
0.0
  0
LINE
  5
280
330
1F
100
AcDbEntity
  8
0
  6
Continuous
 62
     7
370
     0
100
AcDbLine
 10
175.0772223879
 20
137.9898551609
 30
0.0
 11
161.4300902446
 21
145.8681768525
 31
0.0
  0
LINE
  5
281
330
1F
100
AcDbEntity
  8
0
  6
Continuous
 62
     7
370
     0
100
AcDbLine
 10
177.6041304105
 20
108.1774371728
 30
0.0
 11
177.0217947697
 21
107.841261963
 31
0.0
  0
LINE
  5
282
330
1F
100
AcDbEntity
  8
0
  6
Continuous
 62
     7
370
     0
100
AcDbLine
 10
163.8716501737
 20
122.0466594267
 30
0.0
 11
162.1870841344
 21
121.0741801521
 31
0.0
  0
LINE
  5
283
330
1F
100
AcDbEntity
  8
0
  6
Continuous
 62
     7
370
     0
100
AcDbLine
 10
163.8716870159
 20
122.0466381582
 30
0.0
 11
161.9604203304
 21
120.9432873861
 31
0.0
  0
LINE
  5
284
330
1F
100
AcDbEntity
  8
0
  6
Continuous
 62
     7
370
     0
100
AcDbLine
 10
169.1321931268
 20
119.009812621
 30
0.0
 11
163.7295579816
 21
115.8909377389
 31
0.0
  0
LINE
  5
285
330
1F
100
AcDbEntity
  8
0
  6
Continuous
 62
     7
370
     0
100
AcDbLine
 10
165.3695789014
 20
121.1819235786
 30
0.0
 11
161.9604203304
 21
119.2138582271
 31
0.0
  0
LWPOLYLINE
  5
286
330
1F
100
AcDbEntity
  8
0
  6
Continuous
 62
     7
370
     0
100
AcDbPolyline
 90
        6
 70
   128
 43
0.0
 10
161.4300902446
 20
145.8681768525
 10
161.2921405549
 20
145.9321239104
 10
161.1594921945
 20
145.9622343134
 10
161.0372427654
 20
145.9573509353
 10
160.9300902446
 20
145.9176614418
 10
160.9301308782
 20
145.917684903
  0
LINE
  5
287
330
1F
100
AcDbEntity
  8
0
  6
Continuous
 62
     7
370
     0
100
AcDbLine
 10
170.022368602
 20
118.4959252576
 30
0.0
 11
164.2938727084
 21
115.1889349694
 31
0.0
  0
LINE
  5
288
330
1F
100
AcDbEntity
  8
0
  6
Continuous
 62
     7
370
     0
100
AcDbLine
 10
175.0065404433
 20
114.4326295155
 30
0.0
 11
164.2938727084
 21
108.2483380684
 31
0.0
  0
LINE
  5
289
330
1F
100
AcDbEntity
  8
0
  6
Continuous
 62
     7
370
     0
100
AcDbLine
 10
175.0065404433
 20
115.6186240987
 30
0.0
 11
175.0065404433
 21
114.4326295155
 31
0.0
  0
LWPOLYLINE
  5
28A
330
1F
100
AcDbEntity
  8
0
  6
Continuous
 62
     7
370
     0
100
AcDbPolyline
 90
       14
 70
   128
 43
0.0
 10
153.7790814721
 20
128.1753883203
 10
153.5281719648
 20
128.2076143447
 10
153.2930196775
 20
128.1155114086
 10
153.1395349225
 20
127.8971301327
 10
153.0862302266
 20
127.5788105218
 10
153.1395349225
 20
127.1989466189
 10
153.2930196775
 20
126.8033556169
 10
153.5281719648
 20
126.4397516289
 10
153.8166289481
 20
126.1519906622
 10
154.123598458
 20
125.9747809361
 10
154.4120554413
 20
125.929496559
 10
154.6472077286
 20
126.0215994952
 10
154.8006924835
 20
126.2399807711
 10
154.8330755095
 20
126.3496192708
  0
ARC
  5
28B
330
1F
100
AcDbEntity
  8
0
  6
Continuous
 62
     7
370
     0
100
AcDbCircle
 10
173.1332720983
 20
114.1639527036
 30
0.0
 40
1.292696128488847
100
AcDbArc
 50
303.6632629403
 51
357.0069278095
  0
LINE
  5
28C
330
1F
100
AcDbEntity
  8
0
  6
Continuous
 62
     7
370
     0
100
AcDbLine
 10
172.6730880654
 20
111.247901394
 30
0.0
 11
161.9604203304
 21
105.063609947
 31
0.0
  0
LINE
  5
28D
330
1F
100
AcDbEntity
  8
0
  6
Continuous
 62
     7
370
     0
100
AcDbLine
 10
172.6730880654
 20
112.4087118784
 30
0.0
 11
172.6730880654
 21
111.247901394
 31
0.0
  0
LINE
  5
28E
330
1F
100
AcDbEntity
  8
0
  6
Continuous
 62
     7
370
     0
100
AcDbLine
 10
213.1903066274
 20
115.456888432
 30
0.0
 11
260.8493036794
 21
142.9698418005
 31
0.0
  0
LINE
  5
28F
330
1F
100
AcDbEntity
  8
0
  6
Continuous
 62
     7
370
     0
100
AcDbLine
 10
213.1903066274
 20
115.456888432
 30
0.0
 11
212.1296464556
 21
117.2940057337
 31
0.0
  0
LINE
  5
290
330
1F
100
AcDbEntity
  8
0
  6
Continuous
 62
     7
370
     0
100
AcDbLine
 10
212.1296464556
 20
117.2940057337
 30
0.0
 11
259.7886435076
 21
144.8069591021
 31
0.0
  0
LINE
  5
291
330
1F
100
AcDbEntity
  8
0
  6
Continuous
 62
     7
370
     0
100
AcDbLine
 10
260.8493036794
 20
142.9698418005
 30
0.0
 11
259.7886435076
 21
144.8069591021
 31
0.0
  0
LINE
  5
292
330
1F
100
AcDbEntity
  8
0
  6
Continuous
 62
     7
370
     0
100
AcDbLine
 10
200.4623845661
 20
95.1646549561
 30
0.0
 11
201.5230447378
 21
95.7771600901
 31
0.0
  0
LINE
  5
293
330
1F
100
AcDbEntity
  8
0
  6
Continuous
 62
     7
370
     0
100
AcDbLine
 10
200.4128813447
 20
95.1932325575
 30
0.0
 11
200.4623845661
 21
95.1646549561
 31
0.0
  0
LINE
  5
294
330
1F
100
AcDbEntity
  8
0
  6
Continuous
 62
     7
370
     0
100
AcDbLine
 10
175.0065404433
 20
115.6186240987
 30
0.0
 11
175.0065404433
 21
114.4326295155
 31
0.0
  0
ARC
  5
295
330
1F
100
AcDbEntity
  8
0
  6
Continuous
 62
     7
370
     0
100
AcDbCircle
 10
173.1332720983
 20
114.1639527036
 30
0.0
 40
1.292696128488847
100
AcDbArc
 50
303.6632629403
 51
357.0069278095
  0
LINE
  5
296
330
1F
100
AcDbEntity
  8
0
  6
Continuous
 62
     7
370
     0
100
AcDbLine
 10
172.6730880654
 20
112.4087118784
 30
0.0
 11
172.6730880654
 21
111.2070743534
 31
0.0
  0
LINE
  5
297
330
1F
100
AcDbEntity
  8
0
  6
Continuous
 62
     7
370
     0
100
AcDbLine
 10
172.6377269797
 20
111.2274878737
 30
0.0
 11
172.6730880654
 21
111.2070743534
 31
0.0
  0
LINE
  5
298
330
1F
100
AcDbEntity
  8
0
  6
Continuous
 62
     7
370
     0
100
AcDbLine
 10
149.9042497112
 20
144.2340137232
 30
0.0
 11
153.9589302759
 21
141.8932964568
 31
0.0
  0
LINE
  5
299
330
1F
100
AcDbEntity
  8
0
  6
Continuous
 62
     7
370
     0
100
AcDbLine
 10
149.9042497112
 20
147.5001769707
 30
0.0
 11
149.9042497112
 21
144.2340137232
 31
0.0
  0
LINE
  5
29A
330
1F
100
AcDbEntity
  8
0
  6
Continuous
 62
     7
370
     0
100
AcDbLine
 10
149.5506963206
 20
148.1125494046
 30
0.0
 11
149.9042497112
 21
147.5001769707
 31
0.0
  0
LINE
  5
29B
330
1F
100
AcDbEntity
  8
0
  6
Continuous
 62
     7
370
     0
100
AcDbLine
 10
149.5506963206
 20
152.1952534641
 30
0.0
 11
149.5506963206
 21
148.1125494046
 31
0.0
  0
LINE
  5
29C
330
1F
100
AcDbEntity
  8
0
  6
Continuous
 62
     7
370
     0
100
AcDbLine
 10
150.6113564924
 20
152.807758598
 30
0.0
 11
149.5506963206
 21
152.1952534641
 31
0.0
  0
LINE
  5
29D
330
1F
100
AcDbEntity
  8
0
  6
Continuous
 62
     7
370
     0
100
AcDbLine
 10
161.9250649914
 20
146.2764937034
 30
0.0
 11
150.6113564924
 21
152.807758598
 31
0.0
  0
LINE
  5
29E
330
1F
100
AcDbEntity
  8
0
  6
Continuous
 62
     7
370
     0
100
AcDbLine
 10
162.278618382
 20
145.6641212695
 30
0.0
 11
161.9250649914
 21
146.2764937034
 31
0.0
  0
LINE
  5
29F
330
1F
100
AcDbEntity
  8
0
  6
Continuous
 62
     7
370
     0
100
AcDbLine
 10
175.0065404433
 20
138.3164482631
 30
0.0
 11
162.278618382
 21
145.6641212695
 31
0.0
  0
LINE
  5
2A0
330
1F
100
AcDbEntity
  8
0
  6
Continuous
 62
     7
370
     0
100
AcDbLine
 10
175.3600938339
 20
138.5206166411
 30
0.0
 11
175.0065404433
 21
138.3164482631
 31
0.0
  0
LINE
  5
2A1
330
1F
100
AcDbEntity
  8
0
  6
Continuous
 62
     7
370
     0
100
AcDbLine
 10
187.3809091141
 20
131.5811476906
 30
0.0
 11
175.3600938339
 21
138.5206166411
 31
0.0
  0
LINE
  5
2A2
330
1F
100
AcDbEntity
  8
0
  6
Continuous
 62
     7
370
     0
100
AcDbLine
 10
187.7344625047
 20
130.9687752567
 30
0.0
 11
187.3809091141
 21
131.5811476906
 31
0.0
  0
LINE
  5
2A3
330
1F
100
AcDbEntity
  8
0
  6
Continuous
 62
     7
370
     0
100
AcDbLine
 10
200.4623845661
 20
123.6211022503
 30
0.0
 11
187.7344625047
 21
130.9687752567
 31
0.0
  0
LINE
  5
2A4
330
1F
100
AcDbEntity
  8
0
  6
Continuous
 62
     7
370
     0
100
AcDbLine
 10
200.8159379566
 20
123.8252706283
 30
0.0
 11
200.4623845661
 21
123.6211022503
 31
0.0
  0
LINE
  5
2A5
330
1F
100
AcDbEntity
  8
0
  6
Continuous
 62
     7
370
     0
100
AcDbLine
 10
212.1296464556
 20
117.2940057337
 30
0.0
 11
200.8159379566
 21
123.8252706283
 31
0.0
  0
LINE
  5
2A6
330
1F
100
AcDbEntity
  8
0
  6
Continuous
 62
     7
370
     0
100
AcDbLine
 10
213.1903066274
 20
107.6997507191
 30
0.0
 11
213.1903066274
 21
115.456888432
 31
0.0
  0
LINE
  5
2A7
330
1F
100
AcDbEntity
  8
0
  6
Continuous
 62
     7
370
     0
100
AcDbLine
 10
202.0180194847
 20
114.1493748025
 30
0.0
 11
213.1903066274
 21
107.6997507191
 31
0.0
  0
LINE
  5
2A8
330
1F
100
AcDbEntity
  8
0
  6
Continuous
 62
     7
370
     0
100
AcDbLine
 10
201.5230447378
 20
95.8343179469
 30
0.0
 11
201.5230447378
 21
95.7771600901
 31
0.0
  0
LINE
  5
2A9
330
1F
100
AcDbEntity
  8
0
  6
Continuous
 62
     7
370
     0
100
AcDbLine
 10
223.9383297014
 20
108.7194182135
 30
0.0
 11
223.9383297014
 21
113.904452369
 31
0.0
  0
LINE
  5
2AA
330
1F
100
AcDbEntity
  8
0
  6
Continuous
 62
     7
370
     0
100
AcDbLine
 10
213.1903066274
 20
107.6997507191
 30
0.0
 11
223.9383297014
 21
113.904452369
 31
0.0
  0
LINE
  5
2AB
330
1F
100
AcDbEntity
  8
0
  6
Continuous
 62
     7
370
     0
100
AcDbLine
 10
260.8493036794
 20
135.2127040875
 30
0.0
 11
260.8493036794
 21
142.9698418005
 31
0.0
  0
LINE
  5
2AC
330
1F
100
AcDbEntity
  8
0
  6
Continuous
 62
     7
370
     0
100
AcDbLine
 10
250.1012806053
 20
129.0080024377
 30
0.0
 11
260.8493036794
 21
135.2127040875
 31
0.0
  0
LINE
  5
2AD
330
1F
100
AcDbEntity
  8
0
  6
Continuous
 62
     7
370
     0
100
AcDbLine
 10
250.1012806053
 20
123.8229682822
 30
0.0
 11
250.1012806053
 21
129.0080024377
 31
0.0
  0
LINE
  5
2AE
330
1F
100
AcDbEntity
  8
0
  6
Continuous
 62
     7
370
     0
100
AcDbLine
 10
223.9383297014
 20
108.7194182135
 30
0.0
 11
250.1012806053
 21
123.8229682822
 31
0.0
  0
LINE
  5
2AF
330
1F
100
AcDbEntity
  8
0
  6
Continuous
 62
     7
370
     0
100
AcDbLine
 10
200.8159379566
 20
123.8252706283
 30
0.0
 11
248.4749350086
 21
151.3382239967
 31
0.0
  0
LINE
  5
2B0
330
1F
100
AcDbEntity
  8
0
  6
Continuous
 62
     7
370
     0
100
AcDbLine
 10
259.7886435076
 20
144.8069591021
 30
0.0
 11
248.4749350086
 21
151.3382239967
 31
0.0
  0
LWPOLYLINE
  5
2B1
330
1F
100
AcDbEntity
  8
0
  6
Continuous
 62
     7
370
     0
100
AcDbPolyline
 90
       38
 70
   128
 43
0.0
 10
215.7005357006
 20
121.5189177124
 10
215.0716230406
 20
121.212809106
 10
214.3621435056
 20
120.9724616312
 10
213.5925075301
 20
120.8047896471
 10
212.7848561398
 20
120.7146167715
 10
211.9624239948
 20
120.7045371138
 10
211.1488709705
 20
120.7748406475
 10
210.3676015061
 20
120.9235048678
 10
209.6410913017
 20
121.1462529758
 10
208.9902407331
 20
121.4366769141
 10
208.4337735862
 20
121.7864217146
 10
207.9876984076
 20
122.1854258563
 10
207.6648479681
 20
122.6222107164
 10
207.4745100869
 20
123.0842107898
 10
207.4221604384
 20
123.5581351755
 10
207.5093050267
 20
124.0303499319
 10
207.7334368606
 20
124.4872703001
 10
208.0881080753
 20
124.9157515131
 10
208.5631154257
 20
125.3034669464
 10
209.1447938152
 20
125.6392627331
 10
209.8164094157
 20
125.9134786397
 10
210.558641069
 20
126.1182259737
 10
211.3501361218
 20
126.2476145273
 10
212.1681247027
 20
126.2979220273
 10
212.9890747694
 20
126.2677012185
 10
213.7893690832
 20
126.1578214986
 10
214.5459846338
 20
125.971443907
 10
215.2371549693
 20
125.7139301877
 10
215.8429963777
 20
125.3926885416
 10
216.3460799046
 20
125.016960506
 10
216.731932753
 20
124.5975550923
 10
216.9894546389
 20
124.1465378307
 10
217.1112371265
 20
123.6768836666
 10
217.0937767554
 20
123.2021036952
 10
216.9375758287
 20
122.735856472
 10
216.6471279626
 20
122.2915550806
 10
216.2307888135
 20
121.881981263
 10
215.7005357006
 20
121.5189177124
  0
LWPOLYLINE
  5
2B2
330
1F
100
AcDbEntity
  8
0
  6
Continuous
 62
     7
370
     0
100
AcDbPolyline
 90
       38
 70
   128
 43
0.0
 10
252.4700883223
 20
142.7455286198
 10
251.8411756623
 20
142.4394200134
 10
251.1316961273
 20
142.1990725386
 10
250.3620601518
 20
142.0314005545
 10
249.5544087615
 20
141.9412276789
 10
248.7319766165
 20
141.9311480212
 10
247.9184235922
 20
142.0014515549
 10
247.1371541278
 20
142.1501157752
 10
246.4106439234
 20
142.3728638832
 10
245.7597933548
 20
142.6632878215
 10
245.2033262079
 20
143.013032622
 10
244.7572510293
 20
143.4120367637
 10
244.4344005898
 20
143.8488216238
 10
244.2440627086
 20
144.3108216972
 10
244.1917130601
 20
144.7847460829
 10
244.2788576484
 20
145.2569608393
 10
244.5029894823
 20
145.7138812075
 10
244.857660697
 20
146.1423624205
 10
245.3326680474
 20
146.5300778538
 10
245.9143464369
 20
146.8658736405
 10
246.5859620374
 20
147.140089547
 10
247.3281936907
 20
147.3448368811
 10
248.1196887435
 20
147.4742254347
 10
248.9376773244
 20
147.5245329347
 10
249.7586273911
 20
147.4943121259
 10
250.5589217049
 20
147.384432406
 10
251.3155372555
 20
147.1980548144
 10
252.006707591
 20
146.9405410951
 10
252.6125489994
 20
146.619299449
 10
253.1156325263
 20
146.2435714134
 10
253.5014853747
 20
145.8241659997
 10
253.7590072606
 20
145.373148738
 10
253.8807897482
 20
144.903494574
 10
253.8633293771
 20
144.4287146026
 10
253.7071284504
 20
143.9624673794
 10
253.4166805843
 20
143.5181659879
 10
253.0003414352
 20
143.1085921704
 10
252.4700883223
 20
142.7455286198
  0
LWPOLYLINE
  5
2B3
330
1F
100
AcDbEntity
  8
0
  6
Continuous
 62
     7
370
     0
100
AcDbPolyline
 90
       18
 70
   128
 43
0.0
 10
215.2762716319
 20
124.7436501341
 10
214.6728975732
 20
125.0328917409
 10
213.9877320826
 20
125.2532047488
 10
213.2441076492
 20
125.3970866623
 10
212.4673475111
 20
125.4596377555
 10
211.6839033033
 20
125.438727926
 10
210.9204542786
 20
125.3350692329
 10
210.202998778
 20
125.1521916487
 10
209.5559688878
 20
124.8963228502
 10
209.0013984352
 20
124.5761761424
 10
208.5581726516
 20
124.2026537375
 10
208.2413850596
 20
123.788475493
 10
208.0618234806
 20
123.3477457522
 10
208.025602669
 20
122.8954730379
 10
208.1339560808
 20
122.447058955
 10
208.3831938708
 20
122.0177737072
 10
208.7648285448
 20
121.6222360887
 10
209.0672332855
 20
121.3967185292
  0
LWPOLYLINE
  5
2B4
330
1F
100
AcDbEntity
  8
0
  6
Continuous
 62
     7
370
     0
100
AcDbPolyline
 90
       10
 70
   128
 43
0.0
 10
215.4749023382
 20
121.3967185292
 10
215.5407371885
 20
121.4413896505
 10
215.9839629721
 20
121.8149120554
 10
216.3007505641
 20
122.2290902999
 10
216.4803121431
 20
122.6698200407
 10
216.5165329548
 20
123.122092755
 10
216.4081795429
 20
123.5705068379
 10
216.1589417529
 20
123.9997920857
 10
215.7773070789
 20
124.3953297042
 10
215.2762716319
 20
124.7436501341
  0
LINE
  5
2B5
330
1F
100
AcDbEntity
  8
0
  6
Continuous
 62
     7
370
     0
100
AcDbLine
 10
200.4623845661
 20
95.1646549561
 30
0.0
 11
248.121381618
 21
122.6776083245
 31
0.0
  0
LINE
  5
2B6
330
1F
100
AcDbEntity
  8
0
  6
Continuous
 62
     7
370
     0
100
AcDbLine
 10
206.967766953
 20
98.9203313206
 30
0.0
 11
201.5230447378
 21
95.7771600901
 31
0.0
  0
ELLIPSE
  5
2B7
330
1F
100
AcDbEntity
  8
0
  6
Continuous
 62
     7
370
     0
100
AcDbEllipse
 10
212.2710678119
 20
101.9828569904
 30
0.0
 11
7.499999991875683
 21
4.330361612903687
 31
0.0
210
0.0
220
0.0
230
1.0
 40
0.0000703729
 41
3.926950184939325
 42
5.497746511992428
  0
LINE
  5
2B8
330
1F
100
AcDbEntity
  8
0
  6
Continuous
 62
     7
370
     0
100
AcDbLine
 10
223.9383297014
 20
108.7194182135
 30
0.0
 11
217.5743686708
 21
105.0443874097
 31
0.0
  0
LINE
  5
2B9
330
1F
100
AcDbEntity
  8
0
  6
Continuous
 62
     7
370
     0
100
AcDbLine
 10
243.7373195747
 20
120.1479374784
 30
0.0
 11
250.1012806053
 21
123.8229682822
 31
0.0
  0
ELLIPSE
  5
2BA
330
1F
100
AcDbEntity
  8
0
  6
Continuous
 62
     7
370
     0
100
AcDbEllipse
 10
249.0406204336
 20
123.2094678978
 30
0.0
 11
7.499999971794722
 21
4.33036160130932
 31
0.0
210
0.0
220
0.0
230
1.0
 40
0.0000703729
 41
2.356153859654857
 42
3.926950183618565
  0
LINE
  5
2BB
330
1F
100
AcDbEntity
  8
0
  6
Continuous
 62
     7
370
     0
100
AcDbLine
 10
249.1820417898
 20
123.2901134585
 30
0.0
 11
243.7373195747
 21
120.146942228
 31
0.0
  0
LINE
  5
2BC
330
1F
100
AcDbEntity
  8
0
  6
Continuous
 62
     7
370
     0
100
AcDbLine
 10
248.121381618
 20
122.6776083245
 30
0.0
 11
249.1820417898
 21
123.2901134585
 31
0.0
  0
LINE
  5
2BD
330
1F
100
AcDbEntity
  8
0
  6
Continuous
 62
     7
370
     0
100
AcDbLine
 10
187.7344625047
 20
130.9687752567
 30
0.0
 11
235.3934595567
 21
158.4817286251
 31
0.0
  0
LINE
  5
2BE
330
1F
100
AcDbEntity
  8
0
  6
Continuous
 62
     7
370
     0
100
AcDbLine
 10
248.121324151
 20
151.1340887938
 30
0.0
 11
235.3934595567
 21
158.4817286251
 31
0.0
  0
LINE
  5
2BF
330
1F
100
AcDbEntity
  8
0
  6
Continuous
 62
     7
370
     0
100
AcDbLine
 10
187.3809091141
 20
131.5811476906
 30
0.0
 11
235.0399061661
 21
159.094101059
 31
0.0
  0
LINE
  5
2C0
330
1F
100
AcDbEntity
  8
0
  6
Continuous
 62
     7
370
     0
100
AcDbLine
 10
235.3934595567
 20
158.4817286251
 30
0.0
 11
235.0399061661
 21
159.094101059
 31
0.0
  0
LINE
  5
2C1
330
1F
100
AcDbEntity
  8
0
  6
Continuous
 62
     7
370
     0
100
AcDbLine
 10
175.3600938339
 20
138.5206166411
 30
0.0
 11
223.0190908859
 21
166.0335700095
 31
0.0
  0
LINE
  5
2C2
330
1F
100
AcDbEntity
  8
0
  6
Continuous
 62
     7
370
     0
100
AcDbLine
 10
235.0399061661
 20
159.094101059
 30
0.0
 11
223.0190908859
 21
166.0335700095
 31
0.0
  0
LWPOLYLINE
  5
2C3
330
1F
100
AcDbEntity
  8
0
  6
Continuous
 62
     7
370
     0
100
AcDbPolyline
 90
       38
 70
   128
 43
0.0
 10
193.0731187027
 20
141.8066592912
 10
193.6033718155
 20
141.4435957406
 10
194.0197109647
 20
141.034021923
 10
194.3101588307
 20
140.5897205316
 10
194.4663597574
 20
140.1234733084
 10
194.4838201285
 20
139.648693337
 10
194.3620376409
 20
139.179039173
 10
194.104515755
 20
138.7280219113
 10
193.7186629066
 20
138.3086164976
 10
193.2155793797
 20
137.932888462
 10
192.6097379713
 20
137.6116468159
 10
191.9185676358
 20
137.3541330966
 10
191.1619520852
 20
137.167755505
 10
190.3616577714
 20
137.0578757851
 10
189.5407077047
 20
137.0276549763
 10
188.7227191239
 20
137.0779624763
 10
187.931224071
 20
137.2073510299
 10
187.1889924177
 20
137.4120983639
 10
186.5173768173
 20
137.6863142705
 10
185.9356984277
 20
138.0221100572
 10
185.4606910773
 20
138.4098254905
 10
185.1060198626
 20
138.8383067035
 10
184.8818880287
 20
139.2952270717
 10
184.7947434404
 20
139.7674418281
 10
184.8470930889
 20
140.2413662138
 10
185.0374309701
 20
140.7033662872
 10
185.3602814096
 20
141.1401511473
 10
185.8063565882
 20
141.539155289
 10
186.3628237351
 20
141.8889000895
 10
187.0136743037
 20
142.1793240278
 10
187.7401845081
 20
142.4020721358
 10
188.5214539725
 20
142.5507363561
 10
189.3350069968
 20
142.6210398898
 10
190.1574391418
 20
142.6109602321
 10
190.9650905321
 20
142.5207873565
 10
191.7347265076
 20
142.3531153724
 10
192.4442060426
 20
142.1127678976
 10
193.0731187027
 20
141.8066592912
  0
LWPOLYLINE
  5
2C4
330
1F
100
AcDbEntity
  8
0
  6
Continuous
 62
     7
370
     0
100
AcDbPolyline
 90
       38
 70
   128
 43
0.0
 10
224.1858170749
 20
159.7676377513
 10
224.7160701878
 20
159.4045742007
 10
225.1324093369
 20
158.9950003831
 10
225.4228572029
 20
158.5506989917
 10
225.5790581296
 20
158.0844517685
 10
225.5965185007
 20
157.6096717971
 10
225.4747360131
 20
157.1400176331
 10
225.2172141272
 20
156.6890003714
 10
224.8313612788
 20
156.2695949577
 10
224.3282777519
 20
155.8938669221
 10
223.7224363435
 20
155.572625276
 10
223.031266008
 20
155.3151115567
 10
222.2746504574
 20
155.1287339651
 10
221.4743561436
 20
155.0188542452
 10
220.6534060769
 20
154.9886334364
 10
219.8354174961
 20
155.0389409364
 10
219.0439224432
 20
155.16832949
 10
218.3016907899
 20
155.373076824
 10
217.6300751895
 20
155.6472927306
 10
217.0483967999
 20
155.9830885173
 10
216.5733894495
 20
156.3708039506
 10
216.2187182348
 20
156.7992851636
 10
215.9945864009
 20
157.2562055318
 10
215.9074418127
 20
157.7284202882
 10
215.9597914611
 20
158.2023446739
 10
216.1501293423
 20
158.6643447473
 10
216.4729797818
 20
159.1011296074
 10
216.9190549604
 20
159.5001337491
 10
217.4755221073
 20
159.8498785496
 10
218.1263726759
 20
160.1403024879
 10
218.8528828803
 20
160.3630505959
 10
219.6341523447
 20
160.5117148162
 10
220.447705369
 20
160.5820183499
 10
221.270137514
 20
160.5719386922
 10
222.0777889043
 20
160.4817658166
 10
222.8474248798
 20
160.3140938325
 10
223.5569044148
 20
160.0737463577
 10
224.1858170749
 20
159.7676377513
  0
LWPOLYLINE
  5
2C5
330
1F
100
AcDbEntity
  8
0
  6
Continuous
 62
     7
370
     0
100
AcDbPolyline
 90
       18
 70
   128
 43
0.0
 10
192.6488546339
 20
141.0718123705
 10
192.0454805752
 20
141.3610539774
 10
191.3603150846
 20
141.5813669852
 10
190.6166906512
 20
141.7252488987
 10
189.8399305131
 20
141.787799992
 10
189.0564863054
 20
141.7668901625
 10
188.2930372807
 20
141.6632314694
 10
187.57558178
 20
141.4803538852
 10
186.9285518899
 20
141.2244850866
 10
186.3739814372
 20
140.9043383788
 10
185.9307556536
 20
140.5308159739
 10
185.6139680616
 20
140.1166377294
 10
185.4344064827
 20
139.6759079887
 10
185.398185671
 20
139.2236352744
 10
185.5065390829
 20
138.7752211915
 10
185.7557768728
 20
138.3459359436
 10
186.1374115469
 20
137.9503983252
 10
186.4398162876
 20
137.7248807656
  0
LWPOLYLINE
  5
2C6
330
1F
100
AcDbEntity
  8
0
  6
Continuous
 62
     7
370
     0
100
AcDbPolyline
 90
       10
 70
   128
 43
0.0
 10
192.8474853402
 20
137.7248807656
 10
192.9133201906
 20
137.769551887
 10
193.3565459741
 20
138.1430742919
 10
193.6733335662
 20
138.5572525364
 10
193.8528951451
 20
138.9979822771
 10
193.8891159568
 20
139.4502549914
 10
193.7807625449
 20
139.8986690743
 10
193.531524755
 20
140.3279543222
 10
193.1498900809
 20
140.7234919406
 10
192.6488546339
 20
141.0718123705
  0
LINE
  5
2C7
330
1F
100
AcDbEntity
  8
0
  6
Continuous
 62
     7
370
     0
100
AcDbLine
 10
162.278618382
 20
145.6641212695
 30
0.0
 11
209.9376154339
 21
173.177074638
 31
0.0
  0
LINE
  5
2C8
330
1F
100
AcDbEntity
  8
0
  6
Continuous
 62
     7
370
     0
100
AcDbLine
 10
222.6654800283
 20
165.8294348066
 30
0.0
 11
209.9376154339
 21
173.177074638
 31
0.0
  0
LWPOLYLINE
  5
2C9
330
1F
100
AcDbEntity
  8
0
  6
Continuous
 62
     7
370
     0
100
AcDbPolyline
 90
       18
 70
   128
 43
0.0
 10
252.0458242536
 20
145.9702610415
 10
251.4424501949
 20
146.2595026483
 10
250.7572847043
 20
146.4798156562
 10
250.0136602709
 20
146.6236975697
 10
249.2369001328
 20
146.6862486629
 10
248.453455925
 20
146.6653388334
 10
247.6900069003
 20
146.5616801403
 10
246.9725513997
 20
146.3788025561
 10
246.3255215095
 20
146.1229337576
 10
245.7709510569
 20
145.8027870498
 10
245.3277252733
 20
145.4292646449
 10
245.0109376813
 20
145.0150864003
 10
244.8313761023
 20
144.5743566596
 10
244.7951552907
 20
144.1220839453
 10
244.9035087025
 20
143.6736698624
 10
245.1527464925
 20
143.2443846146
 10
245.5343811665
 20
142.8488469961
 10
245.836785908
 20
142.6233294361
  0
LWPOLYLINE
  5
2CA
330
1F
100
AcDbEntity
  8
0
  6
Continuous
 62
     7
370
     0
100
AcDbPolyline
 90
       10
 70
   128
 43
0.0
 10
252.2444549589
 20
142.6233294359
 10
252.3102898102
 20
142.6680005579
 10
252.7535155938
 20
143.0415229628
 10
253.0703031858
 20
143.4557012073
 10
253.2498647648
 20
143.8964309481
 10
253.2860855765
 20
144.3487036623
 10
253.1777321646
 20
144.7971177453
 10
252.9284943746
 20
145.2264029931
 10
252.5468597006
 20
145.6219406116
 10
252.0458242536
 20
145.9702610415
  0
LINE
  5
2CB
330
1F
100
AcDbEntity
  8
0
  6
Continuous
 62
     7
370
     0
100
AcDbLine
 10
161.9250649914
 20
146.2764937034
 30
0.0
 11
209.5840620434
 21
173.7894470719
 31
0.0
  0
LINE
  5
2CC
330
1F
100
AcDbEntity
  8
0
  6
Continuous
 62
     7
370
     0
100
AcDbLine
 10
209.9376154339
 20
173.177074638
 30
0.0
 11
209.5840620434
 21
173.7894470719
 31
0.0
  0
LINE
  5
2CD
330
1F
100
AcDbEntity
  8
0
  6
Continuous
 62
     7
370
     0
100
AcDbLine
 10
150.6113564924
 20
152.807758598
 30
0.0
 11
198.2703535444
 21
180.3207119664
 31
0.0
  0
LWPOLYLINE
  5
2CE
330
1F
100
AcDbEntity
  8
0
  6
Continuous
 62
     7
370
     0
100
AcDbPolyline
 90
       38
 70
   128
 43
0.0
 10
164.7888474552
 20
150.909609738
 10
164.1599347952
 20
150.6035011317
 10
163.4504552601
 20
150.3631536568
 10
162.6808192846
 20
150.1954816727
 10
161.8731678944
 20
150.1053087971
 10
161.0507357494
 20
150.0952291395
 10
160.237182725
 20
150.1655326731
 10
159.4559132607
 20
150.3141968934
 10
158.7294030563
 20
150.5369450015
 10
158.0785524877
 20
150.8273689397
 10
157.5220853408
 20
151.1771137402
 10
157.0760101622
 20
151.5761178819
 10
156.7531597226
 20
152.012902742
 10
156.5628218415
 20
152.4749028154
 10
156.510472193
 20
152.9488272012
 10
156.5976167813
 20
153.4210419575
 10
156.8217486151
 20
153.8779623257
 10
157.1764198298
 20
154.3064435387
 10
157.6514271803
 20
154.6941589721
 10
158.2331055698
 20
155.0299547587
 10
158.9047211702
 20
155.3041706653
 10
159.6469528235
 20
155.5089179994
 10
160.4384478764
 20
155.6383065529
 10
161.2564364573
 20
155.6886140529
 10
162.077386524
 20
155.6583932441
 10
162.8776808377
 20
155.5485135242
 10
163.6342963883
 20
155.3621359326
 10
164.3254667239
 20
155.1046222133
 10
164.9313081322
 20
154.7833805672
 10
165.4343916592
 20
154.4076525316
 10
165.8202445075
 20
153.9882471179
 10
166.0777663934
 20
153.5372298563
 10
166.1995488811
 20
153.0675756922
 10
166.18208851
 20
152.5927957209
 10
166.0258875833
 20
152.1265484976
 10
165.7354397172
 20
151.6822471062
 10
165.3191005681
 20
151.2726732886
 10
164.7888474552
 20
150.909609738
  0
LWPOLYLINE
  5
2CF
330
1F
100
AcDbEntity
  8
0
  6
Continuous
 62
     7
370
     0
100
AcDbPolyline
 90
       38
 70
   128
 43
0.0
 10
201.5584000769
 20
172.1362206454
 10
200.9294874169
 20
171.830112039
 10
200.2200078818
 20
171.5897645642
 10
199.4503719063
 20
171.4220925801
 10
198.6427205161
 20
171.3319197045
 10
197.8202883711
 20
171.3218400468
 10
197.0067353467
 20
171.3921435805
 10
196.2254658824
 20
171.5408078008
 10
195.498955678
 20
171.7635559089
 10
194.8481051094
 20
172.0539798471
 10
194.2916379625
 20
172.4037246476
 10
193.8455627839
 20
172.8027287893
 10
193.5227123443
 20
173.2395136494
 10
193.3323744632
 20
173.7015137228
 10
193.2800248147
 20
174.1754381086
 10
193.367169403
 20
174.6476528649
 10
193.5913012368
 20
175.1045732331
 10
193.9459724515
 20
175.5330544461
 10
194.420979802
 20
175.9207698795
 10
195.0026581915
 20
176.2565656661
 10
195.6742737919
 20
176.5307815727
 10
196.4165054452
 20
176.7355289067
 10
197.2080004981
 20
176.8649174603
 10
198.025989079
 20
176.9152249603
 10
198.8469391457
 20
176.8850041515
 10
199.6472334594
 20
176.7751244316
 10
200.40384901
 20
176.58874684
 10
201.0950193456
 20
176.3312331207
 10
201.7008607539
 20
176.0099914746
 10
202.2039442809
 20
175.634263439
 10
202.5897971292
 20
175.2148580253
 10
202.8473190151
 20
174.7638407637
 10
202.9691015028
 20
174.2941865996
 10
202.9516411317
 20
173.8194066283
 10
202.795440205
 20
173.353159405
 10
202.5049923389
 20
172.9088580136
 10
202.0886531898
 20
172.499284196
 10
201.5584000769
 20
172.1362206454
  0
LINE
  5
2D0
330
1F
100
AcDbEntity
  8
0
  6
Continuous
 62
     7
370
     0
100
AcDbLine
 10
209.5840620434
 20
173.7894470719
 30
0.0
 11
198.2703535444
 21
180.3207119664
 31
0.0
  0
LINE
  5
2D1
330
1F
100
AcDbEntity
  8
0
  6
Continuous
 62
     7
370
     0
100
AcDbLine
 10
176.0337531818
 20
115.0256268071
 30
0.0
 11
175.0065404433
 21
114.4326295155
 31
0.0
  0
LWPOLYLINE
  5
2D2
330
1F
100
AcDbEntity
  8
0
  6
Continuous
 62
     7
370
     0
100
AcDbPolyline
 90
       18
 70
   128
 43
0.0
 10
164.3645833865
 20
154.1343421597
 10
163.7612093277
 20
154.4235837666
 10
163.0760438371
 20
154.6438967744
 10
162.3324194037
 20
154.7877786879
 10
161.5556592657
 20
154.8503297812
 10
160.7722150579
 20
154.8294199516
 10
160.0087660332
 20
154.7257612585
 10
159.2913105325
 20
154.5428836743
 10
158.6442806424
 20
154.2870148758
 10
158.0897101898
 20
153.966868168
 10
157.6464844062
 20
153.5933457631
 10
157.3296968142
 20
153.1791675186
 10
157.1501352352
 20
152.7384377778
 10
157.1139144235
 20
152.2861650636
 10
157.2222678354
 20
151.8377509806
 10
157.4715056254
 20
151.4084657328
 10
157.8531402994
 20
151.0129281143
 10
158.15554504
 20
150.7874105549
  0
LWPOLYLINE
  5
2D3
330
1F
100
AcDbEntity
  8
0
  6
Continuous
 62
     7
370
     0
100
AcDbPolyline
 90
       10
 70
   128
 43
0.0
 10
164.5632140929
 20
150.7874105549
 10
164.6290489431
 20
150.8320816761
 10
165.0722747267
 20
151.205604081
 10
165.3890623187
 20
151.6197823256
 10
165.5686238977
 20
152.0605120663
 10
165.6048447093
 20
152.5127847806
 10
165.4964912975
 20
152.9611988635
 10
165.2472535075
 20
153.3904841113
 10
164.8656188335
 20
153.7860217298
 10
164.3645833865
 20
154.1343421597
  0
LINE
  5
2D4
330
1F
100
AcDbEntity
  8
0
  6
Continuous
 62
     7
370
     0
100
AcDbLine
 10
249.1820417898
 20
123.2921304994
 30
0.0
 11
249.1820417898
 21
123.2901134585
 31
0.0
  0
LINE
  5
2D5
330
1F
100
AcDbEntity
  8
0
  6
Continuous
 62
     7
370
     0
100
AcDbLine
 10
177.6607424093
 20
114.0863859183
 30
0.0
 11
172.6730880654
 21
111.2070743534
 31
0.0
  0
LWPOLYLINE
  5
2D6
330
1F
100
AcDbEntity
  8
0
  6
Continuous
 62
     7
370
     0
100
AcDbPolyline
 90
       18
 70
   128
 43
0.0
 10
223.7615530061
 20
159.0327908306
 10
223.1581789474
 20
159.3220324375
 10
222.4730134568
 20
159.5423454453
 10
221.7293890234
 20
159.6862273588
 10
220.9526288853
 20
159.7487784521
 10
220.1691846776
 20
159.7278686226
 10
219.4057356529
 20
159.6242099295
 10
218.6882801522
 20
159.4413323453
 10
218.0412502621
 20
159.1854635467
 10
217.4866798094
 20
158.8653168389
 10
217.0434540259
 20
158.491794434
 10
216.7266664338
 20
158.0776161895
 10
216.5471048549
 20
157.6368864488
 10
216.5108840432
 20
157.1846137345
 10
216.6192374551
 20
156.7361996516
 10
216.868475245
 20
156.3069144037
 10
217.2501099191
 20
155.9113767853
 10
217.5525146598
 20
155.6858592258
  0
LWPOLYLINE
  5
2D7
330
1F
100
AcDbEntity
  8
0
  6
Continuous
 62
     7
370
     0
100
AcDbPolyline
 90
       10
 70
   128
 43
0.0
 10
223.9601837124
 20
155.6858592258
 10
224.0260185628
 20
155.7305303471
 10
224.4692443464
 20
156.104052752
 10
224.7860319384
 20
156.5182309965
 10
224.9655935173
 20
156.9589607372
 10
225.001814329
 20
157.4112334515
 10
224.8934609171
 20
157.8596475344
 10
224.6442231272
 20
158.2889327823
 10
224.2625884531
 20
158.6844704007
 10
223.7615530061
 20
159.0327908306
  0
LWPOLYLINE
  5
2D8
330
1F
100
AcDbEntity
  8
0
  6
Continuous
 62
     7
370
     0
100
AcDbPolyline
 90
       18
 70
   128
 43
0.0
 10
201.1341360082
 20
175.3609530671
 10
200.5307619494
 20
175.6501946739
 10
199.8455964588
 20
175.8705076818
 10
199.1019720254
 20
176.0143895953
 10
198.3252118874
 20
176.0769406885
 10
197.5417676796
 20
176.056030859
 10
196.7783186549
 20
175.9523721659
 10
196.0608631542
 20
175.7694945817
 10
195.4138332641
 20
175.5136257832
 10
194.8592628115
 20
175.1934790754
 10
194.4160370279
 20
174.8199566705
 10
194.0992494359
 20
174.405778426
 10
193.9196878569
 20
173.9650486852
 10
193.8834670452
 20
173.5127759709
 10
193.9918204571
 20
173.064361888
 10
194.2410582471
 20
172.6350766402
 10
194.6226929211
 20
172.2395390217
 10
194.9250976618
 20
172.0140214622
  0
LWPOLYLINE
  5
2D9
330
1F
100
AcDbEntity
  8
0
  6
Continuous
 62
     7
370
     0
100
AcDbPolyline
 90
       10
 70
   128
 43
0.0
 10
201.3327667145
 20
172.0140214622
 10
201.3986015648
 20
172.0586925835
 10
201.8418273484
 20
172.4322149884
 10
202.1586149404
 20
172.8463932329
 10
202.3381765194
 20
173.2871229737
 10
202.374397331
 20
173.739395688
 10
202.2660439192
 20
174.1878097709
 10
202.0168061292
 20
174.6170950187
 10
201.6351714552
 20
175.0126326372
 10
201.1341360082
 20
175.3609530671
  0
LINE
  5
2DA
330
1F
100
AcDbEntity
  8
0
  6
Continuous
 62
     7
370
     0
100
AcDbLine
 10
259.6825774904
 20
156.5427129145
 30
0.0
 11
249.5710482134
 21
150.7054513125
 31
0.0
  0
LINE
  5
2DB
330
1F
100
AcDbEntity
  8
0
  6
Continuous
 62
     7
370
     0
100
AcDbLine
 10
260.3896842716
 20
155.3179680468
 30
0.0
 11
250.9853767099
 21
149.8889768507
 31
0.0
  0
LINE
  5
2DC
330
1F
100
AcDbEntity
  8
0
  6
Continuous
 62
     7
370
     0
100
AcDbLine
 10
219.8017550315
 20
179.5654216679
 30
0.0
 11
209.6371395853
 21
173.6975140728
 31
0.0
  0
LINE
  5
2DD
330
1F
100
AcDbEntity
  8
0
  6
Continuous
 62
     7
370
     0
100
AcDbLine
 10
217.5743686708
 20
105.0443874097
 30
0.0
 11
217.5743686708
 21
110.2306158658
 31
0.0
  0
LINE
  5
2DE
330
1F
100
AcDbEntity
  8
0
  6
Continuous
 62
     7
370
     0
100
AcDbLine
 10
206.967766953
 20
98.9203313206
 30
0.0
 11
206.967766953
 21
111.2919464111
 31
0.0
  0
LINE
  5
2DF
330
1F
100
AcDbEntity
  8
0
  6
Continuous
 62
     7
370
     0
100
AcDbLine
 10
243.7373195747
 20
120.146942228
 30
0.0
 11
243.7373195747
 21
120.1479374784
 31
0.0
  0
LWPOLYLINE
  5
2E0
330
1F
100
AcDbEntity
  8
0
  6
Continuous
 62
     7
370
     0
100
AcDbPolyline
 90
       17
 70
   128
 43
0.0
 10
193.1791847198
 20
135.4172174857
 10
191.5570679757
 20
136.042918714
 10
189.6436508139
 20
136.2626357666
 10
187.7302336521
 20
136.042918714
 10
186.108116908
 20
135.4172174857
 10
185.0242531513
 20
134.4807894217
 10
184.6436508139
 20
133.3761972061
 10
185.0242531513
 20
132.2716049905
 10
186.108116908
 20
131.3351769266
 10
187.7302336521
 20
130.7094756983
 10
189.6436508139
 20
130.4897586457
 10
191.5570679757
 20
130.7094756983
 10
193.1791847198
 20
131.3351769266
 10
194.2630484765
 20
132.2716049905
 10
194.6436508139
 20
133.3761972061
 10
194.2630484765
 20
134.4807894217
 10
193.1791847198
 20
135.4172174857
  0
LWPOLYLINE
  5
2E1
330
1F
100
AcDbEntity
  8
0
  6
Continuous
 62
     7
370
     0
100
AcDbPolyline
 90
       17
 70
   128
 43
0.0
 10
224.291883092
 20
153.3781959458
 10
222.6697663479
 20
154.0038971741
 10
220.7563491861
 20
154.2236142267
 10
218.8429320243
 20
154.0038971741
 10
217.2208152802
 20
153.3781959458
 10
216.1369515235
 20
152.4417678818
 10
215.7563491861
 20
151.3371756662
 10
216.1369515235
 20
150.2325834506
 10
217.2208152802
 20
149.2961553867
 10
218.8429320243
 20
148.6704541584
 10
220.7563491861
 20
148.4507371058
 10
222.6697663479
 20
148.6704541584
 10
224.291883092
 20
149.2961553867
 10
225.3757468487
 20
150.2325834506
 10
225.7563491861
 20
151.3371756662
 10
225.3757468487
 20
152.4417678818
 10
224.291883092
 20
153.3781959458
  0
LWPOLYLINE
  5
2E2
330
1F
100
AcDbEntity
  8
0
  6
Continuous
 62
     7
370
     0
100
AcDbPolyline
 90
       17
 70
   128
 43
0.0
 10
157.8238456605
 20
150.3584546425
 10
156.7399819039
 20
151.2948827064
 10
156.3593795664
 20
152.3994749221
 10
156.7399819039
 20
153.5040671377
 10
157.8238456605
 20
154.4404952016
 10
159.4459624046
 20
155.0661964299
 10
161.3593795664
 20
155.2859134825
 10
163.2727967283
 20
155.0661964299
 10
164.8949134724
 20
154.4404952016
 10
165.978777229
 20
153.5040671377
 10
166.3593795664
 20
152.3994749221
 10
165.978777229
 20
151.2948827064
 10
164.8949134724
 20
150.3584546425
 10
163.2727967283
 20
149.7327534142
 10
161.3593795664
 20
149.5130363616
 10
159.4459624046
 20
149.7327534142
 10
157.8238456605
 20
150.3584546425
  0
LWPOLYLINE
  5
2E3
330
1F
100
AcDbEntity
  8
0
  6
Continuous
 62
     7
370
     0
100
AcDbPolyline
 90
       17
 70
   128
 43
0.0
 10
208.7355339059
 20
120.9677626169
 10
207.6516701493
 20
121.9041906808
 10
207.2710678119
 20
123.0087828964
 10
207.6516701493
 20
124.1133751121
 10
208.7355339059
 20
125.049803176
 10
210.35765065
 20
125.6755044043
 10
212.2710678119
 20
125.8952214569
 10
214.1844849737
 20
125.6755044043
 10
215.8066017178
 20
125.049803176
 10
216.8904654744
 20
124.1133751121
 10
217.2710678119
 20
123.0087828964
 10
216.8904654744
 20
121.9041906808
 10
215.8066017178
 20
120.9677626169
 10
214.1844849737
 20
120.3420613886
 10
212.2710678119
 20
120.122344336
 10
210.35765065
 20
120.3420613886
 10
208.7355339059
 20
120.9677626169
  0
LWPOLYLINE
  5
2E4
330
1F
100
AcDbEntity
  8
0
  6
Continuous
 62
     7
370
     0
100
AcDbPolyline
 90
       17
 70
   128
 43
0.0
 10
245.5050865276
 20
142.1943735243
 10
244.421222771
 20
143.1308015882
 10
244.0406204336
 20
144.2353938038
 10
244.421222771
 20
145.3399860195
 10
245.5050865276
 20
146.2764140834
 10
247.1272032717
 20
146.9021153117
 10
249.0406204336
 20
147.1218323643
 10
250.9540375954
 20
146.9021153117
 10
252.5761543395
 20
146.2764140834
 10
253.6600180961
 20
145.3399860195
 10
254.0406204336
 20
144.2353938038
 10
253.6600180961
 20
143.1308015882
 10
252.5761543395
 20
142.1943735243
 10
250.9540375954
 20
141.568672296
 10
249.0406204336
 20
141.3489552434
 10
247.1272032717
 20
141.568672296
 10
245.5050865276
 20
142.1943735243
  0
LWPOLYLINE
  5
2E5
330
1F
100
AcDbEntity
  8
0
  6
Continuous
 62
     7
370
     0
100
AcDbPolyline
 90
       17
 70
   128
 43
0.0
 10
194.5933982822
 20
171.5850655499
 10
193.5095345256
 20
172.5214936138
 10
193.1289321881
 20
173.6260858295
 10
193.5095345256
 20
174.7306780451
 10
194.5933982822
 20
175.667106109
 10
196.2155150263
 20
176.2928073373
 10
198.1289321881
 20
176.5125243899
 10
200.04234935
 20
176.2928073373
 10
201.6644660941
 20
175.667106109
 10
202.7483298507
 20
174.7306780451
 10
203.1289321881
 20
173.6260858295
 10
202.7483298507
 20
172.5214936138
 10
201.6644660941
 20
171.5850655499
 10
200.04234935
 20
170.9593643216
 10
198.1289321881
 20
170.739647269
 10
196.2155150263
 20
170.9593643216
 10
194.5933982822
 20
171.5850655499
  0
LWPOLYLINE
  5
2E6
330
1F
100
AcDbEntity
  8
0
  6
Continuous
 62
     7
370
     0
100
AcDbPolyline
 90
       17
 70
   128
 43
0.0
 10
171.0820978077
 20
121.7218188048
 10
170.2703036575
 20
122.3769239974
 10
169.5820978077
 20
123.305228173
 10
169.1222533604
 20
124.3654054358
 10
168.9607774642
 20
125.3960534082
 10
169.1222533604
 20
126.2402652792
 10
169.5820978077
 20
126.7695174442
 10
170.2703036575
 20
126.9032360588
 10
171.0820978077
 20
126.6210636761
 10
171.893891958
 20
125.9659584835
 10
172.5820978077
 20
125.0376543079
 10
173.0419422551
 20
123.9774770451
 10
173.2034181513
 20
122.9468290727
 10
173.0419422551
 20
122.1026172017
 10
172.5820978077
 20
121.5733650367
 10
171.893891958
 20
121.4396464221
 10
171.0820978077
 20
121.7218188048
  0
LWPOLYLINE
  5
2E7
330
1F
100
AcDbEntity
  8
0
  6
Continuous
 62
     7
370
     0
100
AcDbPolyline
 90
       17
 70
   128
 43
0.0
 10
239.3179021923
 20
161.1135102002
 10
240.1296963425
 20
160.8313378175
 10
240.8179021923
 20
160.9650564322
 10
241.2777466396
 20
161.4943085972
 10
241.4392225358
 20
162.3385204682
 10
241.2777466396
 20
163.3691684405
 10
240.8179021923
 20
164.4293457034
 10
240.1296963425
 20
165.3576498789
 10
239.3179021923
 20
166.0127550716
 10
238.506108042
 20
166.2949274542
 10
237.8179021923
 20
166.1612088396
 10
237.3580577449
 20
165.6319566746
 10
237.1965818487
 20
164.7877448036
 10
237.3580577449
 20
163.7570968313
 10
237.8179021923
 20
162.6969195684
 10
238.506108042
 20
161.7686153929
 10
239.3179021923
 20
161.1135102002
  0
LWPOLYLINE
  5
2E8
330
1F
100
AcDbEntity
  8
0
  6
Continuous
 62
     7
370
     0
100
AcDbPolyline
 90
       17
 70
   128
 43
0.0
 10
188.1940819125
 20
106.0866679279
 10
187.7881848374
 20
106.4142205243
 10
187.4440819125
 20
106.878372612
 10
187.2141596888
 20
107.4084612435
 10
187.1334217407
 20
107.9237852296
 10
187.2141596888
 20
108.3458911651
 10
187.4440819125
 20
108.6105172476
 10
187.7881848374
 20
108.6773765549
 10
188.1940819125
 20
108.5362903636
 10
188.5999789876
 20
108.2087377673
 10
188.9440819125
 20
107.7445856795
 10
189.1740041361
 20
107.2144970481
 10
189.2547420842
 20
106.6991730619
 10
189.1740041361
 20
106.2770671264
 10
188.9440819125
 20
106.0124410439
 10
188.5999789876
 20
105.9455817366
 10
188.1940819125
 20
106.0866679279
  0
LWPOLYLINE
  5
2E9
330
1F
100
AcDbEntity
  8
0
  6
Continuous
 62
     7
370
     0
100
AcDbPolyline
 90
       17
 70
   128
 43
0.0
 10
256.429886297
 20
145.4783593234
 10
256.8357833721
 20
145.337273132
 10
257.179886297
 20
145.4041324394
 10
257.4098085206
 20
145.6687585219
 10
257.4905464687
 20
146.0908644573
 10
257.4098085206
 20
146.6061884435
 10
257.179886297
 20
147.136277075
 10
256.8357833721
 20
147.6004291627
 10
256.429886297
 20
147.927981759
 10
256.0239892219
 20
148.0690679504
 10
255.679886297
 20
148.0022086431
 10
255.4499640733
 20
147.7375825606
 10
255.3692261252
 20
147.3154766251
 10
255.4499640733
 20
146.8001526389
 10
255.679886297
 20
146.2700640075
 10
256.0239892219
 20
145.8059119197
 10
256.429886297
 20
145.4783593234
  0
LWPOLYLINE
  5
2EA
330
1F
100
AcDbEntity
  8
0
  6
Continuous
 62
     7
370
     0
100
AcDbPolyline
 90
       17
 70
   128
 43
0.0
 10
153.970113703
 20
125.8437442341
 10
153.5642166279
 20
126.1712968304
 10
153.220113703
 20
126.6354489181
 10
152.9901914794
 20
127.1655375496
 10
152.9094535313
 20
127.6808615357
 10
152.9901914794
 20
128.1029674712
 10
153.220113703
 20
128.3675935537
 10
153.5642166279
 20
128.4344528611
 10
153.970113703
 20
128.2933666697
 10
154.3760107781
 20
127.9658140734
 10
154.720113703
 20
127.5016619856
 10
154.9500359267
 20
126.9715733542
 10
155.0307738748
 20
126.456249368
 10
154.9500359267
 20
126.0341434325
 10
154.720113703
 20
125.76951735
 10
154.3760107781
 20
125.7026580427
 10
153.970113703
 20
125.8437442341
  0
LWPOLYLINE
  5
2EB
330
1F
100
AcDbEntity
  8
0
  6
Continuous
 62
     7
370
     0
100
AcDbPolyline
 90
       17
 70
   128
 43
0.0
 10
222.2059180875
 20
165.2354356295
 10
222.6118151626
 20
165.0943494382
 10
222.9559180875
 20
165.1612087455
 10
223.1858403112
 20
165.425834828
 10
223.2665782593
 20
165.8479407635
 10
223.1858403112
 20
166.3632647496
 10
222.9559180875
 20
166.8933533811
 10
222.6118151626
 20
167.3575054688
 10
222.2059180875
 20
167.6850580652
 10
221.8000210124
 20
167.8261442565
 10
221.4559180875
 20
167.7592849492
 10
221.2259958639
 20
167.4946588667
 10
221.1452579158
 20
167.0725529312
 10
221.2259958639
 20
166.557228945
 10
221.4559180875
 20
166.0271403136
 10
221.8000210124
 20
165.5629882258
 10
222.2059180875
 20
165.2354356295
  0
LWPOLYLINE
  5
2EC
330
1F
100
AcDbEntity
  8
0
  6
HIDDEN
 62
     7
370
     0
100
AcDbPolyline
 90
       17
 70
   128
 43
0.0
 10
153.369072939
 20
137.295201638
 10
153.5305488353
 20
136.450989767
 10
153.9903932826
 20
135.921737602
 10
154.6785991324
 20
135.7880189874
 10
155.4903932826
 20
136.0701913701
 10
156.3021874328
 20
136.7252965627
 10
156.9903932826
 20
137.6536007383
 10
157.4502377299
 20
138.7137780011
 10
157.6117136261
 20
139.7444259735
 10
157.4502377299
 20
140.5886378444
 10
156.9903932826
 20
141.1178900095
 10
156.3021874328
 20
141.2516086241
 10
155.4903932826
 20
140.9694362414
 10
154.6785991324
 20
140.3143310488
 10
153.9903932826
 20
139.3860268732
 10
153.5305488353
 20
138.3258496104
 10
153.369072939
 20
137.295201638
  0
LWPOLYLINE
  5
2ED
330
1F
100
AcDbEntity
  8
0
  6
HIDDEN
 62
     7
370
     0
100
AcDbPolyline
 90
       17
 70
   128
 43
0.0
 10
216.5844191771
 20
173.7886442365
 10
216.4229432809
 20
174.6328561074
 10
215.9630988335
 20
175.1621082725
 10
215.2748929838
 20
175.2958268871
 10
214.4630988335
 20
175.0136545044
 10
213.6513046833
 20
174.3585493118
 10
212.9630988335
 20
173.4302451362
 10
212.5032543862
 20
172.3700678734
 10
212.34177849
 20
171.339419901
 10
212.5032543862
 20
170.49520803
 10
212.9630988335
 20
169.965955865
 10
213.6513046833
 20
169.8322372504
 10
214.4630988335
 20
170.1144096331
 10
215.2748929838
 20
170.7695148257
 10
215.9630988335
 20
171.6978190013
 10
216.4229432809
 20
172.7579962641
 10
216.5844191771
 20
173.7886442365
  0
LWPOLYLINE
  5
2EE
330
1F
100
AcDbEntity
  8
0
  6
Continuous
 62
     7
370
     0
100
AcDbPolyline
 90
       17
 70
   128
 43
0.0
 10
198.05822151
 20
116.3951539753
 10
197.8967456138
 20
115.364506003
 10
197.4369011665
 20
114.3043287401
 10
196.7486953167
 20
113.3760245646
 10
195.9369011665
 20
112.7209193719
 10
195.1251070162
 20
112.4387469893
 10
194.4369011665
 20
112.5724656039
 10
193.9770567191
 20
113.1017177689
 10
193.8155808229
 20
113.9459296399
 10
193.9770567191
 20
114.9765776122
 10
194.4369011665
 20
116.0367548751
 10
195.1251070162
 20
116.9650590506
 10
195.9369011665
 20
117.6201642433
 10
196.7486953167
 20
117.902336626
 10
197.4369011665
 20
117.7686180113
 10
197.8967456138
 20
117.2393658463
 10
198.05822151
 20
116.3951539753
  0
LWPOLYLINE
  5
2EF
330
1F
100
AcDbEntity
  8
0
  6
Continuous
 62
     7
370
     0
100
AcDbPolyline
 90
       17
 70
   128
 43
0.0
 10
252.7882863739
 20
147.9901479029
 10
252.9497622701
 20
149.0207958753
 10
253.4096067174
 20
150.0809731381
 10
254.0978125672
 20
151.0092773136
 10
254.9096067174
 20
151.6643825063
 10
255.7214008676
 20
151.946554889
 10
256.4096067174
 20
151.8128362743
 10
256.8694511647
 20
151.2835841093
 10
257.030927061
 20
150.4393722383
 10
256.8694511647
 20
149.408724266
 10
256.4096067174
 20
148.3485470031
 10
255.7214008676
 20
147.4202428276
 10
254.9096067174
 20
146.765137635
 10
254.0978125672
 20
146.4829652523
 10
253.4096067174
 20
146.6166838669
 10
252.9497622701
 20
147.1459360319
 10
252.7882863739
 20
147.9901479029
  0
LWPOLYLINE
  5
2F0
330
1F
100
AcDbEntity
  8
0
  6
HIDDEN
 62
     7
370
     0
100
AcDbPolyline
 90
       17
 70
   128
 43
0.0
 10
256.429886297
 20
147.9283900295
 10
256.0238539228
 20
148.0695232495
 10
255.679636297
 20
148.0026416558
 10
255.4496374326
 20
147.7379273646
 10
255.3688725718
 20
147.3156807271
 10
255.4496374326
 20
146.8001849663
 10
255.679636297
 20
146.2699196386
 10
256.0238539228
 20
145.8056128335
 10
256.429886297
 20
145.477951053
 10
256.8359186711
 20
145.3368178329
 10
257.180136297
 20
145.4036994267
 10
257.4101351614
 20
145.6684137179
 10
257.4909000221
 20
146.0906603553
 10
257.4101351614
 20
146.6061561162
 10
257.180136297
 20
147.1364214438
 10
256.8359186711
 20
147.6007282489
 10
256.429886297
 20
147.9283900295
  0
LWPOLYLINE
  5
2F1
330
1F
100
AcDbEntity
  8
0
  6
HIDDEN
 62
     7
370
     0
100
AcDbPolyline
 90
       17
 70
   128
 43
0.0
 10
222.2059180875
 20
167.6854663356
 10
221.7998857134
 20
167.8265995556
 10
221.4556680875
 20
167.7597179619
 10
221.2256692231
 20
167.4950036707
 10
221.1449043624
 20
167.0727570332
 10
221.2256692231
 20
166.5572612724
 10
221.4556680875
 20
166.0269959447
 10
221.7998857134
 20
165.5626891396
 10
222.2059180875
 20
165.2350273591
 10
222.6119504617
 20
165.093894139
 10
222.9561680875
 20
165.1607757328
 10
223.1861669519
 20
165.425490024
 10
223.2669318127
 20
165.8477366614
 10
223.1861669519
 20
166.3632324223
 10
222.9561680875
 20
166.8934977499
 10
222.6119504617
 20
167.357804555
 10
222.2059180875
 20
167.6854663356
  0
LWPOLYLINE
  5
2F2
330
1F
100
AcDbEntity
  8
0
  6
HIDDEN
 62
     7
370
     0
100
AcDbPolyline
 90
       17
 70
   128
 43
0.0
 10
239.3179021923
 20
166.0127550716
 10
238.506108042
 20
166.2949274542
 10
237.8179021923
 20
166.1612088396
 10
237.3580577449
 20
165.6319566746
 10
237.1965818487
 20
164.7877448036
 10
237.3580577449
 20
163.7570968313
 10
237.8179021923
 20
162.6969195684
 10
238.506108042
 20
161.7686153929
 10
239.3179021923
 20
161.1135102002
 10
240.1296963425
 20
160.8313378175
 10
240.8179021923
 20
160.9650564322
 10
241.2777466396
 20
161.4943085972
 10
241.4392225358
 20
162.3385204682
 10
241.2777466396
 20
163.3691684405
 10
240.8179021923
 20
164.4293457034
 10
240.1296963425
 20
165.3576498789
 10
239.3179021923
 20
166.0127550716
  0
LWPOLYLINE
  5
2F3
330
1F
100
AcDbEntity
  8
0
  6
HIDDEN
 62
     7
370
     0
100
AcDbPolyline
 90
       17
 70
   128
 43
0.0
 10
212.34177849
 20
171.339419901
 10
212.5032543862
 20
170.49520803
 10
212.9630988335
 20
169.965955865
 10
213.6513046833
 20
169.8322372504
 10
214.4630988335
 20
170.1144096331
 10
215.2748929838
 20
170.7695148257
 10
215.9630988335
 20
171.6978190013
 10
216.4229432809
 20
172.7579962641
 10
216.5844191771
 20
173.7886442365
 10
216.4229432809
 20
174.6328561074
 10
215.9630988335
 20
175.1621082725
 10
215.2748929838
 20
175.2958268871
 10
214.4630988335
 20
175.0136545044
 10
213.6513046833
 20
174.3585493118
 10
212.9630988335
 20
173.4302451362
 10
212.5032543862
 20
172.3700678734
 10
212.34177849
 20
171.339419901
  0
LWPOLYLINE
  5
2F4
330
1F
100
AcDbEntity
  8
0
  6
Continuous
 62
     7
370
     0
100
AcDbPolyline
 90
       17
 70
   128
 43
0.0
 10
257.030927061
 20
150.4393722383
 10
256.8694511647
 20
149.408724266
 10
256.4096067174
 20
148.3485470031
 10
255.7214008676
 20
147.4202428276
 10
254.9096067174
 20
146.765137635
 10
254.0978125672
 20
146.4829652523
 10
253.4096067174
 20
146.6166838669
 10
252.9497622701
 20
147.1459360319
 10
252.7882863739
 20
147.9901479029
 10
252.9497622701
 20
149.0207958753
 10
253.4096067174
 20
150.0809731381
 10
254.0978125672
 20
151.0092773136
 10
254.9096067174
 20
151.6643825063
 10
255.7214008676
 20
151.946554889
 10
256.4096067174
 20
151.8128362743
 10
256.8694511647
 20
151.2835841093
 10
257.030927061
 20
150.4393722383
  0
ENDSEC
  0
SECTION
  2
OBJECTS
  0
DICTIONARY
  5
C
330
0
100
AcDbDictionary
281
     1
  3
ACAD_GROUP
350
D
  3
ACAD_LAYOUT
350
1A
  3
ACAD_MLEADERSTYLE
350
2F8
  3
ACAD_MLINESTYLE
350
17
  3
ACAD_PLOTSETTINGS
350
19
  3
ACAD_PLOTSTYLENAME
350
E
  3
ACAD_SCALELIST
350
3B
  3
ACAD_TABLESTYLE
350
2F7
  3
ACAD_VISUALSTYLE
350
2A
  3
AcDbVariableDictionary
350
2F5
  0
DICTIONARY
  5
D
102
{ACAD_REACTORS
330
C
102
}
330
C
100
AcDbDictionary
281
     1
  0
DICTIONARY
  5
1A
102
{ACAD_REACTORS
330
C
102
}
330
C
100
AcDbDictionary
281
     1
  3
Layout1
350
1E
  3
Layout2
350
26
  3
Model
350
22
  0
DICTIONARY
  5
2F8
102
{ACAD_REACTORS
330
C
102
}
330
C
100
AcDbDictionary
281
     1
  0
DICTIONARY
  5
17
102
{ACAD_REACTORS
330
C
102
}
330
C
100
AcDbDictionary
281
     1
  3
Standard
350
18
  0
DICTIONARY
  5
19
102
{ACAD_REACTORS
330
C
102
}
330
C
100
AcDbDictionary
281
     1
  0
ACDBDICTIONARYWDFLT
  5
E
102
{ACAD_REACTORS
330
C
102
}
330
C
100
AcDbDictionary
281
     1
  3
Normal
350
F
100
AcDbDictionaryWithDefault
340
F
  0
DICTIONARY
  5
3B
102
{ACAD_REACTORS
330
C
102
}
330
C
100
AcDbDictionary
281
     1
  3
A0
350
3C
  3
A1
350
3D
  3
A2
350
3E
  3
A3
350
3F
  3
A4
350
40
  3
A5
350
41
  3
A6
350
42
  3
A7
350
43
  3
A8
350
44
  3
A9
350
45
  3
B0
350
46
  3
B1
350
47
  3
B2
350
48
  3
B3
350
49
  3
B4
350
4A
  3
B5
350
4B
  3
B6
350
4C
  3
B7
350
4D
  3
B8
350
4E
  3
B9
350
4F
  3
C0
350
50
  3
C1
350
51
  3
C2
350
52
  3
C3
350
53
  3
C4
350
54
  3
C5
350
55
  3
C6
350
56
  3
C7
350
57
  3
C8
350
58
  3
C9
350
59
  3
D0
350
5A
  3
D1
350
5B
  3
D2
350
5C
  0
DICTIONARY
  5
2F7
102
{ACAD_REACTORS
330
C
102
}
330
C
100
AcDbDictionary
281
     1
  0
DICTIONARY
  5
2A
102
{ACAD_REACTORS
330
C
102
}
330
C
100
AcDbDictionary
281
     1
  3
2dWireframe
350
2F
  3
3D Hidden
350
31
  3
3dWireframe
350
30
  3
Basic
350
32
  3
Brighten
350
36
  3
ColorChange
350
3A
  3
Conceptual
350
34
  3
Dim
350
35
  3
Facepattern
350
39
  3
Flat
350
2B
  3
FlatWithEdges
350
2C
  3
Gouraud
350
2D
  3
GouraudWithEdges
350
2E
  3
Linepattern
350
38
  3
Realistic
350
33
  3
Thicken
350
37
  0
DICTIONARY
  5
2F5
102
{ACAD_REACTORS
330
C
102
}
330
C
100
AcDbDictionary
281
     1
  3
CANNOSCALE
350
2F6
  3
PSOLHEIGHT
350
2FA
  3
PSOLWIDTH
350
2F9
  0
LAYOUT
  5
1E
102
{ACAD_REACTORS
330
1A
102
}
330
1A
100
AcDbPlotSettings
  1

  2
none_device
  4

  6

 40
0.0
 41
0.0
 42
0.0
 43
0.0
 44
0.0
 45
0.0
 46
0.0
 47
0.0
 48
0.0
 49
0.0
140
0.0
141
0.0
142
1.0
143
1.0
 70
   688
 72
     0
 73
     0
 74
     5
  7

 75
    16
147
1.0
148
0.0
149
0.0
100
AcDbLayout
  1
Layout1
 70
     1
 71
     1
 10
0.0
 20
0.0
 11
420.0
 21
297.0
 12
0.0
 22
0.0
 32
0.0
 14
1.0000000000E+20
 24
1.0000000000E+20
 34
1.0000000000E+20
 15
-1.0000000000E+20
 25
-1.0000000000E+20
 35
-1.0000000000E+20
146
0.0
 13
0.0
 23
0.0
 33
0.0
 16
1.0
 26
0.0
 36
0.0
 17
0.0
 27
1.0
 37
0.0
 76
     0
330
1B
  0
LAYOUT
  5
26
102
{ACAD_REACTORS
330
1A
102
}
330
1A
100
AcDbPlotSettings
  1

  2
none_device
  4

  6

 40
0.0
 41
0.0
 42
0.0
 43
0.0
 44
0.0
 45
0.0
 46
0.0
 47
0.0
 48
0.0
 49
0.0
140
0.0
141
0.0
142
1.0
143
1.0
 70
   688
 72
     0
 73
     0
 74
     5
  7

 75
    16
147
1.0
148
0.0
149
0.0
100
AcDbLayout
  1
Layout2
 70
     1
 71
     2
 10
0.0
 20
0.0
 11
0.0
 21
0.0
 12
0.0
 22
0.0
 32
0.0
 14
0.0
 24
0.0
 34
0.0
 15
0.0
 25
0.0
 35
0.0
146
0.0
 13
0.0
 23
0.0
 33
0.0
 16
1.0
 26
0.0
 36
0.0
 17
0.0
 27
1.0
 37
0.0
 76
     0
330
23
  0
LAYOUT
  5
22
102
{ACAD_REACTORS
330
1A
102
}
330
1A
100
AcDbPlotSettings
  1

  2
none_device
  4

  6

 40
0.0
 41
0.0
 42
0.0
 43
0.0
 44
0.0
 45
0.0
 46
0.0
 47
0.0
 48
0.0
 49
0.0
140
0.0
141
0.0
142
1.0
143
1.0
 70
  1712
 72
     0
 73
     0
 74
     0
  7

 75
     0
147
1.0
148
0.0
149
0.0
100
AcDbLayout
  1
Model
 70
     1
 71
     0
 10
0.0
 20
0.0
 11
297.0
 21
210.0
 12
0.0
 22
0.0
 32
0.0
 14
0.0
 24
0.0
 34
0.0
 15
297.0
 25
210.0
 35
0.0
146
0.0
 13
0.0
 23
0.0
 33
0.0
 16
1.0
 26
0.0
 36
0.0
 17
0.0
 27
1.0
 37
0.0
 76
     0
330
1F
331
29
  0
MLINESTYLE
  5
18
102
{ACAD_REACTORS
330
17
102
}
330
17
100
AcDbMlineStyle
  2
Standard
 70
     0
  3

 62
   256
 51
90.0
 52
90.0
 71
     2
 49
0.5
 62
   256
  6
BYLAYER
 49
-0.5
 62
   256
  6
BYLAYER
  0
ACDBPLACEHOLDER
  5
F
102
{ACAD_REACTORS
330
E
102
}
330
E
  0
SCALE
  5
3C
102
{ACAD_REACTORS
330
3B
102
}
330
3B
100
AcDbScale
 70
     0
300
1:1
140
1.0
141
1.0
290
     1
  0
SCALE
  5
3D
102
{ACAD_REACTORS
330
3B
102
}
330
3B
100
AcDbScale
 70
     0
300
1:2
140
1.0
141
2.0
290
     0
  0
SCALE
  5
3E
102
{ACAD_REACTORS
330
3B
102
}
330
3B
100
AcDbScale
 70
     0
300
1:4
140
1.0
141
4.0
290
     0
  0
SCALE
  5
3F
102
{ACAD_REACTORS
330
3B
102
}
330
3B
100
AcDbScale
 70
     0
300
1:5
140
1.0
141
5.0
290
     0
  0
SCALE
  5
40
102
{ACAD_REACTORS
330
3B
102
}
330
3B
100
AcDbScale
 70
     0
300
1:8
140
1.0
141
8.0
290
     0
  0
SCALE
  5
41
102
{ACAD_REACTORS
330
3B
102
}
330
3B
100
AcDbScale
 70
     0
300
1:10
140
1.0
141
10.0
290
     0
  0
SCALE
  5
42
102
{ACAD_REACTORS
330
3B
102
}
330
3B
100
AcDbScale
 70
     0
300
1:16
140
1.0
141
16.0
290
     0
  0
SCALE
  5
43
102
{ACAD_REACTORS
330
3B
102
}
330
3B
100
AcDbScale
 70
     0
300
1:20
140
1.0
141
20.0
290
     0
  0
SCALE
  5
44
102
{ACAD_REACTORS
330
3B
102
}
330
3B
100
AcDbScale
 70
     0
300
1:30
140
1.0
141
30.0
290
     0
  0
SCALE
  5
45
102
{ACAD_REACTORS
330
3B
102
}
330
3B
100
AcDbScale
 70
     0
300
1:40
140
1.0
141
40.0
290
     0
  0
SCALE
  5
46
102
{ACAD_REACTORS
330
3B
102
}
330
3B
100
AcDbScale
 70
     0
300
1:50
140
1.0
141
50.0
290
     0
  0
SCALE
  5
47
102
{ACAD_REACTORS
330
3B
102
}
330
3B
100
AcDbScale
 70
     0
300
1:100
140
1.0
141
100.0
290
     0
  0
SCALE
  5
48
102
{ACAD_REACTORS
330
3B
102
}
330
3B
100
AcDbScale
 70
     0
300
2:1
140
2.0
141
1.0
290
     0
  0
SCALE
  5
49
102
{ACAD_REACTORS
330
3B
102
}
330
3B
100
AcDbScale
 70
     0
300
4:1
140
4.0
141
1.0
290
     0
  0
SCALE
  5
4A
102
{ACAD_REACTORS
330
3B
102
}
330
3B
100
AcDbScale
 70
     0
300
8:1
140
8.0
141
1.0
290
     0
  0
SCALE
  5
4B
102
{ACAD_REACTORS
330
3B
102
}
330
3B
100
AcDbScale
 70
     0
300
10:1
140
10.0
141
1.0
290
     0
  0
SCALE
  5
4C
102
{ACAD_REACTORS
330
3B
102
}
330
3B
100
AcDbScale
 70
     0
300
100:1
140
100.0
141
1.0
290
     0
  0
SCALE
  5
4D
102
{ACAD_REACTORS
330
3B
102
}
330
3B
100
AcDbScale
 70
     0
300
1/128" = 1'-0"
140
0.0078125
141
12.0
290
     0
  0
SCALE
  5
4E
102
{ACAD_REACTORS
330
3B
102
}
330
3B
100
AcDbScale
 70
     0
300
1/64" = 1'-0"
140
0.015625
141
12.0
290
     0
  0
SCALE
  5
4F
102
{ACAD_REACTORS
330
3B
102
}
330
3B
100
AcDbScale
 70
     0
300
1/32" = 1'-0"
140
0.03125
141
12.0
290
     0
  0
SCALE
  5
50
102
{ACAD_REACTORS
330
3B
102
}
330
3B
100
AcDbScale
 70
     0
300
1/16" = 1'-0"
140
0.0625
141
12.0
290
     0
  0
SCALE
  5
51
102
{ACAD_REACTORS
330
3B
102
}
330
3B
100
AcDbScale
 70
     0
300
3/32" = 1'-0"
140
0.09375
141
12.0
290
     0
  0
SCALE
  5
52
102
{ACAD_REACTORS
330
3B
102
}
330
3B
100
AcDbScale
 70
     0
300
1/8" = 1'-0"
140
0.125
141
12.0
290
     0
  0
SCALE
  5
53
102
{ACAD_REACTORS
330
3B
102
}
330
3B
100
AcDbScale
 70
     0
300
3/16" = 1'-0"
140
0.1875
141
12.0
290
     0
  0
SCALE
  5
54
102
{ACAD_REACTORS
330
3B
102
}
330
3B
100
AcDbScale
 70
     0
300
1/4" = 1'-0"
140
0.25
141
12.0
290
     0
  0
SCALE
  5
55
102
{ACAD_REACTORS
330
3B
102
}
330
3B
100
AcDbScale
 70
     0
300
3/8" = 1'-0"
140
0.375
141
12.0
290
     0
  0
SCALE
  5
56
102
{ACAD_REACTORS
330
3B
102
}
330
3B
100
AcDbScale
 70
     0
300
1/2" = 1'-0"
140
0.5
141
12.0
290
     0
  0
SCALE
  5
57
102
{ACAD_REACTORS
330
3B
102
}
330
3B
100
AcDbScale
 70
     0
300
3/4" = 1'-0"
140
0.75
141
12.0
290
     0
  0
SCALE
  5
58
102
{ACAD_REACTORS
330
3B
102
}
330
3B
100
AcDbScale
 70
     0
300
1" = 1'-0"
140
1.0
141
12.0
290
     0
  0
SCALE
  5
59
102
{ACAD_REACTORS
330
3B
102
}
330
3B
100
AcDbScale
 70
     0
300
1-1/2" = 1'-0"
140
1.5
141
12.0
290
     0
  0
SCALE
  5
5A
102
{ACAD_REACTORS
330
3B
102
}
330
3B
100
AcDbScale
 70
     0
300
3" = 1'-0"
140
3.0
141
12.0
290
     0
  0
SCALE
  5
5B
102
{ACAD_REACTORS
330
3B
102
}
330
3B
100
AcDbScale
 70
     0
300
6" = 1'-0"
140
6.0
141
12.0
290
     0
  0
SCALE
  5
5C
102
{ACAD_REACTORS
330
3B
102
}
330
3B
100
AcDbScale
 70
     0
300
1'-0" = 1'-0"
140
12.0
141
12.0
290
     0
  0
VISUALSTYLE
  5
2F
102
{ACAD_REACTORS
330
2A
102
}
330
2A
100
AcDbVisualStyle
  2
2dWireframe
 70
     4
 71
     0
 72
     2
 73
     0
 90
        0
 40
-0.6
 41
-30.0
 62
     5
 63
     7
 74
     1
 91
        4
 64
     7
 65
   257
 75
     1
175
     1
 42
1.0
 92
        0
 66
   257
 43
1.0
 76
     1
 77
     6
 78
     2
 67
     7
 79
     5
170
     0
171
     0
290
     0
174
     0
 93
        1
 44
0.0
173
     0
291
     0
 45
0.0
1001
ACAD
1000
AcDbSavedByObjectVersion
1070
     0
  0
VISUALSTYLE
  5
31
102
{ACAD_REACTORS
330
2A
102
}
330
2A
100
AcDbVisualStyle
  2
3D Hidden
 70
     6
 71
     1
 72
     2
 73
     2
 90
        0
 40
-0.6
 41
-30.0
 62
     5
 63
     7
 74
     2
 91
        2
 64
     7
 65
   257
 75
     2
175
     1
 42
40.0
 92
        0
 66
   257
 43
1.0
 76
     1
 77
     6
 78
     2
 67
     7
 79
     3
170
     0
171
     0
290
     0
174
     0
 93
        1
 44
0.0
173
     0
291
     0
 45
0.0
1001
ACAD
1000
AcDbSavedByObjectVersion
1070
     0
  0
VISUALSTYLE
  5
30
102
{ACAD_REACTORS
330
2A
102
}
330
2A
100
AcDbVisualStyle
  2
3dWireframe
 70
     5
 71
     0
 72
     2
 73
     0
 90
        0
 40
-0.6
 41
-30.0
 62
     5
 63
     7
 74
     1
 91
        4
 64
     7
 65
   257
 75
     1
175
     1
 42
1.0
 92
        0
 66
   257
 43
1.0
 76
     1
 77
     6
 78
     2
 67
     7
 79
     5
170
     0
171
     0
290
     0
174
     0
 93
        1
 44
0.0
173
     0
291
     0
 45
0.0
1001
ACAD
1000
AcDbSavedByObjectVersion
1070
     0
  0
VISUALSTYLE
  5
32
102
{ACAD_REACTORS
330
2A
102
}
330
2A
100
AcDbVisualStyle
  2
Basic
 70
     7
 71
     1
 72
     0
 73
     1
 90
        0
 40
-0.6
 41
-30.0
 62
     5
 63
     7
 74
     0
 91
        4
 64
     7
 65
   257
 75
     1
175
     1
 42
1.0
 92
        8
 66
     7
 43
1.0
 76
     1
 77
     6
 78
     2
 67
     7
 79
     5
170
     0
171
     0
290
     0
174
     0
 93
        1
 44
0.0
173
     0
291
     1
 45
0.0
1001
ACAD
1000
AcDbSavedByObjectVersion
1070
     0
  0
VISUALSTYLE
  5
36
102
{ACAD_REACTORS
330
2A
102
}
330
2A
100
AcDbVisualStyle
  2
Brighten
 70
    12
 71
     2
 72
     2
 73
     0
 90
        0
 40
-0.6
 41
-30.0
 62
     5
 63
     7
 74
     1
 91
        4
 64
     7
 65
   257
 75
     1
175
     1
 42
1.0
 92
        8
 66
     7
 43
1.0
 76
     1
 77
     6
 78
     2
 67
     7
 79
     5
170
     0
171
     0
290
     0
174
     0
 93
        1
 44
50.0
173
     0
291
     1
 45
0.0
1001
ACAD
1000
AcDbSavedByObjectVersion
1070
     0
  0
VISUALSTYLE
  5
3A
102
{ACAD_REACTORS
330
2A
102
}
330
2A
100
AcDbVisualStyle
  2
ColorChange
 70
    16
 71
     2
 72
     2
 73
     3
 90
        0
 40
-0.6
 41
-30.0
 62
     5
 63
     8
 74
     1
 91
        4
 64
     7
 65
   257
 75
     1
175
     1
 42
1.0
 92
        8
 66
     8
 43
1.0
 76
     1
 77
     6
 78
     2
 67
     7
 79
     5
170
     0
171
     0
290
     0
174
     0
 93
        1
 44
0.0
173
     0
291
     1
 45
0.0
1001
ACAD
1000
AcDbSavedByObjectVersion
1070
     0
  0
VISUALSTYLE
  5
34
102
{ACAD_REACTORS
330
2A
102
}
330
2A
100
AcDbVisualStyle
  2
Conceptual
 70
     9
 71
     3
 72
     2
 73
     0
 90
        0
 40
-0.6
 41
-30.0
 62
     5
 63
     7
 74
     2
 91
        2
 64
     7
 65
   257
 75
     1
175
     1
 42
40.0
 92
        8
 66
     7
 43
1.0
 76
     1
 77
     6
 78
     2
 67
     7
 79
     3
170
     0
171
     0
290
     0
174
     0
 93
        1
 44
0.0
173
     0
291
     0
 45
0.0
1001
ACAD
1000
AcDbSavedByObjectVersion
1070
     0
  0
VISUALSTYLE
  5
35
102
{ACAD_REACTORS
330
2A
102
}
330
2A
100
AcDbVisualStyle
  2
Dim
 70
    11
 71
     2
 72
     2
 73
     0
 90
        0
 40
-0.6
 41
-30.0
 62
     5
 63
     7
 74
     1
 91
        4
 64
     7
 65
   257
 75
     1
175
     1
 42
1.0
 92
        8
 66
     7
 43
1.0
 76
     1
 77
     6
 78
     2
 67
     7
 79
     5
170
     0
171
     0
290
     0
174
     0
 93
        1
 44
-50.0
173
     0
291
     1
 45
0.0
1001
ACAD
1000
AcDbSavedByObjectVersion
1070
     0
  0
VISUALSTYLE
  5
39
102
{ACAD_REACTORS
330
2A
102
}
330
2A
100
AcDbVisualStyle
  2
Facepattern
 70
    15
 71
     2
 72
     2
 73
     0
 90
        0
 40
-0.6
 41
-30.0
 62
     5
 63
     7
 74
     1
 91
        4
 64
     7
 65
   257
 75
     1
175
     1
 42
1.0
 92
        8
 66
     7
 43
1.0
 76
     1
 77
     6
 78
     2
 67
     7
 79
     5
170
     0
171
     0
290
     0
174
     0
 93
        1
 44
0.0
173
     0
291
     1
 45
0.0
1001
ACAD
1000
AcDbSavedByObjectVersion
1070
     0
  0
VISUALSTYLE
  5
2B
102
{ACAD_REACTORS
330
2A
102
}
330
2A
100
AcDbVisualStyle
  2
Flat
 70
     0
 71
     2
 72
     1
 73
     1
 90
        2
 40
-0.6
 41
30.0
 62
     5
 63
     7
 74
     0
 91
        4
 64
     7
 65
   257
 75
     1
175
     1
 42
1.0
 92
        8
 66
     7
 43
1.0
 76
     1
 77
     6
 78
     2
 67
     7
 79
     5
170
     0
171
     0
290
     0
174
     0
 93
       13
 44
0.0
173
     0
291
     1
 45
0.0
1001
ACAD
1000
AcDbSavedByObjectVersion
1070
     0
  0
VISUALSTYLE
  5
2C
102
{ACAD_REACTORS
330
2A
102
}
330
2A
100
AcDbVisualStyle
  2
FlatWithEdges
 70
     1
 71
     2
 72
     1
 73
     1
 90
        2
 40
-0.6
 41
30.0
 62
     5
 63
     7
 74
     1
 91
        4
 64
     7
 65
   257
 75
     1
175
     1
 42
1.0
 92
        0
 66
   257
 43
1.0
 76
     1
 77
     6
 78
     2
 67
     7
 79
     5
170
     0
171
     0
290
     0
174
     0
 93
       13
 44
0.0
173
     0
291
     1
 45
0.0
1001
ACAD
1000
AcDbSavedByObjectVersion
1070
     0
  0
VISUALSTYLE
  5
2D
102
{ACAD_REACTORS
330
2A
102
}
330
2A
100
AcDbVisualStyle
  2
Gouraud
 70
     2
 71
     2
 72
     2
 73
     1
 90
        2
 40
-0.6
 41
30.0
 62
     5
 63
     7
 74
     0
 91
        4
 64
     7
 65
   257
 75
     1
175
     1
 42
1.0
 92
        0
 66
     7
 43
1.0
 76
     1
 77
     6
 78
     2
 67
     7
 79
     5
170
     0
171
     0
290
     0
174
     0
 93
       13
 44
0.0
173
     0
291
     1
 45
0.0
1001
ACAD
1000
AcDbSavedByObjectVersion
1070
     0
  0
VISUALSTYLE
  5
2E
102
{ACAD_REACTORS
330
2A
102
}
330
2A
100
AcDbVisualStyle
  2
GouraudWithEdges
 70
     3
 71
     2
 72
     2
 73
     1
 90
        2
 40
-0.6
 41
30.0
 62
     5
 63
     7
 74
     1
 91
        4
 64
     7
 65
   257
 75
     1
175
     1
 42
1.0
 92
        0
 66
   257
 43
1.0
 76
     1
 77
     6
 78
     2
 67
     7
 79
     5
170
     0
171
     0
290
     0
174
     0
 93
       13
 44
0.0
173
     0
291
     1
 45
0.0
1001
ACAD
1000
AcDbSavedByObjectVersion
1070
     0
  0
VISUALSTYLE
  5
38
102
{ACAD_REACTORS
330
2A
102
}
330
2A
100
AcDbVisualStyle
  2
Linepattern
 70
    14
 71
     2
 72
     2
 73
     0
 90
        0
 40
-0.6
 41
-30.0
 62
     5
 63
     7
 74
     1
 91
        4
 64
     7
 65
   257
 75
     7
175
     7
 42
1.0
 92
        8
 66
     7
 43
1.0
 76
     1
 77
     6
 78
     2
 67
     7
 79
     5
170
     0
171
     0
290
     0
174
     0
 93
        1
 44
0.0
173
     0
291
     1
 45
0.0
1001
ACAD
1000
AcDbSavedByObjectVersion
1070
     0
  0
VISUALSTYLE
  5
33
102
{ACAD_REACTORS
330
2A
102
}
330
2A
100
AcDbVisualStyle
  2
Realistic
 70
     8
 71
     2
 72
     2
 73
     0
 90
        0
 40
-0.6
 41
-30.0
 62
     5
 63
     7
 74
     1
 91
        0
 64
     7
 65
   257
 75
     1
175
     1
 42
1.0
 92
        8
 66
     8
 43
1.0
 76
     1
 77
     6
 78
     2
 67
     7
 79
     5
170
     0
171
     0
290
     0
174
     0
 93
       13
 44
0.0
173
     0
291
     0
 45
0.0
1001
ACAD
1000
AcDbSavedByObjectVersion
1070
     0
  0
VISUALSTYLE
  5
37
102
{ACAD_REACTORS
330
2A
102
}
330
2A
100
AcDbVisualStyle
  2
Thicken
 70
    13
 71
     2
 72
     2
 73
     0
 90
        0
 40
-0.6
 41
-30.0
 62
     5
 63
     7
 74
     1
 91
        4
 64
     7
 65
   257
 75
     1
175
     1
 42
1.0
 92
       12
 66
     7
 43
1.0
 76
     1
 77
     6
 78
     2
 67
     7
 79
     5
170
     0
171
     0
290
     0
174
     0
 93
        1
 44
0.0
173
     0
291
     1
 45
0.0
1001
ACAD
1000
AcDbSavedByObjectVersion
1070
     0
  0
DICTIONARYVAR
  5
2F6
102
{ACAD_REACTORS
330
2F5
102
}
330
2F5
100
DictionaryVariables
280
     0
  1
1:1
  0
DICTIONARYVAR
  5
2FA
102
{ACAD_REACTORS
330
2F5
102
}
330
2F5
100
DictionaryVariables
280
     0
  1
80.000000
  0
DICTIONARYVAR
  5
2F9
102
{ACAD_REACTORS
330
2F5
102
}
330
2F5
100
DictionaryVariables
280
     0
  1
5.000000
  0
ENDSEC
  0
EOF
