  0
SECTION
  2
HEADER
  9
$ACADVER
  1
AC1015
  9
$ACADMAINTVER
 70
     6
  9
$DWGCODEPAGE
  3
ANSI_1252
  9
$INSBASE
 10
0.0
 20
0.0
 30
0.0
  9
$EXTMIN
 10
0.0
 20
0.0
 30
0.0
  9
$EXTMAX
 10
297.0
 20
210.0
 30
0.0
  9
$LIMMIN
 10
0.0
 20
0.0
  9
$LIMMAX
 10
0.0
 20
0.0
  9
$ORTHOMODE
 70
     0
  9
$REGENMODE
 70
     1
  9
$FILLMODE
 70
     1
  9
$QTEXTMODE
 70
     0
  9
$MIRRTEXT
 70
     1
  9
$LTSCALE
 40
1.0
  9
$ATTMODE
 70
     1
  9
$TEXTSIZE
 40
3.5
  9
$TRACEWID
 40
1.0
  9
$TEXTSTYLE
  7
Standard
  9
$CLAYER
  8
0
  9
$CELTYPE
  6
ByLayer
  9
$CECOLOR
 62
   256
  9
$CELTSCALE
 40
1.0
  9
$DISPSILH
 70
     0
  9
$DIMSCALE
 40
1.0
  9
$DIMASZ
 40
6.0
  9
$DIMEXO
 40
1.0
  9
$DIMDLI
 40
3.75
  9
$DIMRND
 40
0.0
  9
$DIMDLE
 40
0.0
  9
$DIMEXE
 40
1.0
  9
$DIMTP
 40
0.0
  9
$DIMTM
 40
0.0
  9
$DIMTXT
 40
3.5
  9
$DIMCEN
 40
2.5
  9
$DIMTSZ
 40
0.0
  9
$DIMTOL
 70
     0
  9
$DIMLIM
 70
     0
  9
$DIMTIH
 70
     1
  9
$DIMTOH
 70
     1
  9
$DIMSE1
 70
     0
  9
$DIMSE2
 70
     0
  9
$DIMTAD
 70
     1
  9
$DIMZIN
 70
     0
  9
$DIMBLK
  1

  9
$DIMASO
 70
     1
  9
$DIMSHO
 70
     1
  9
$DIMPOST
  1

  9
$DIMAPOST
  1

  9
$DIMALT
 70
     0
  9
$DIMALTD
 70
     3
  9
$DIMALTF
 40
0.0393700787
  9
$DIMLFAC
 40
1.0
  9
$DIMTOFL
 70
     1
  9
$DIMTVP
 40
0.0
  9
$DIMTIX
 70
     0
  9
$DIMSOXD
 70
     0
  9
$DIMSAH
 70
     0
  9
$DIMBLK1
  1

  9
$DIMBLK2
  1

  9
$DIMSTYLE
  2
ISO-25
  9
$DIMCLRD
 70
     0
  9
$DIMCLRE
 70
     0
  9
$DIMCLRT
 70
     0
  9
$DIMTFAC
 40
1.0
  9
$DIMGAP
 40
1.524
  9
$DIMJUST
 70
     0
  9
$DIMSD1
 70
     0
  9
$DIMSD2
 70
     0
  9
$DIMTOLJ
 70
     0
  9
$DIMTZIN
 70
     0
  9
$DIMALTZ
 70
     0
  9
$DIMALTTZ
 70
     0
  9
$DIMUPT
 70
     0
  9
$DIMDEC
 70
     2
  9
$DIMTDEC
 70
     2
  9
$DIMALTU
 70
     2
  9
$DIMALTTD
 70
     3
  9
$DIMTXSTY
  7
Standard
  9
$DIMAUNIT
 70
     0
  9
$DIMADEC
 70
     0
  9
$DIMALTRND
 40
0.0
  9
$DIMAZIN
 70
     0
  9
$DIMDSEP
 70
    44
  9
$DIMATFIT
 70
     3
  9
$DIMFRAC
 70
     0
  9
$DIMLDRBLK
  1

  9
$DIMLUNIT
 70
     2
  9
$DIMLWD
 70
    -2
  9
$DIMLWE
 70
    -2
  9
$DIMTMOVE
 70
     0
  9
$LUNITS
 70
     2
  9
$LUPREC
 70
     2
  9
$SKETCHINC
 40
1.0
  9
$FILLETRAD
 40
10.0
  9
$AUNITS
 70
     0
  9
$AUPREC
 70
     0
  9
$MENU
  1
.
  9
$ELEVATION
 40
0.0
  9
$PELEVATION
 40
0.0
  9
$THICKNESS
 40
0.0
  9
$LIMCHECK
 70
     0
  9
$CHAMFERA
 40
10.0
  9
$CHAMFERB
 40
10.0
  9
$CHAMFERC
 40
20.0
  9
$CHAMFERD
 40
0.0
  9
$SKPOLY
 70
     0
  9
$TDCREATE
 40
2454131.483487952
  9
$TDUCREATE
 40
2454131.691821285
  9
$TDUPDATE
 40
2454131.483487963
  9
$TDUUPDATE
 40
2454131.691821296
  9
$TDINDWG
 40
0.0000000116
  9
$TDUSRTIMER
 40
0.0000000116
  9
$USRTIMER
 70
     1
  9
$ANGBASE
 50
0.0
  9
$ANGDIR
 70
     0
  9
$PDMODE
 70
     0
  9
$PDSIZE
 40
-1.0
  9
$PLINEWID
 40
0.0
  9
$SPLFRAME
 70
     0
  9
$SPLINETYPE
 70
     6
  9
$SPLINESEGS
 70
     8
  9
$HANDSEED
  5
2A6
  9
$SURFTAB1
 70
     6
  9
$SURFTAB2
 70
     6
  9
$SURFTYPE
 70
     6
  9
$SURFU
 70
     6
  9
$SURFV
 70
     6
  9
$UCSBASE
  2

  9
$UCSNAME
  2

  9
$UCSORG
 10
0.0
 20
0.0
 30
0.0
  9
$UCSXDIR
 10
1.0
 20
0.0
 30
0.0
  9
$UCSYDIR
 10
0.0
 20
1.0
 30
0.0
  9
$UCSORTHOREF
  2

  9
$UCSORTHOVIEW
 70
     0
  9
$UCSORGTOP
 10
0.0
 20
0.0
 30
0.0
  9
$UCSORGBOTTOM
 10
0.0
 20
0.0
 30
0.0
  9
$UCSORGLEFT
 10
0.0
 20
0.0
 30
0.0
  9
$UCSORGRIGHT
 10
0.0
 20
0.0
 30
0.0
  9
$UCSORGFRONT
 10
0.0
 20
0.0
 30
0.0
  9
$UCSORGBACK
 10
0.0
 20
0.0
 30
0.0
  9
$PUCSBASE
  2

  9
$PUCSNAME
  2

  9
$PUCSORG
 10
0.0
 20
0.0
 30
0.0
  9
$PUCSXDIR
 10
1.0
 20
0.0
 30
0.0
  9
$PUCSYDIR
 10
0.0
 20
1.0
 30
0.0
  9
$PUCSORTHOREF
  2

  9
$PUCSORTHOVIEW
 70
     0
  9
$PUCSORGTOP
 10
0.0
 20
0.0
 30
0.0
  9
$PUCSORGBOTTOM
 10
0.0
 20
0.0
 30
0.0
  9
$PUCSORGLEFT
 10
0.0
 20
0.0
 30
0.0
  9
$PUCSORGRIGHT
 10
0.0
 20
0.0
 30
0.0
  9
$PUCSORGFRONT
 10
0.0
 20
0.0
 30
0.0
  9
$PUCSORGBACK
 10
0.0
 20
0.0
 30
0.0
  9
$USERI1
 70
     0
  9
$USERI2
 70
     0
  9
$USERI3
 70
     0
  9
$USERI4
 70
     0
  9
$USERI5
 70
     0
  9
$USERR1
 40
0.0
  9
$USERR2
 40
0.0
  9
$USERR3
 40
0.0
  9
$USERR4
 40
0.0
  9
$USERR5
 40
0.0
  9
$WORLDVIEW
 70
     1
  9
$SHADEDGE
 70
     3
  9
$SHADEDIF
 70
    70
  9
$TILEMODE
 70
     1
  9
$MAXACTVP
 70
    64
  9
$PINSBASE
 10
0.0
 20
0.0
 30
0.0
  9
$PLIMCHECK
 70
     0
  9
$PEXTMIN
 10
1.0000000000E+20
 20
1.0000000000E+20
 30
1.0000000000E+20
  9
$PEXTMAX
 10
-1.0000000000E+20
 20
-1.0000000000E+20
 30
-1.0000000000E+20
  9
$PLIMMIN
 10
0.0
 20
0.0
  9
$PLIMMAX
 10
420.0
 20
297.0
  9
$UNITMODE
 70
     0
  9
$VISRETAIN
 70
     1
  9
$PLINEGEN
 70
     0
  9
$PSLTSCALE
 70
     1
  9
$TREEDEPTH
 70
  3020
  9
$CMLSTYLE
  2
Standard
  9
$CMLJUST
 70
     0
  9
$CMLSCALE
 40
20.0
  9
$PROXYGRAPHICS
 70
     1
  9
$MEASUREMENT
 70
     1
  9
$CELWEIGHT
370
    -1
  9
$ENDCAPS
280
     0
  9
$JOINSTYLE
280
     0
  9
$LWDISPLAY
290
     1
  9
$INSUNITS
 70
     4
  9
$HYPERLINKBASE
  1

  9
$STYLESHEET
  1

  9
$XEDIT
290
     1
  9
$CEPSNTYPE
380
     0
  9
$PSTYLEMODE
290
     1
  9
$FINGERPRINTGUID
  2
{F6F5E961-AA2A-4E32-95E8-ADBACE20318C}
  9
$VERSIONGUID
  2
{FAEB1C32-E019-11D5-929B-00C0DF256EC4}
  9
$EXTNAMES
290
     1
  9
$PSVPSCALE
 40
0.0
  9
$OLESTARTUP
290
     0
  0
ENDSEC
  0
SECTION
  2
CLASSES
  0
CLASS
  1
ACDBDICTIONARYWDFLT
  2
AcDbDictionaryWithDefault
  3
ObjectDBX Classes
 90
        0
280
     0
281
     0
  0
CLASS
  1
ACDBPLACEHOLDER
  2
AcDbPlaceHolder
  3
ObjectDBX Classes
 90
        0
280
     0
281
     0
  0
CLASS
  1
LAYOUT
  2
AcDbLayout
  3
ObjectDBX Classes
 90
        0
280
     0
281
     0
  0
ENDSEC
  0
SECTION
  2
TABLES
  0
TABLE
  2
VPORT
  5
8
330
0
100
AcDbSymbolTable
 70
     1
  0
VPORT
  5
29
330
8
100
AcDbSymbolTableRecord
100
AcDbViewportTableRecord
  2
*Active
 70
     0
 10
0.0
 20
0.0
 11
1.0
 21
1.0
 12
148.5
 22
105.0
 13
0.0
 23
0.0
 14
10.0
 24
10.0
 15
10.0
 25
10.0
 16
0.0
 26
0.0
 36
1.0
 17
0.0
 27
0.0
 37
0.0
 40
210.0
 41
1.4142857143
 42
50.0
 43
0.0
 44
0.0
 50
0.0
 51
0.0
 71
     0
 72
  2000
 73
     1
 74
     3
 75
     0
 76
     0
 77
     0
 78
     0
281
     0
 65
     1
110
0.0
120
0.0
130
0.0
111
1.0
121
0.0
131
0.0
112
0.0
122
1.0
132
0.0
 79
     0
146
0.0
  0
ENDTAB
  0
TABLE
  2
LTYPE
  5
5
330
0
100
AcDbSymbolTable
 70
     6
  0
LTYPE
  5
14
330
5
100
AcDbSymbolTableRecord
100
AcDbLinetypeTableRecord
  2
ByBlock
 70
     0
  3

 72
    65
 73
     0
 40
0.0
  0
LTYPE
  5
15
330
5
100
AcDbSymbolTableRecord
100
AcDbLinetypeTableRecord
  2
ByLayer
 70
     0
  3

 72
    65
 73
     0
 40
0.0
  0
LTYPE
  5
16
330
5
100
AcDbSymbolTableRecord
100
AcDbLinetypeTableRecord
  2
Continuous
 70
     0
  3
Solid line
 72
    65
 73
     0
 40
0.0
  0
LTYPE
  5
2A
330
5
100
AcDbSymbolTableRecord
100
AcDbLinetypeTableRecord
  2
HIDDEN
 70
     0
  3
Hidden __ __ __ __ __ __ __ __ __ __ __ __ __ __
 72
    65
 73
     2
 40
1.905
 49
1.27
 74
     0
 49
-0.635
 74
     0
  0
LTYPE
  5
2B
330
5
100
AcDbSymbolTableRecord
100
AcDbLinetypeTableRecord
  2
PHANTOM
 70
     0
  3
Phantom ______  __  __  ______  __  __  ______
 72
    65
 73
     6
 40
12.7
 49
6.35
 74
     0
 49
-1.27
 74
     0
 49
1.27
 74
     0
 49
-1.27
 74
     0
 49
1.27
 74
     0
 49
-1.27
 74
     0
  0
LTYPE
  5
2C
330
5
100
AcDbSymbolTableRecord
100
AcDbLinetypeTableRecord
  2
CENTER
 70
     0
  3
Center ____ _ ____ _ ____ _ ____ _ ____ _ ____
 72
    65
 73
     4
 40
10.16
 49
6.35
 74
     0
 49
-1.27
 74
     0
 49
1.27
 74
     0
 49
-1.27
 74
     0
  0
LTYPE
  5
2D
330
5
100
AcDbSymbolTableRecord
100
AcDbLinetypeTableRecord
  2
CENTERX2
 70
     0
  3
Center (2x) ________  __  ________  __  _____
 72
    65
 73
     4
 40
20.32
 49
12.7
 74
     0
 49
-2.54
 74
     0
 49
2.54
 74
     0
 49
-2.54
 74
     0
  0
LTYPE
  5
2E
330
5
100
AcDbSymbolTableRecord
100
AcDbLinetypeTableRecord
  2
DOT2
 70
     0
  3
Dot (.5x) ........................................
 72
    65
 73
     2
 40
0.635
 49
0.0
 74
     0
 49
-0.635
 74
     0
  0
ENDTAB
  0
TABLE
  2
LAYER
  5
2
330
0
100
AcDbSymbolTable
 70
     1
  0
LAYER
  5
10
330
2
100
AcDbSymbolTableRecord
100
AcDbLayerTableRecord
  2
0
 70
     0
 62
     7
  6
Continuous
370
    -3
390
F
  0
ENDTAB
  0
TABLE
  2
STYLE
  5
3
330
0
100
AcDbSymbolTable
 70
     1
  0
STYLE
  5
11
330
3
100
AcDbSymbolTableRecord
100
AcDbTextStyleTableRecord
  2
Standard
 70
     0
 40
0.0
 41
1.0
 50
0.0
 71
     0
 42
2.5
  3
txt
  4

  0
ENDTAB
  0
TABLE
  2
VIEW
  5
6
330
0
100
AcDbSymbolTable
 70
     0
  0
ENDTAB
  0
TABLE
  2
UCS
  5
7
330
0
100
AcDbSymbolTable
 70
     0
  0
ENDTAB
  0
TABLE
  2
APPID
  5
9
330
0
100
AcDbSymbolTable
 70
     1
  0
APPID
  5
12
330
9
100
AcDbSymbolTableRecord
100
AcDbRegAppTableRecord
  2
ACAD
 70
     0
  0
ENDTAB
  0
TABLE
  2
DIMSTYLE
  5
A
330
0
100
AcDbSymbolTable
 70
     1
100
AcDbDimStyleTable
  0
DIMSTYLE
105
27
330
A
100
AcDbSymbolTableRecord
100
AcDbDimStyleTableRecord
  2
ISO-25
 70
     0
 41
2.5
 42
0.625
 43
3.75
 44
1.25
 73
     0
 74
     0
 77
     1
 78
     8
140
2.5
141
2.5
143
0.0393700787
147
0.625
171
     3
172
     1
271
     2
272
     2
274
     3
278
    44
283
     0
284
     8
340
11
  0
ENDTAB
  0
TABLE
  2
BLOCK_RECORD
  5
1
330
0
100
AcDbSymbolTable
 70
    14
  0
BLOCK_RECORD
  5
1F
330
1
100
AcDbSymbolTableRecord
100
AcDbBlockTableRecord
  2
*Model_Space
340
22
  0
BLOCK_RECORD
  5
1B
330
1
100
AcDbSymbolTableRecord
100
AcDbBlockTableRecord
  2
*Paper_Space
340
1E
  0
BLOCK_RECORD
  5
23
330
1
100
AcDbSymbolTableRecord
100
AcDbBlockTableRecord
  2
*Paper_Space0
340
26
  0
BLOCK_RECORD
  5
77
330
1
100
AcDbSymbolTableRecord
100
AcDbBlockTableRecord
  2
SW_CENTERMARKSYMBOL_0
340
0
102
{BLKREFS
331
82
102
}
1001
ACAD
1000
DesignCenter Data
1002
{
1070
     1
1070
     0
1002
}
  0
BLOCK_RECORD
  5
83
330
1
100
AcDbSymbolTableRecord
100
AcDbBlockTableRecord
  2
SW_CENTERMARKSYMBOL_1
340
0
102
{BLKREFS
331
8E
102
}
1001
ACAD
1000
DesignCenter Data
1002
{
1070
     1
1070
     0
1002
}
  0
BLOCK_RECORD
  5
8F
330
1
100
AcDbSymbolTableRecord
100
AcDbBlockTableRecord
  2
SW_CENTERMARKSYMBOL_2
340
0
102
{BLKREFS
331
9A
102
}
1001
ACAD
1000
DesignCenter Data
1002
{
1070
     1
1070
     0
1002
}
  0
BLOCK_RECORD
  5
15E
330
1
100
AcDbSymbolTableRecord
100
AcDbBlockTableRecord
  2
SW_CENTERMARKSYMBOL_3
340
0
102
{BLKREFS
331
169
102
}
1001
ACAD
1000
DesignCenter Data
1002
{
1070
     1
1070
     0
1002
}
  0
BLOCK_RECORD
  5
16A
330
1
100
AcDbSymbolTableRecord
100
AcDbBlockTableRecord
  2
SW_CENTERMARKSYMBOL_4
340
0
102
{BLKREFS
331
175
102
}
1001
ACAD
1000
DesignCenter Data
1002
{
1070
     1
1070
     0
1002
}
  0
BLOCK_RECORD
  5
176
330
1
100
AcDbSymbolTableRecord
100
AcDbBlockTableRecord
  2
SW_CENTERMARKSYMBOL_5
340
0
102
{BLKREFS
331
181
102
}
1001
ACAD
1000
DesignCenter Data
1002
{
1070
     1
1070
     0
1002
}
  0
BLOCK_RECORD
  5
182
330
1
100
AcDbSymbolTableRecord
100
AcDbBlockTableRecord
  2
SW_CENTERMARKSYMBOL_6
340
0
102
{BLKREFS
331
18D
102
}
1001
ACAD
1000
DesignCenter Data
1002
{
1070
     1
1070
     0
1002
}
  0
BLOCK_RECORD
  5
18E
330
1
100
AcDbSymbolTableRecord
100
AcDbBlockTableRecord
  2
SW_CENTERMARKSYMBOL_7
340
0
102
{BLKREFS
331
199
102
}
1001
ACAD
1000
DesignCenter Data
1002
{
1070
     1
1070
     0
1002
}
  0
BLOCK_RECORD
  5
19A
330
1
100
AcDbSymbolTableRecord
100
AcDbBlockTableRecord
  2
SW_CENTERMARKSYMBOL_8
340
0
102
{BLKREFS
331
1A5
102
}
1001
ACAD
1000
DesignCenter Data
1002
{
1070
     1
1070
     0
1002
}
  0
BLOCK_RECORD
  5
1A6
330
1
100
AcDbSymbolTableRecord
100
AcDbBlockTableRecord
  2
SW_CENTERMARKSYMBOL_9
340
0
102
{BLKREFS
331
1B1
102
}
1001
ACAD
1000
DesignCenter Data
1002
{
1070
     1
1070
     0
1002
}
  0
BLOCK_RECORD
  5
1B2
330
1
100
AcDbSymbolTableRecord
100
AcDbBlockTableRecord
  2
SW_CENTERMARKSYMBOL_10
340
0
102
{BLKREFS
331
1BD
102
}
1001
ACAD
1000
DesignCenter Data
1002
{
1070
     1
1070
     0
1002
}
  0
BLOCK_RECORD
  5
1BE
330
1
100
AcDbSymbolTableRecord
100
AcDbBlockTableRecord
  2
SW_CENTERMARKSYMBOL_11
340
0
102
{BLKREFS
331
1C9
102
}
1001
ACAD
1000
DesignCenter Data
1002
{
1070
     1
1070
     0
1002
}
  0
BLOCK_RECORD
  5
1CA
330
1
100
AcDbSymbolTableRecord
100
AcDbBlockTableRecord
  2
SW_CENTERMARKSYMBOL_12
340
0
102
{BLKREFS
331
1D5
102
}
1001
ACAD
1000
DesignCenter Data
1002
{
1070
     1
1070
     0
1002
}
  0
ENDTAB
  0
ENDSEC
  0
SECTION
  2
BLOCKS
  0
BLOCK
  5
20
330
1F
100
AcDbEntity
  8
0
100
AcDbBlockBegin
  2
*Model_Space
 70
     0
 71
     0
 10
0.0
 20
0.0
 30
0.0
  3
*Model_Space
  1

  0
ENDBLK
  5
21
330
1F
100
AcDbEntity
  8
0
100
AcDbBlockEnd
  0
BLOCK
  5
1C
330
1B
100
AcDbEntity
 67
     1
  8
0
100
AcDbBlockBegin
  2
*Paper_Space
 70
     0
 71
     0
 10
0.0
 20
0.0
 30
0.0
  3
*Paper_Space
  1

  0
ENDBLK
  5
1D
330
1B
100
AcDbEntity
 67
     1
  8
0
100
AcDbBlockEnd
  0
BLOCK
  5
24
330
23
100
AcDbEntity
  8
0
100
AcDbBlockBegin
  2
*Paper_Space0
 70
     0
 71
     0
 10
0.0
 20
0.0
 30
0.0
  3
*Paper_Space0
  1

  0
ENDBLK
  5
25
330
23
100
AcDbEntity
  8
0
100
AcDbBlockEnd
  0
BLOCK
  5
78
330
77
100
AcDbEntity
  8
0
100
AcDbBlockBegin
  2
SW_CENTERMARKSYMBOL_0
 70
     0
 71
     0
 10
0.0
 20
0.0
 30
0.0
  3
SW_CENTERMARKSYMBOL_0
  1

  0
LINE
  5
7A
330
77
100
AcDbEntity
  8
0
  6
Continuous
 62
     0
370
     0
100
AcDbLine
 10
0.0
 20
0.0
 30
0.0
 11
0.0
 21
2.5
 31
0.0
  0
LINE
  5
7B
330
77
100
AcDbEntity
  8
0
  6
Continuous
 62
     0
370
     0
100
AcDbLine
 10
0.0
 20
0.0
 30
0.0
 11
-2.5
 21
0.0
 31
0.0
  0
LINE
  5
7C
330
77
100
AcDbEntity
  8
0
  6
Continuous
 62
     0
370
     0
100
AcDbLine
 10
0.0
 20
0.0
 30
0.0
 11
0.0
 21
-2.5
 31
0.0
  0
LINE
  5
7D
330
77
100
AcDbEntity
  8
0
  6
Continuous
 62
     0
370
     0
100
AcDbLine
 10
0.0
 20
0.0
 30
0.0
 11
2.5
 21
0.0
 31
0.0
  0
LINE
  5
7E
330
77
100
AcDbEntity
  8
0
  6
Continuous
 62
     0
370
     0
100
AcDbLine
 10
0.0
 20
2.5
 30
0.0
 11
0.0
 21
3.75
 31
0.0
  0
LINE
  5
7F
330
77
100
AcDbEntity
  8
0
  6
Continuous
 62
     0
370
     0
100
AcDbLine
 10
-2.5
 20
0.0
 30
0.0
 11
-3.75
 21
0.0
 31
0.0
  0
LINE
  5
80
330
77
100
AcDbEntity
  8
0
  6
Continuous
 62
     0
370
     0
100
AcDbLine
 10
0.0
 20
-2.5
 30
0.0
 11
0.0
 21
-3.75
 31
0.0
  0
LINE
  5
81
330
77
100
AcDbEntity
  8
0
  6
Continuous
 62
     0
370
     0
100
AcDbLine
 10
2.5
 20
0.0
 30
0.0
 11
3.75
 21
0.0
 31
0.0
  0
ENDBLK
  5
79
330
77
100
AcDbEntity
  8
0
100
AcDbBlockEnd
  0
BLOCK
  5
84
330
83
100
AcDbEntity
  8
0
100
AcDbBlockBegin
  2
SW_CENTERMARKSYMBOL_1
 70
     0
 71
     0
 10
0.0
 20
0.0
 30
0.0
  3
SW_CENTERMARKSYMBOL_1
  1

  0
LINE
  5
86
330
83
100
AcDbEntity
  8
0
  6
Continuous
 62
     0
370
     0
100
AcDbLine
 10
0.0
 20
0.0
 30
0.0
 11
0.0
 21
2.5
 31
0.0
  0
LINE
  5
87
330
83
100
AcDbEntity
  8
0
  6
Continuous
 62
     0
370
     0
100
AcDbLine
 10
0.0
 20
0.0
 30
0.0
 11
-2.5
 21
0.0
 31
0.0
  0
LINE
  5
88
330
83
100
AcDbEntity
  8
0
  6
Continuous
 62
     0
370
     0
100
AcDbLine
 10
0.0
 20
0.0
 30
0.0
 11
0.0
 21
-2.5
 31
0.0
  0
LINE
  5
89
330
83
100
AcDbEntity
  8
0
  6
Continuous
 62
     0
370
     0
100
AcDbLine
 10
0.0
 20
0.0
 30
0.0
 11
2.5
 21
0.0
 31
0.0
  0
LINE
  5
8A
330
83
100
AcDbEntity
  8
0
  6
Continuous
 62
     0
370
     0
100
AcDbLine
 10
0.0
 20
2.5
 30
0.0
 11
0.0
 21
3.75
 31
0.0
  0
LINE
  5
8B
330
83
100
AcDbEntity
  8
0
  6
Continuous
 62
     0
370
     0
100
AcDbLine
 10
-2.5
 20
0.0
 30
0.0
 11
-3.75
 21
0.0
 31
0.0
  0
LINE
  5
8C
330
83
100
AcDbEntity
  8
0
  6
Continuous
 62
     0
370
     0
100
AcDbLine
 10
0.0
 20
-2.5
 30
0.0
 11
0.0
 21
-3.75
 31
0.0
  0
LINE
  5
8D
330
83
100
AcDbEntity
  8
0
  6
Continuous
 62
     0
370
     0
100
AcDbLine
 10
2.5
 20
0.0
 30
0.0
 11
3.75
 21
0.0
 31
0.0
  0
ENDBLK
  5
85
330
83
100
AcDbEntity
  8
0
100
AcDbBlockEnd
  0
BLOCK
  5
90
330
8F
100
AcDbEntity
  8
0
100
AcDbBlockBegin
  2
SW_CENTERMARKSYMBOL_2
 70
     0
 71
     0
 10
0.0
 20
0.0
 30
0.0
  3
SW_CENTERMARKSYMBOL_2
  1

  0
LINE
  5
92
330
8F
100
AcDbEntity
  8
0
  6
Continuous
 62
     0
370
     0
100
AcDbLine
 10
0.0
 20
0.0
 30
0.0
 11
0.0
 21
2.5
 31
0.0
  0
LINE
  5
93
330
8F
100
AcDbEntity
  8
0
  6
Continuous
 62
     0
370
     0
100
AcDbLine
 10
0.0
 20
0.0
 30
0.0
 11
-2.5
 21
0.0
 31
0.0
  0
LINE
  5
94
330
8F
100
AcDbEntity
  8
0
  6
Continuous
 62
     0
370
     0
100
AcDbLine
 10
0.0
 20
0.0
 30
0.0
 11
0.0
 21
-2.5
 31
0.0
  0
LINE
  5
95
330
8F
100
AcDbEntity
  8
0
  6
Continuous
 62
     0
370
     0
100
AcDbLine
 10
0.0
 20
0.0
 30
0.0
 11
2.5
 21
0.0
 31
0.0
  0
LINE
  5
96
330
8F
100
AcDbEntity
  8
0
  6
Continuous
 62
     0
370
     0
100
AcDbLine
 10
0.0
 20
2.5
 30
0.0
 11
0.0
 21
3.75
 31
0.0
  0
LINE
  5
97
330
8F
100
AcDbEntity
  8
0
  6
Continuous
 62
     0
370
     0
100
AcDbLine
 10
-2.5
 20
0.0
 30
0.0
 11
-3.75
 21
0.0
 31
0.0
  0
LINE
  5
98
330
8F
100
AcDbEntity
  8
0
  6
Continuous
 62
     0
370
     0
100
AcDbLine
 10
0.0
 20
-2.5
 30
0.0
 11
0.0
 21
-3.75
 31
0.0
  0
LINE
  5
99
330
8F
100
AcDbEntity
  8
0
  6
Continuous
 62
     0
370
     0
100
AcDbLine
 10
2.5
 20
0.0
 30
0.0
 11
3.75
 21
0.0
 31
0.0
  0
ENDBLK
  5
91
330
8F
100
AcDbEntity
  8
0
100
AcDbBlockEnd
  0
BLOCK
  5
15F
330
15E
100
AcDbEntity
  8
0
100
AcDbBlockBegin
  2
SW_CENTERMARKSYMBOL_3
 70
     0
 71
     0
 10
0.0
 20
0.0
 30
0.0
  3
SW_CENTERMARKSYMBOL_3
  1

  0
LINE
  5
161
330
15E
100
AcDbEntity
  8
0
  6
Continuous
 62
     0
370
     0
100
AcDbLine
 10
0.0
 20
0.0
 30
0.0
 11
0.0
 21
2.5
 31
0.0
  0
LINE
  5
162
330
15E
100
AcDbEntity
  8
0
  6
Continuous
 62
     0
370
     0
100
AcDbLine
 10
0.0
 20
0.0
 30
0.0
 11
-2.5
 21
0.0
 31
0.0
  0
LINE
  5
163
330
15E
100
AcDbEntity
  8
0
  6
Continuous
 62
     0
370
     0
100
AcDbLine
 10
0.0
 20
0.0
 30
0.0
 11
0.0
 21
-2.5
 31
0.0
  0
LINE
  5
164
330
15E
100
AcDbEntity
  8
0
  6
Continuous
 62
     0
370
     0
100
AcDbLine
 10
0.0
 20
0.0
 30
0.0
 11
2.5
 21
0.0
 31
0.0
  0
LINE
  5
165
330
15E
100
AcDbEntity
  8
0
  6
Continuous
 62
     0
370
     0
100
AcDbLine
 10
0.0
 20
2.5
 30
0.0
 11
0.0
 21
5.0
 31
0.0
  0
LINE
  5
166
330
15E
100
AcDbEntity
  8
0
  6
Continuous
 62
     0
370
     0
100
AcDbLine
 10
-2.5
 20
0.0
 30
0.0
 11
-5.0
 21
0.0
 31
0.0
  0
LINE
  5
167
330
15E
100
AcDbEntity
  8
0
  6
Continuous
 62
     0
370
     0
100
AcDbLine
 10
0.0
 20
-2.5
 30
0.0
 11
0.0
 21
-5.0
 31
0.0
  0
LINE
  5
168
330
15E
100
AcDbEntity
  8
0
  6
Continuous
 62
     0
370
     0
100
AcDbLine
 10
2.5
 20
0.0
 30
0.0
 11
5.0
 21
0.0
 31
0.0
  0
ENDBLK
  5
160
330
15E
100
AcDbEntity
  8
0
100
AcDbBlockEnd
  0
BLOCK
  5
16B
330
16A
100
AcDbEntity
  8
0
100
AcDbBlockBegin
  2
SW_CENTERMARKSYMBOL_4
 70
     0
 71
     0
 10
0.0
 20
0.0
 30
0.0
  3
SW_CENTERMARKSYMBOL_4
  1

  0
LINE
  5
16D
330
16A
100
AcDbEntity
  8
0
  6
Continuous
 62
     0
370
     0
100
AcDbLine
 10
0.0
 20
0.0
 30
0.0
 11
0.0
 21
2.5
 31
0.0
  0
LINE
  5
16E
330
16A
100
AcDbEntity
  8
0
  6
Continuous
 62
     0
370
     0
100
AcDbLine
 10
0.0
 20
0.0
 30
0.0
 11
-2.5
 21
0.0
 31
0.0
  0
LINE
  5
16F
330
16A
100
AcDbEntity
  8
0
  6
Continuous
 62
     0
370
     0
100
AcDbLine
 10
0.0
 20
0.0
 30
0.0
 11
0.0
 21
-2.5
 31
0.0
  0
LINE
  5
170
330
16A
100
AcDbEntity
  8
0
  6
Continuous
 62
     0
370
     0
100
AcDbLine
 10
0.0
 20
0.0
 30
0.0
 11
2.5
 21
0.0
 31
0.0
  0
LINE
  5
171
330
16A
100
AcDbEntity
  8
0
  6
Continuous
 62
     0
370
     0
100
AcDbLine
 10
0.0
 20
2.5
 30
0.0
 11
0.0
 21
2.9
 31
0.0
  0
LINE
  5
172
330
16A
100
AcDbEntity
  8
0
  6
Continuous
 62
     0
370
     0
100
AcDbLine
 10
-2.5
 20
0.0
 30
0.0
 11
-2.9
 21
0.0
 31
0.0
  0
LINE
  5
173
330
16A
100
AcDbEntity
  8
0
  6
Continuous
 62
     0
370
     0
100
AcDbLine
 10
0.0
 20
-2.5
 30
0.0
 11
0.0
 21
-2.9
 31
0.0
  0
LINE
  5
174
330
16A
100
AcDbEntity
  8
0
  6
Continuous
 62
     0
370
     0
100
AcDbLine
 10
2.5
 20
0.0
 30
0.0
 11
2.9
 21
0.0
 31
0.0
  0
ENDBLK
  5
16C
330
16A
100
AcDbEntity
  8
0
100
AcDbBlockEnd
  0
BLOCK
  5
177
330
176
100
AcDbEntity
  8
0
100
AcDbBlockBegin
  2
SW_CENTERMARKSYMBOL_5
 70
     0
 71
     0
 10
0.0
 20
0.0
 30
0.0
  3
SW_CENTERMARKSYMBOL_5
  1

  0
LINE
  5
179
330
176
100
AcDbEntity
  8
0
  6
Continuous
 62
     0
370
     0
100
AcDbLine
 10
0.0
 20
0.0
 30
0.0
 11
0.0
 21
2.5
 31
0.0
  0
LINE
  5
17A
330
176
100
AcDbEntity
  8
0
  6
Continuous
 62
     0
370
     0
100
AcDbLine
 10
0.0
 20
0.0
 30
0.0
 11
-2.5
 21
0.0
 31
0.0
  0
LINE
  5
17B
330
176
100
AcDbEntity
  8
0
  6
Continuous
 62
     0
370
     0
100
AcDbLine
 10
0.0
 20
0.0
 30
0.0
 11
0.0
 21
-2.5
 31
0.0
  0
LINE
  5
17C
330
176
100
AcDbEntity
  8
0
  6
Continuous
 62
     0
370
     0
100
AcDbLine
 10
0.0
 20
0.0
 30
0.0
 11
2.5
 21
0.0
 31
0.0
  0
LINE
  5
17D
330
176
100
AcDbEntity
  8
0
  6
Continuous
 62
     0
370
     0
100
AcDbLine
 10
0.0
 20
2.5
 30
0.0
 11
0.0
 21
5.0
 31
0.0
  0
LINE
  5
17E
330
176
100
AcDbEntity
  8
0
  6
Continuous
 62
     0
370
     0
100
AcDbLine
 10
-2.5
 20
0.0
 30
0.0
 11
-5.0
 21
0.0
 31
0.0
  0
LINE
  5
17F
330
176
100
AcDbEntity
  8
0
  6
Continuous
 62
     0
370
     0
100
AcDbLine
 10
0.0
 20
-2.5
 30
0.0
 11
0.0
 21
-5.0
 31
0.0
  0
LINE
  5
180
330
176
100
AcDbEntity
  8
0
  6
Continuous
 62
     0
370
     0
100
AcDbLine
 10
2.5
 20
0.0
 30
0.0
 11
5.0
 21
0.0
 31
0.0
  0
ENDBLK
  5
178
330
176
100
AcDbEntity
  8
0
100
AcDbBlockEnd
  0
BLOCK
  5
183
330
182
100
AcDbEntity
  8
0
100
AcDbBlockBegin
  2
SW_CENTERMARKSYMBOL_6
 70
     0
 71
     0
 10
0.0
 20
0.0
 30
0.0
  3
SW_CENTERMARKSYMBOL_6
  1

  0
LINE
  5
185
330
182
100
AcDbEntity
  8
0
  6
Continuous
 62
     0
370
     0
100
AcDbLine
 10
0.0
 20
0.0
 30
0.0
 11
0.0
 21
2.5
 31
0.0
  0
LINE
  5
186
330
182
100
AcDbEntity
  8
0
  6
Continuous
 62
     0
370
     0
100
AcDbLine
 10
0.0
 20
0.0
 30
0.0
 11
-2.5
 21
0.0
 31
0.0
  0
LINE
  5
187
330
182
100
AcDbEntity
  8
0
  6
Continuous
 62
     0
370
     0
100
AcDbLine
 10
0.0
 20
0.0
 30
0.0
 11
0.0
 21
-2.5
 31
0.0
  0
LINE
  5
188
330
182
100
AcDbEntity
  8
0
  6
Continuous
 62
     0
370
     0
100
AcDbLine
 10
0.0
 20
0.0
 30
0.0
 11
2.5
 21
0.0
 31
0.0
  0
LINE
  5
189
330
182
100
AcDbEntity
  8
0
  6
Continuous
 62
     0
370
     0
100
AcDbLine
 10
0.0
 20
2.5
 30
0.0
 11
0.0
 21
2.9
 31
0.0
  0
LINE
  5
18A
330
182
100
AcDbEntity
  8
0
  6
Continuous
 62
     0
370
     0
100
AcDbLine
 10
-2.5
 20
0.0
 30
0.0
 11
-2.9
 21
0.0
 31
0.0
  0
LINE
  5
18B
330
182
100
AcDbEntity
  8
0
  6
Continuous
 62
     0
370
     0
100
AcDbLine
 10
0.0
 20
-2.5
 30
0.0
 11
0.0
 21
-2.9
 31
0.0
  0
LINE
  5
18C
330
182
100
AcDbEntity
  8
0
  6
Continuous
 62
     0
370
     0
100
AcDbLine
 10
2.5
 20
0.0
 30
0.0
 11
2.9
 21
0.0
 31
0.0
  0
ENDBLK
  5
184
330
182
100
AcDbEntity
  8
0
100
AcDbBlockEnd
  0
BLOCK
  5
18F
330
18E
100
AcDbEntity
  8
0
100
AcDbBlockBegin
  2
SW_CENTERMARKSYMBOL_7
 70
     0
 71
     0
 10
0.0
 20
0.0
 30
0.0
  3
SW_CENTERMARKSYMBOL_7
  1

  0
LINE
  5
191
330
18E
100
AcDbEntity
  8
0
  6
Continuous
 62
     0
370
     0
100
AcDbLine
 10
0.0
 20
0.0
 30
0.0
 11
0.0
 21
2.5
 31
0.0
  0
LINE
  5
192
330
18E
100
AcDbEntity
  8
0
  6
Continuous
 62
     0
370
     0
100
AcDbLine
 10
0.0
 20
0.0
 30
0.0
 11
-2.5
 21
0.0
 31
0.0
  0
LINE
  5
193
330
18E
100
AcDbEntity
  8
0
  6
Continuous
 62
     0
370
     0
100
AcDbLine
 10
0.0
 20
0.0
 30
0.0
 11
0.0
 21
-2.5
 31
0.0
  0
LINE
  5
194
330
18E
100
AcDbEntity
  8
0
  6
Continuous
 62
     0
370
     0
100
AcDbLine
 10
0.0
 20
0.0
 30
0.0
 11
2.5
 21
0.0
 31
0.0
  0
LINE
  5
195
330
18E
100
AcDbEntity
  8
0
  6
Continuous
 62
     0
370
     0
100
AcDbLine
 10
0.0
 20
5.0
 30
0.0
 11
0.0
 21
5.15
 31
0.0
  0
LINE
  5
196
330
18E
100
AcDbEntity
  8
0
  6
Continuous
 62
     0
370
     0
100
AcDbLine
 10
-5.0
 20
0.0
 30
0.0
 11
-5.15
 21
0.0
 31
0.0
  0
LINE
  5
197
330
18E
100
AcDbEntity
  8
0
  6
Continuous
 62
     0
370
     0
100
AcDbLine
 10
0.0
 20
-5.0
 30
0.0
 11
0.0
 21
-5.15
 31
0.0
  0
LINE
  5
198
330
18E
100
AcDbEntity
  8
0
  6
Continuous
 62
     0
370
     0
100
AcDbLine
 10
5.0
 20
0.0
 30
0.0
 11
5.15
 21
0.0
 31
0.0
  0
ENDBLK
  5
190
330
18E
100
AcDbEntity
  8
0
100
AcDbBlockEnd
  0
BLOCK
  5
19B
330
19A
100
AcDbEntity
  8
0
100
AcDbBlockBegin
  2
SW_CENTERMARKSYMBOL_8
 70
     0
 71
     0
 10
0.0
 20
0.0
 30
0.0
  3
SW_CENTERMARKSYMBOL_8
  1

  0
LINE
  5
19D
330
19A
100
AcDbEntity
  8
0
  6
Continuous
 62
     0
370
     0
100
AcDbLine
 10
0.0
 20
0.0
 30
0.0
 11
0.0
 21
2.5
 31
0.0
  0
LINE
  5
19E
330
19A
100
AcDbEntity
  8
0
  6
Continuous
 62
     0
370
     0
100
AcDbLine
 10
0.0
 20
0.0
 30
0.0
 11
-2.5
 21
0.0
 31
0.0
  0
LINE
  5
19F
330
19A
100
AcDbEntity
  8
0
  6
Continuous
 62
     0
370
     0
100
AcDbLine
 10
0.0
 20
0.0
 30
0.0
 11
0.0
 21
-2.5
 31
0.0
  0
LINE
  5
1A0
330
19A
100
AcDbEntity
  8
0
  6
Continuous
 62
     0
370
     0
100
AcDbLine
 10
0.0
 20
0.0
 30
0.0
 11
2.5
 21
0.0
 31
0.0
  0
LINE
  5
1A1
330
19A
100
AcDbEntity
  8
0
  6
Continuous
 62
     0
370
     0
100
AcDbLine
 10
0.0
 20
5.0
 30
0.0
 11
0.0
 21
5.15
 31
0.0
  0
LINE
  5
1A2
330
19A
100
AcDbEntity
  8
0
  6
Continuous
 62
     0
370
     0
100
AcDbLine
 10
-5.0
 20
0.0
 30
0.0
 11
-5.15
 21
0.0
 31
0.0
  0
LINE
  5
1A3
330
19A
100
AcDbEntity
  8
0
  6
Continuous
 62
     0
370
     0
100
AcDbLine
 10
0.0
 20
-5.0
 30
0.0
 11
0.0
 21
-5.15
 31
0.0
  0
LINE
  5
1A4
330
19A
100
AcDbEntity
  8
0
  6
Continuous
 62
     0
370
     0
100
AcDbLine
 10
5.0
 20
0.0
 30
0.0
 11
5.15
 21
0.0
 31
0.0
  0
ENDBLK
  5
19C
330
19A
100
AcDbEntity
  8
0
100
AcDbBlockEnd
  0
BLOCK
  5
1A7
330
1A6
100
AcDbEntity
  8
0
100
AcDbBlockBegin
  2
SW_CENTERMARKSYMBOL_9
 70
     0
 71
     0
 10
0.0
 20
0.0
 30
0.0
  3
SW_CENTERMARKSYMBOL_9
  1

  0
LINE
  5
1A9
330
1A6
100
AcDbEntity
  8
0
  6
Continuous
 62
     0
370
     0
100
AcDbLine
 10
0.0
 20
0.0
 30
0.0
 11
0.0
 21
2.5
 31
0.0
  0
LINE
  5
1AA
330
1A6
100
AcDbEntity
  8
0
  6
Continuous
 62
     0
370
     0
100
AcDbLine
 10
0.0
 20
0.0
 30
0.0
 11
-2.5
 21
0.0
 31
0.0
  0
LINE
  5
1AB
330
1A6
100
AcDbEntity
  8
0
  6
Continuous
 62
     0
370
     0
100
AcDbLine
 10
0.0
 20
0.0
 30
0.0
 11
0.0
 21
-2.5
 31
0.0
  0
LINE
  5
1AC
330
1A6
100
AcDbEntity
  8
0
  6
Continuous
 62
     0
370
     0
100
AcDbLine
 10
0.0
 20
0.0
 30
0.0
 11
2.5
 21
0.0
 31
0.0
  0
LINE
  5
1AD
330
1A6
100
AcDbEntity
  8
0
  6
Continuous
 62
     0
370
     0
100
AcDbLine
 10
0.0
 20
5.0
 30
0.0
 11
0.0
 21
5.15
 31
0.0
  0
LINE
  5
1AE
330
1A6
100
AcDbEntity
  8
0
  6
Continuous
 62
     0
370
     0
100
AcDbLine
 10
-5.0
 20
0.0
 30
0.0
 11
-5.15
 21
0.0
 31
0.0
  0
LINE
  5
1AF
330
1A6
100
AcDbEntity
  8
0
  6
Continuous
 62
     0
370
     0
100
AcDbLine
 10
0.0
 20
-5.0
 30
0.0
 11
0.0
 21
-5.15
 31
0.0
  0
LINE
  5
1B0
330
1A6
100
AcDbEntity
  8
0
  6
Continuous
 62
     0
370
     0
100
AcDbLine
 10
5.0
 20
0.0
 30
0.0
 11
5.15
 21
0.0
 31
0.0
  0
ENDBLK
  5
1A8
330
1A6
100
AcDbEntity
  8
0
100
AcDbBlockEnd
  0
BLOCK
  5
1B3
330
1B2
100
AcDbEntity
  8
0
100
AcDbBlockBegin
  2
SW_CENTERMARKSYMBOL_10
 70
     0
 71
     0
 10
0.0
 20
0.0
 30
0.0
  3
SW_CENTERMARKSYMBOL_10
  1

  0
LINE
  5
1B5
330
1B2
100
AcDbEntity
  8
0
  6
Continuous
 62
     0
370
     0
100
AcDbLine
 10
0.0
 20
0.0
 30
0.0
 11
0.0
 21
2.5
 31
0.0
  0
LINE
  5
1B6
330
1B2
100
AcDbEntity
  8
0
  6
Continuous
 62
     0
370
     0
100
AcDbLine
 10
0.0
 20
0.0
 30
0.0
 11
-2.5
 21
0.0
 31
0.0
  0
LINE
  5
1B7
330
1B2
100
AcDbEntity
  8
0
  6
Continuous
 62
     0
370
     0
100
AcDbLine
 10
0.0
 20
0.0
 30
0.0
 11
0.0
 21
-2.5
 31
0.0
  0
LINE
  5
1B8
330
1B2
100
AcDbEntity
  8
0
  6
Continuous
 62
     0
370
     0
100
AcDbLine
 10
0.0
 20
0.0
 30
0.0
 11
2.5
 21
0.0
 31
0.0
  0
LINE
  5
1B9
330
1B2
100
AcDbEntity
  8
0
  6
Continuous
 62
     0
370
     0
100
AcDbLine
 10
0.0
 20
5.0
 30
0.0
 11
0.0
 21
5.15
 31
0.0
  0
LINE
  5
1BA
330
1B2
100
AcDbEntity
  8
0
  6
Continuous
 62
     0
370
     0
100
AcDbLine
 10
-5.0
 20
0.0
 30
0.0
 11
-5.15
 21
0.0
 31
0.0
  0
LINE
  5
1BB
330
1B2
100
AcDbEntity
  8
0
  6
Continuous
 62
     0
370
     0
100
AcDbLine
 10
0.0
 20
-5.0
 30
0.0
 11
0.0
 21
-5.15
 31
0.0
  0
LINE
  5
1BC
330
1B2
100
AcDbEntity
  8
0
  6
Continuous
 62
     0
370
     0
100
AcDbLine
 10
5.0
 20
0.0
 30
0.0
 11
5.15
 21
0.0
 31
0.0
  0
ENDBLK
  5
1B4
330
1B2
100
AcDbEntity
  8
0
100
AcDbBlockEnd
  0
BLOCK
  5
1BF
330
1BE
100
AcDbEntity
  8
0
100
AcDbBlockBegin
  2
SW_CENTERMARKSYMBOL_11
 70
     0
 71
     0
 10
0.0
 20
0.0
 30
0.0
  3
SW_CENTERMARKSYMBOL_11
  1

  0
LINE
  5
1C1
330
1BE
100
AcDbEntity
  8
0
  6
Continuous
 62
     0
370
     0
100
AcDbLine
 10
0.0
 20
0.0
 30
0.0
 11
0.0
 21
2.5
 31
0.0
  0
LINE
  5
1C2
330
1BE
100
AcDbEntity
  8
0
  6
Continuous
 62
     0
370
     0
100
AcDbLine
 10
0.0
 20
0.0
 30
0.0
 11
-2.5
 21
0.0
 31
0.0
  0
LINE
  5
1C3
330
1BE
100
AcDbEntity
  8
0
  6
Continuous
 62
     0
370
     0
100
AcDbLine
 10
0.0
 20
0.0
 30
0.0
 11
0.0
 21
-2.5
 31
0.0
  0
LINE
  5
1C4
330
1BE
100
AcDbEntity
  8
0
  6
Continuous
 62
     0
370
     0
100
AcDbLine
 10
0.0
 20
0.0
 30
0.0
 11
2.5
 21
0.0
 31
0.0
  0
LINE
  5
1C5
330
1BE
100
AcDbEntity
  8
0
  6
Continuous
 62
     0
370
     0
100
AcDbLine
 10
0.0
 20
5.0
 30
0.0
 11
0.0
 21
5.15
 31
0.0
  0
LINE
  5
1C6
330
1BE
100
AcDbEntity
  8
0
  6
Continuous
 62
     0
370
     0
100
AcDbLine
 10
-5.0
 20
0.0
 30
0.0
 11
-5.15
 21
0.0
 31
0.0
  0
LINE
  5
1C7
330
1BE
100
AcDbEntity
  8
0
  6
Continuous
 62
     0
370
     0
100
AcDbLine
 10
0.0
 20
-5.0
 30
0.0
 11
0.0
 21
-5.15
 31
0.0
  0
LINE
  5
1C8
330
1BE
100
AcDbEntity
  8
0
  6
Continuous
 62
     0
370
     0
100
AcDbLine
 10
5.0
 20
0.0
 30
0.0
 11
5.15
 21
0.0
 31
0.0
  0
ENDBLK
  5
1C0
330
1BE
100
AcDbEntity
  8
0
100
AcDbBlockEnd
  0
BLOCK
  5
1CB
330
1CA
100
AcDbEntity
  8
0
100
AcDbBlockBegin
  2
SW_CENTERMARKSYMBOL_12
 70
     0
 71
     0
 10
0.0
 20
0.0
 30
0.0
  3
SW_CENTERMARKSYMBOL_12
  1

  0
LINE
  5
1CD
330
1CA
100
AcDbEntity
  8
0
  6
Continuous
 62
     0
370
     0
100
AcDbLine
 10
0.0
 20
0.0
 30
0.0
 11
0.0
 21
2.5
 31
0.0
  0
LINE
  5
1CE
330
1CA
100
AcDbEntity
  8
0
  6
Continuous
 62
     0
370
     0
100
AcDbLine
 10
0.0
 20
0.0
 30
0.0
 11
-2.5
 21
0.0
 31
0.0
  0
LINE
  5
1CF
330
1CA
100
AcDbEntity
  8
0
  6
Continuous
 62
     0
370
     0
100
AcDbLine
 10
0.0
 20
0.0
 30
0.0
 11
0.0
 21
-2.5
 31
0.0
  0
LINE
  5
1D0
330
1CA
100
AcDbEntity
  8
0
  6
Continuous
 62
     0
370
     0
100
AcDbLine
 10
0.0
 20
0.0
 30
0.0
 11
2.5
 21
0.0
 31
0.0
  0
LINE
  5
1D1
330
1CA
100
AcDbEntity
  8
0
  6
Continuous
 62
     0
370
     0
100
AcDbLine
 10
0.0
 20
5.0
 30
0.0
 11
0.0
 21
5.15
 31
0.0
  0
LINE
  5
1D2
330
1CA
100
AcDbEntity
  8
0
  6
Continuous
 62
     0
370
     0
100
AcDbLine
 10
-5.0
 20
0.0
 30
0.0
 11
-5.15
 21
0.0
 31
0.0
  0
LINE
  5
1D3
330
1CA
100
AcDbEntity
  8
0
  6
Continuous
 62
     0
370
     0
100
AcDbLine
 10
0.0
 20
-5.0
 30
0.0
 11
0.0
 21
-5.15
 31
0.0
  0
LINE
  5
1D4
330
1CA
100
AcDbEntity
  8
0
  6
Continuous
 62
     0
370
     0
100
AcDbLine
 10
5.0
 20
0.0
 30
0.0
 11
5.15
 21
0.0
 31
0.0
  0
ENDBLK
  5
1CC
330
1CA
100
AcDbEntity
  8
0
100
AcDbBlockEnd
  0
ENDSEC
  0
SECTION
  2
ENTITIES
  0
CIRCLE
  5
2F
330
1F
100
AcDbEntity
  8
0
  6
Continuous
 62
     7
370
     0
100
AcDbCircle
 10
88.0096144205
 20
64.1092551464
 30
0.0
 40
1.250000000000014
  0
CIRCLE
  5
30
330
1F
100
AcDbEntity
  8
0
  6
Continuous
 62
     7
370
     0
100
AcDbCircle
 10
88.0096144205
 20
64.1092551464
 30
0.0
 40
1.65000000000002
  0
ARC
  5
31
330
1F
100
AcDbEntity
  8
0
  6
Continuous
 62
     7
370
     0
100
AcDbCircle
 10
97.2516144205
 20
46.3012551464
 30
0.0
 40
2.310000000000712
100
AcDbArc
 50
193.0696870569
 51
258.9688883589
  0
LINE
  5
32
330
1F
100
AcDbEntity
  8
0
  6
Continuous
 62
     7
370
     0
100
AcDbLine
 10
95.0014532535
 20
45.7788810248
 30
0.0
 11
93.9096144205
 21
46.4092551464
 31
0.0
  0
LINE
  5
33
330
1F
100
AcDbEntity
  8
0
  6
Continuous
 62
     7
370
     0
100
AcDbLine
 10
93.9096144205
 20
46.4092551464
 30
0.0
 11
93.9096144205
 21
53.3092551464
 31
0.0
  0
LINE
  5
34
330
1F
100
AcDbEntity
  8
0
  6
Continuous
 62
     7
370
     0
100
AcDbLine
 10
93.9096144205
 20
53.3092551464
 30
0.0
 11
95.0017216926
 21
53.939784241
 31
0.0
  0
ARC
  5
35
330
1F
100
AcDbEntity
  8
0
  6
Continuous
 62
     7
370
     0
100
AcDbCircle
 10
97.2516144205
 20
53.4162551464
 30
0.0
 40
2.310000000006297
100
AcDbArc
 50
101.0311116412
 51
166.9009021488
  0
LINE
  5
36
330
1F
100
AcDbEntity
  8
0
  6
Continuous
 62
     7
370
     0
100
AcDbLine
 10
96.8096144205
 20
56.4492551464
 30
0.0
 11
96.6045633947
 21
56.6543061721
 31
0.0
  0
LINE
  5
37
330
1F
100
AcDbEntity
  8
0
  6
Continuous
 62
     7
370
     0
100
AcDbLine
 10
96.6045633947
 20
56.6543061721
 30
0.0
 11
97.1015954744
 21
58.5092551464
 31
0.0
  0
LINE
  5
38
330
1F
100
AcDbEntity
  8
0
  6
Continuous
 62
     7
370
     0
100
AcDbLine
 10
97.1015954744
 20
58.5092551464
 30
0.0
 11
78.9176333665
 21
58.5092551464
 31
0.0
  0
LINE
  5
39
330
1F
100
AcDbEntity
  8
0
  6
Continuous
 62
     7
370
     0
100
AcDbLine
 10
78.9176333665
 20
58.5092551464
 30
0.0
 11
79.4146654462
 21
56.6543061721
 31
0.0
  0
LINE
  5
3A
330
1F
100
AcDbEntity
  8
0
  6
Continuous
 62
     7
370
     0
100
AcDbLine
 10
79.4146654462
 20
56.6543061721
 30
0.0
 11
79.2096144205
 21
56.4492551464
 31
0.0
  0
LINE
  5
3B
330
1F
100
AcDbEntity
  8
0
  6
Continuous
 62
     7
370
     0
100
AcDbLine
 10
79.2096144205
 20
56.4492551464
 30
0.0
 11
79.2096144205
 21
55.6835742681
 31
0.0
  0
ARC
  5
3C
330
1F
100
AcDbEntity
  8
0
  6
Continuous
 62
     7
370
     0
100
AcDbCircle
 10
78.7676144205
 20
53.4162551464
 30
0.0
 40
2.31000000000629
100
AcDbArc
 50
13.0990978512
 51
78.9688883588
  0
LINE
  5
3D
330
1F
100
AcDbEntity
  8
0
  6
Continuous
 62
     7
370
     0
100
AcDbLine
 10
81.0175071484
 20
53.939784241
 30
0.0
 11
82.1096144205
 21
53.3092551464
 31
0.0
  0
LINE
  5
3E
330
1F
100
AcDbEntity
  8
0
  6
Continuous
 62
     7
370
     0
100
AcDbLine
 10
82.1096144205
 20
53.3092551464
 30
0.0
 11
82.1096144205
 21
46.4092551464
 31
0.0
  0
LINE
  5
3F
330
1F
100
AcDbEntity
  8
0
  6
Continuous
 62
     7
370
     0
100
AcDbLine
 10
82.1096144205
 20
46.4092551464
 30
0.0
 11
81.0177755874
 21
45.7788810248
 31
0.0
  0
ARC
  5
40
330
1F
100
AcDbEntity
  8
0
  6
Continuous
 62
     7
370
     0
100
AcDbCircle
 10
78.7676144205
 20
46.3012551464
 30
0.0
 40
2.310000000000712
100
AcDbArc
 50
281.0311116411
 51
346.9303129431
  0
LINE
  5
41
330
1F
100
AcDbEntity
  8
0
  6
Continuous
 62
     7
370
     0
100
AcDbLine
 10
79.2096144205
 20
44.0339360246
 30
0.0
 11
79.2096144205
 21
42.1592551464
 31
0.0
  0
LINE
  5
42
330
1F
100
AcDbEntity
  8
0
  6
Continuous
 62
     7
370
     0
100
AcDbLine
 10
68.0296144205
 20
42.1592551464
 30
0.0
 11
79.2096144205
 21
42.1592551464
 31
0.0
  0
LINE
  5
43
330
1F
100
AcDbEntity
  8
0
  6
Continuous
 62
     7
370
     0
100
AcDbLine
 10
66.8096144205
 20
43.3792551464
 30
0.0
 11
68.0296144205
 21
42.1592551464
 31
0.0
  0
LINE
  5
44
330
1F
100
AcDbEntity
  8
0
  6
Continuous
 62
     7
370
     0
100
AcDbLine
 10
83.2596144205
 20
66.6092551464
 30
0.0
 11
67.8096144205
 21
66.6092551464
 31
0.0
  0
LINE
  5
45
330
1F
100
AcDbEntity
  8
0
  6
Continuous
 62
     7
370
     0
100
AcDbLine
 10
83.5096144205
 20
66.8592551464
 30
0.0
 11
83.2596144205
 21
66.6092551464
 31
0.0
  0
LINE
  5
46
330
1F
100
AcDbEntity
  8
0
  6
Continuous
 62
     7
370
     0
100
AcDbLine
 10
92.5096144205
 20
66.8592551464
 30
0.0
 11
83.5096144205
 21
66.8592551464
 31
0.0
  0
LINE
  5
47
330
1F
100
AcDbEntity
  8
0
  6
Continuous
 62
     7
370
     0
100
AcDbLine
 10
92.7596144205
 20
66.6092551464
 30
0.0
 11
92.5096144205
 21
66.8592551464
 31
0.0
  0
LINE
  5
48
330
1F
100
AcDbEntity
  8
0
  6
Continuous
 62
     7
370
     0
100
AcDbLine
 10
108.2096144205
 20
66.6092551464
 30
0.0
 11
92.7596144205
 21
66.6092551464
 31
0.0
  0
LINE
  5
49
330
1F
100
AcDbEntity
  8
0
  6
Continuous
 62
     7
370
     0
100
AcDbLine
 10
107.9896144205
 20
42.1592551464
 30
0.0
 11
109.2096144205
 21
43.3792551464
 31
0.0
  0
LINE
  5
4A
330
1F
100
AcDbEntity
  8
0
  6
Continuous
 62
     7
370
     0
100
AcDbLine
 10
96.8096144205
 20
42.1592551464
 30
0.0
 11
107.9896144205
 21
42.1592551464
 31
0.0
  0
LINE
  5
4B
330
1F
100
AcDbEntity
  8
0
  6
Continuous
 62
     7
370
     0
100
AcDbLine
 10
96.8096144205
 20
42.1592551464
 30
0.0
 11
96.8096144205
 21
44.0339360246
 31
0.0
  0
CIRCLE
  5
4C
330
1F
100
AcDbEntity
  8
0
  6
Continuous
 62
     7
370
     0
100
AcDbCircle
 10
71.7596144205
 20
60.1592551464
 30
0.0
 40
1.650000000000006
  0
CIRCLE
  5
4D
330
1F
100
AcDbEntity
  8
0
  6
Continuous
 62
     7
370
     0
100
AcDbCircle
 10
104.2596144205
 20
60.1592551464
 30
0.0
 40
1.649999999999977
  0
LINE
  5
4E
330
1F
100
AcDbEntity
  8
0
  6
Continuous
 62
     7
370
     0
100
AcDbLine
 10
96.8096144205
 20
55.6835742681
 30
0.0
 11
96.8096144205
 21
56.4492551464
 31
0.0
  0
ARC
  5
4F
330
1F
100
AcDbEntity
  8
0
  6
Continuous
 62
     7
370
     0
100
AcDbCircle
 10
67.8096144205
 20
65.6092551464
 30
0.0
 40
1.000000000000014
100
AcDbArc
 50
90.0
 51
180.0
  0
LINE
  5
50
330
1F
100
AcDbEntity
  8
0
  6
Continuous
 62
     7
370
     0
100
AcDbLine
 10
66.8096144205
 20
65.6092551464
 30
0.0
 11
66.8096144205
 21
43.3792551464
 31
0.0
  0
ARC
  5
51
330
1F
100
AcDbEntity
  8
0
  6
Continuous
 62
     7
370
     0
100
AcDbCircle
 10
108.2096144205
 20
65.6092551464
 30
0.0
 40
1.000000000000014
100
AcDbArc
 50
0.0
 51
90.0
  0
LINE
  5
52
330
1F
100
AcDbEntity
  8
0
  6
Continuous
 62
     7
370
     0
100
AcDbLine
 10
109.2096144205
 20
43.3792551464
 30
0.0
 11
109.2096144205
 21
65.6092551464
 31
0.0
  0
CIRCLE
  5
53
330
1F
100
AcDbEntity
  8
0
  6
Continuous
 62
     7
370
     0
100
AcDbCircle
 10
104.2596144205
 20
60.1592551464
 30
0.0
 40
1.249999999999986
  0
CIRCLE
  5
54
330
1F
100
AcDbEntity
  8
0
  6
Continuous
 62
     7
370
     0
100
AcDbCircle
 10
71.7596144205
 20
60.1592551464
 30
0.0
 40
1.250000000000014
  0
LINE
  5
55
330
1F
100
AcDbEntity
  8
0
  6
Continuous
 62
     7
370
     0
100
AcDbLine
 10
96.8096144205
 20
42.1592551464
 30
0.0
 11
96.8096144205
 21
42.1092551464
 31
0.0
  0
LINE
  5
56
330
1F
100
AcDbEntity
  8
0
  6
Continuous
 62
     7
370
     0
100
AcDbLine
 10
79.2096144205
 20
42.1092551464
 30
0.0
 11
79.2096144205
 21
42.1592551464
 31
0.0
  0
LINE
  5
57
330
1F
100
AcDbEntity
  8
0
  6
Continuous
 62
     7
370
     0
100
AcDbLine
 10
68.0096144205
 20
42.1092551464
 30
0.0
 11
79.2096144205
 21
42.1092551464
 31
0.0
  0
LINE
  5
58
330
1F
100
AcDbEntity
  8
0
  6
Continuous
 62
     7
370
     0
100
AcDbLine
 10
66.5096144205
 20
59.7592551464
 30
0.0
 11
66.5096144205
 21
43.6092551464
 31
0.0
  0
LINE
  5
59
330
1F
100
AcDbEntity
  8
0
  6
Continuous
 62
     7
370
     0
100
AcDbLine
 10
58.5096144205
 20
59.7592551464
 30
0.0
 11
66.5096144205
 21
59.7592551464
 31
0.0
  0
LINE
  5
5A
330
1F
100
AcDbEntity
  8
0
  6
Continuous
 62
     7
370
     0
100
AcDbLine
 10
58.5096144205
 20
61.4592551464
 30
0.0
 11
58.5096144205
 21
59.7592551464
 31
0.0
  0
LINE
  5
5B
330
1F
100
AcDbEntity
  8
0
  6
Continuous
 62
     7
370
     0
100
AcDbLine
 10
119.5096144205
 20
59.7592551464
 30
0.0
 11
119.5096144205
 21
66.6592551464
 31
0.0
  0
LINE
  5
5C
330
1F
100
AcDbEntity
  8
0
  6
Continuous
 62
     7
370
     0
100
AcDbLine
 10
109.5096144205
 20
59.7592551464
 30
0.0
 11
119.5096144205
 21
59.7592551464
 31
0.0
  0
LINE
  5
5D
330
1F
100
AcDbEntity
  8
0
  6
Continuous
 62
     7
370
     0
100
AcDbLine
 10
109.5096144205
 20
43.6092551464
 30
0.0
 11
109.5096144205
 21
59.7592551464
 31
0.0
  0
LINE
  5
5E
330
1F
100
AcDbEntity
  8
0
  6
Continuous
 62
     7
370
     0
100
AcDbLine
 10
119.5096144205
 20
66.6592551464
 30
0.0
 11
118.7096144205
 21
67.4592551464
 31
0.0
  0
LINE
  5
5F
330
1F
100
AcDbEntity
  8
0
  6
Continuous
 62
     7
370
     0
100
AcDbLine
 10
108.0096144205
 20
42.1092551464
 30
0.0
 11
109.5096144205
 21
43.6092551464
 31
0.0
  0
LINE
  5
60
330
1F
100
AcDbEntity
  8
0
  6
Continuous
 62
     7
370
     0
100
AcDbLine
 10
66.5096144205
 20
43.6092551464
 30
0.0
 11
68.0096144205
 21
42.1092551464
 31
0.0
  0
LINE
  5
61
330
1F
100
AcDbEntity
  8
0
  6
Continuous
 62
     7
370
     0
100
AcDbLine
 10
109.6596144205
 20
67.4592551464
 30
0.0
 11
109.2596144205
 21
67.0592551464
 31
0.0
  0
LINE
  5
62
330
1F
100
AcDbEntity
  8
0
  6
Continuous
 62
     7
370
     0
100
AcDbLine
 10
96.8096144205
 20
42.1092551464
 30
0.0
 11
108.0096144205
 21
42.1092551464
 31
0.0
  0
LINE
  5
63
330
1F
100
AcDbEntity
  8
0
  6
Continuous
 62
     7
370
     0
100
AcDbLine
 10
118.7096144205
 20
67.4592551464
 30
0.0
 11
109.6596144205
 21
67.4592551464
 31
0.0
  0
LINE
  5
64
330
1F
100
AcDbEntity
  8
0
  6
Continuous
 62
     7
370
     0
100
AcDbLine
 10
66.3596144205
 20
67.4592551464
 30
0.0
 11
57.3096144205
 21
67.4592551464
 31
0.0
  0
LINE
  5
65
330
1F
100
AcDbEntity
  8
0
  6
Continuous
 62
     7
370
     0
100
AcDbLine
 10
109.2596144205
 20
67.0592551464
 30
0.0
 11
93.2596144205
 21
67.0592551464
 31
0.0
  0
LINE
  5
66
330
1F
100
AcDbEntity
  8
0
  6
Continuous
 62
     7
370
     0
100
AcDbLine
 10
66.7596144205
 20
67.0592551464
 30
0.0
 11
66.3596144205
 21
67.4592551464
 31
0.0
  0
LINE
  5
67
330
1F
100
AcDbEntity
  8
0
  6
Continuous
 62
     7
370
     0
100
AcDbLine
 10
82.7596144205
 20
67.0592551464
 30
0.0
 11
66.7596144205
 21
67.0592551464
 31
0.0
  0
LINE
  5
68
330
1F
100
AcDbEntity
  8
0
  6
Continuous
 62
     7
370
     0
100
AcDbLine
 10
83.1596144205
 20
67.4592551464
 30
0.0
 11
82.7596144205
 21
67.0592551464
 31
0.0
  0
LINE
  5
69
330
1F
100
AcDbEntity
  8
0
  6
Continuous
 62
     7
370
     0
100
AcDbLine
 10
93.2596144205
 20
67.0592551464
 30
0.0
 11
92.8596144205
 21
67.4592551464
 31
0.0
  0
LINE
  5
6A
330
1F
100
AcDbEntity
  8
0
  6
Continuous
 62
     7
370
     0
100
AcDbLine
 10
57.3096144205
 20
67.4592551464
 30
0.0
 11
56.5096144205
 21
66.6592551464
 31
0.0
  0
LINE
  5
6B
330
1F
100
AcDbEntity
  8
0
  6
Continuous
 62
     7
370
     0
100
AcDbLine
 10
56.5096144205
 20
63.4592551464
 30
0.0
 11
58.5096144205
 21
61.4592551464
 31
0.0
  0
LINE
  5
6C
330
1F
100
AcDbEntity
  8
0
  6
Continuous
 62
     7
370
     0
100
AcDbLine
 10
56.5096144205
 20
66.6592551464
 30
0.0
 11
56.5096144205
 21
63.4592551464
 31
0.0
  0
LINE
  5
6D
330
1F
100
AcDbEntity
  8
0
  6
Continuous
 62
     7
370
     0
100
AcDbLine
 10
92.8596144205
 20
67.4592551464
 30
0.0
 11
83.1596144205
 21
67.4592551464
 31
0.0
  0
LINE
  5
6E
330
1F
100
AcDbEntity
  8
0
  6
Continuous
 62
     7
370
     0
100
AcDbLine
 10
64.5596144205
 20
59.7592551464
 30
0.0
 11
58.5096144205
 21
59.7592551464
 31
0.0
  0
LINE
  5
6F
330
1F
100
AcDbEntity
  8
0
  6
Continuous
 62
     7
370
     0
100
AcDbLine
 10
61.5096144205
 20
48.6092551464
 30
0.0
 11
61.5096144205
 21
59.7592551464
 31
0.0
  0
LINE
  5
70
330
1F
100
AcDbEntity
  8
0
  6
Continuous
 62
     7
370
     0
100
AcDbLine
 10
66.5096144205
 20
43.6092551464
 30
0.0
 11
61.5096144205
 21
48.6092551464
 31
0.0
  0
LINE
  5
71
330
1F
100
AcDbEntity
  8
0
  6
Continuous
 62
     7
370
     0
100
AcDbLine
 10
114.5096144205
 20
48.6092551464
 30
0.0
 11
114.5096144205
 21
59.7592551464
 31
0.0
  0
LINE
  5
72
330
1F
100
AcDbEntity
  8
0
  6
Continuous
 62
     7
370
     0
100
AcDbLine
 10
114.5096144205
 20
48.6092551464
 30
0.0
 11
109.5096144205
 21
43.6092551464
 31
0.0
  0
LINE
  5
73
330
1F
100
AcDbEntity
  8
0
  6
Continuous
 62
     7
370
     0
100
AcDbLine
 10
119.5096144205
 20
53.6092551464
 30
0.0
 11
119.5096144205
 21
59.7592551464
 31
0.0
  0
LINE
  5
74
330
1F
100
AcDbEntity
  8
0
  6
Continuous
 62
     7
370
     0
100
AcDbLine
 10
119.5096144205
 20
53.6092551464
 30
0.0
 11
114.5096144205
 21
48.6092551464
 31
0.0
  0
LINE
  5
75
330
1F
100
AcDbEntity
  8
0
  6
Continuous
 62
     7
370
     0
100
AcDbLine
 10
58.5096144205
 20
51.6092551464
 30
0.0
 11
58.5096144205
 21
59.7592551464
 31
0.0
  0
LINE
  5
76
330
1F
100
AcDbEntity
  8
0
  6
Continuous
 62
     7
370
     0
100
AcDbLine
 10
61.5096144205
 20
48.6092551464
 30
0.0
 11
58.5096144205
 21
51.6092551464
 31
0.0
  0
INSERT
  5
82
330
1F
100
AcDbEntity
  8
0
  6
Continuous
 62
     7
370
     0
100
AcDbBlockReference
  2
SW_CENTERMARKSYMBOL_0
 10
71.7596144205
 20
60.1592551464
 30
0.0
  0
INSERT
  5
8E
330
1F
100
AcDbEntity
  8
0
  6
Continuous
 62
     7
370
     0
100
AcDbBlockReference
  2
SW_CENTERMARKSYMBOL_1
 10
104.2596144205
 20
60.1592551464
 30
0.0
  0
INSERT
  5
9A
330
1F
100
AcDbEntity
  8
0
  6
Continuous
 62
     7
370
     0
100
AcDbBlockReference
  2
SW_CENTERMARKSYMBOL_2
 10
88.0096144205
 20
64.1092551464
 30
0.0
  0
ARC
  5
9B
330
1F
100
AcDbEntity
  8
0
  6
Continuous
 62
     7
370
     0
100
AcDbCircle
 10
104.2596144205
 20
60.1592551464
 30
0.0
 40
1.500000000000011
100
AcDbArc
 50
255.0
 51
195.0
  0
ARC
  5
9C
330
1F
100
AcDbEntity
  8
0
  6
Continuous
 62
     7
370
     0
100
AcDbCircle
 10
104.2596144205
 20
60.1592551464
 30
0.0
 40
1.500000000000011
100
AcDbArc
 50
255.0
 51
195.0
  0
ARC
  5
9D
330
1F
100
AcDbEntity
  8
0
  6
Continuous
 62
     7
370
     0
100
AcDbCircle
 10
71.7596144205
 20
60.1592551464
 30
0.0
 40
1.499999999999997
100
AcDbArc
 50
255.0
 51
195.0
  0
ARC
  5
9E
330
1F
100
AcDbEntity
  8
0
  6
Continuous
 62
     7
370
     0
100
AcDbCircle
 10
71.7596144205
 20
60.1592551464
 30
0.0
 40
1.499999999999997
100
AcDbArc
 50
255.0
 51
195.0
  0
ARC
  5
9F
330
1F
100
AcDbEntity
  8
0
  6
Continuous
 62
     7
370
     0
100
AcDbCircle
 10
88.0096144205
 20
64.1092551464
 30
0.0
 40
1.499999999999994
100
AcDbArc
 50
255.0
 51
195.0
  0
ARC
  5
A0
330
1F
100
AcDbEntity
  8
0
  6
Continuous
 62
     7
370
     0
100
AcDbCircle
 10
88.0096144205
 20
64.1092551464
 30
0.0
 40
1.499999999999994
100
AcDbArc
 50
255.0
 51
195.0
  0
LINE
  5
A1
330
1F
100
AcDbEntity
  8
0
  6
Continuous
 62
     7
370
     0
100
AcDbLine
 10
217.9096394205
 20
66.6092551464
 30
0.0
 11
205.2096394205
 21
66.6092551464
 31
0.0
  0
LINE
  5
A2
330
1F
100
AcDbEntity
  8
0
  6
Continuous
 62
     7
370
     0
100
AcDbLine
 10
217.9096394205
 20
65.6092551464
 30
0.0
 11
217.9096394205
 21
66.6092551464
 31
0.0
  0
LINE
  5
A3
330
1F
100
AcDbEntity
  8
0
  6
Continuous
 62
     7
370
     0
100
AcDbLine
 10
217.9096394205
 20
65.6092551464
 30
0.0
 11
212.8970257747
 21
65.6092551464
 31
0.0
  0
ARC
  5
A4
330
1F
100
AcDbEntity
  8
0
  6
Continuous
 62
     7
370
     0
100
AcDbCircle
 10
212.2096394205
 20
64.776493639
 30
0.0
 40
1.079810968701694
100
AcDbArc
 50
50.4627113348
 51
129.5372886652
  0
LINE
  5
A5
330
1F
100
AcDbEntity
  8
0
  6
Continuous
 62
     7
370
     0
100
AcDbLine
 10
211.5222530662
 20
65.6092551464
 30
0.0
 11
205.2096394205
 21
65.6092551464
 31
0.0
  0
LINE
  5
A6
330
1F
100
AcDbEntity
  8
0
  6
Continuous
 62
     7
370
     0
100
AcDbLine
 10
217.9096394205
 20
43.3792551464
 30
0.0
 11
217.9096394205
 21
65.6092551464
 31
0.0
  0
LINE
  5
A7
330
1F
100
AcDbEntity
  8
0
  6
Continuous
 62
     7
370
     0
100
AcDbLine
 10
217.9096394205
 20
43.3792551464
 30
0.0
 11
205.2096394205
 21
43.3792551464
 31
0.0
  0
ARC
  5
A8
330
1F
100
AcDbEntity
  8
0
  6
Continuous
 62
     7
370
     0
100
AcDbCircle
 10
212.2096394205
 20
64.1092551464
 30
0.0
 40
1.649999999999981
100
AcDbArc
 50
114.6199773287
 51
65.3800226713
  0
SPLINE
  5
A9
330
1F
100
AcDbEntity
  8
0
  6
Continuous
 62
     7
370
     0
100
AcDbSpline
210
0.0
220
0.0
230
1.0
 70
    24
 71
     3
 72
     8
 73
     4
 74
     0
 42
0.00000001
 43
0.00000001
 40
0.0
 40
0.0
 40
0.0
 40
0.0
 40
1.0
 40
1.0
 40
1.0
 40
1.0
 10
211.5222530662154
 20
65.60925514636325
 30
0.0
 10
211.5777994382754
 20
65.48804302515114
 30
0.0
 10
211.6333458103355
 20
65.36683090393902
 30
0.0
 10
211.6888921823956
 20
65.24561878272691
 30
0.0
  0
ARC
  5
AA
330
1F
100
AcDbEntity
  8
0
  6
Continuous
 62
     7
370
     0
100
AcDbCircle
 10
212.2096394205
 20
64.1092551464
 30
0.0
 40
1.250000000000017
100
AcDbArc
 50
114.6199773287
 51
65.3800226713
  0
SPLINE
  5
AB
330
1F
100
AcDbEntity
  8
0
  6
Continuous
 62
     7
370
     0
100
AcDbSpline
210
0.0
220
0.0
230
1.0
 70
    24
 71
     3
 72
     8
 73
     4
 74
     0
 42
0.00000001
 43
0.00000001
 40
0.0
 40
0.0
 40
0.0
 40
0.0
 40
1.0
 40
1.0
 40
1.0
 40
1.0
 10
212.7303866585218
 20
65.24561878272691
 30
0.0
 10
212.7859330305819
 20
65.36683090393902
 30
0.0
 10
212.841479402642
 20
65.48804302515114
 30
0.0
 10
212.897025774702
 20
65.60925514636325
 30
0.0
  0
ARC
  5
AC
330
1F
100
AcDbEntity
  8
0
  6
Continuous
 62
     7
370
     0
100
AcDbCircle
 10
212.2096394205
 20
64.1092551464
 30
0.0
 40
1.250000000000069
100
AcDbArc
 50
65.3800226713
 51
114.6199773287
  0
LINE
  5
AD
330
1F
100
AcDbEntity
  8
0
  6
Continuous
 62
     7
370
     0
100
AcDbLine
 10
217.9096394205
 20
42.1592551464
 30
0.0
 11
205.2096394205
 21
42.1592551464
 31
0.0
  0
LINE
  5
AE
330
1F
100
AcDbEntity
  8
0
  6
Continuous
 62
     7
370
     0
100
AcDbLine
 10
217.9096394205
 20
42.1592551464
 30
0.0
 11
217.9096394205
 21
43.3792551464
 31
0.0
  0
LINE
  5
AF
330
1F
100
AcDbEntity
  8
0
  6
Continuous
 62
     7
370
     0
100
AcDbLine
 10
217.9096394205
 20
66.8592551464
 30
0.0
 11
205.2096394205
 21
66.8592551464
 31
0.0
  0
LINE
  5
B0
330
1F
100
AcDbEntity
  8
0
  6
Continuous
 62
     7
370
     0
100
AcDbLine
 10
217.9096394205
 20
66.6092551464
 30
0.0
 11
217.9096394205
 21
66.8592551464
 31
0.0
  0
LINE
  5
B1
330
1F
100
AcDbEntity
  8
0
  6
Continuous
 62
     7
370
     0
100
AcDbLine
 10
142.9096394205
 20
65.6092551464
 30
0.0
 11
142.9096394205
 21
66.6092551464
 31
0.0
  0
LINE
  5
B2
330
1F
100
AcDbEntity
  8
0
  6
Continuous
 62
     7
370
     0
100
AcDbLine
 10
142.9096394205
 20
66.6092551464
 30
0.0
 11
155.6096394205
 21
66.6092551464
 31
0.0
  0
LINE
  5
B3
330
1F
100
AcDbEntity
  8
0
  6
Continuous
 62
     7
370
     0
100
AcDbLine
 10
149.2970257747
 20
65.6092551464
 30
0.0
 11
155.6096394205
 21
65.6092551464
 31
0.0
  0
ARC
  5
B4
330
1F
100
AcDbEntity
  8
0
  6
Continuous
 62
     7
370
     0
100
AcDbCircle
 10
148.6096394205
 20
64.7764936024
 30
0.0
 40
1.079810996955709
100
AcDbArc
 50
50.4627125723
 51
129.5372874277
  0
LINE
  5
B5
330
1F
100
AcDbEntity
  8
0
  6
Continuous
 62
     7
370
     0
100
AcDbLine
 10
142.9096394205
 20
65.6092551464
 30
0.0
 11
147.9222530662
 21
65.6092551464
 31
0.0
  0
LINE
  5
B6
330
1F
100
AcDbEntity
  8
0
  6
Continuous
 62
     7
370
     0
100
AcDbLine
 10
142.9096394205
 20
43.3792551464
 30
0.0
 11
155.6096394205
 21
43.3792551464
 31
0.0
  0
LINE
  5
B7
330
1F
100
AcDbEntity
  8
0
  6
Continuous
 62
     7
370
     0
100
AcDbLine
 10
142.9096394205
 20
43.3792551464
 30
0.0
 11
142.9096394205
 21
65.6092551464
 31
0.0
  0
ARC
  5
B8
330
1F
100
AcDbEntity
  8
0
  6
Continuous
 62
     7
370
     0
100
AcDbCircle
 10
148.6096394205
 20
64.1092551464
 30
0.0
 40
1.649999999999993
100
AcDbArc
 50
114.6199773287
 51
65.3800226713
  0
ARC
  5
B9
330
1F
100
AcDbEntity
  8
0
  6
Continuous
 62
     7
370
     0
100
AcDbCircle
 10
148.6096394205
 20
64.1092551464
 30
0.0
 40
1.250000000000006
100
AcDbArc
 50
114.6199773287
 51
65.3800226713
  0
SPLINE
  5
BA
330
1F
100
AcDbEntity
  8
0
  6
Continuous
 62
     7
370
     0
100
AcDbSpline
210
0.0
220
0.0
230
1.0
 70
    24
 71
     3
 72
     8
 73
     4
 74
     0
 42
0.00000001
 43
0.00000001
 40
0.0
 40
0.0
 40
0.0
 40
0.0
 40
1.0
 40
1.0
 40
1.0
 40
1.0
 10
149.1303866585218
 20
65.24561878272691
 30
0.0
 10
149.1859330305819
 20
65.36683090393902
 30
0.0
 10
149.241479402642
 20
65.48804302515114
 30
0.0
 10
149.2970257747021
 20
65.60925514636325
 30
0.0
  0
SPLINE
  5
BB
330
1F
100
AcDbEntity
  8
0
  6
Continuous
 62
     7
370
     0
100
AcDbSpline
210
0.0
220
0.0
230
1.0
 70
    24
 71
     3
 72
     8
 73
     4
 74
     0
 42
0.00000001
 43
0.00000001
 40
0.0
 40
0.0
 40
0.0
 40
0.0
 40
1.0
 40
1.0
 40
1.0
 40
1.0
 10
147.9222530662154
 20
65.60925514636325
 30
0.0
 10
147.9777994382755
 20
65.48804302515114
 30
0.0
 10
148.0333458103355
 20
65.36683090393902
 30
0.0
 10
148.0888921823956
 20
65.24561878272691
 30
0.0
  0
ARC
  5
BC
330
1F
100
AcDbEntity
  8
0
  6
Continuous
 62
     7
370
     0
100
AcDbCircle
 10
148.6096394205
 20
64.1092551464
 30
0.0
 40
1.250000000000044
100
AcDbArc
 50
65.3800226713
 51
114.6199773287
  0
LINE
  5
BD
330
1F
100
AcDbEntity
  8
0
  6
Continuous
 62
     7
370
     0
100
AcDbLine
 10
142.9096394205
 20
42.1592551464
 30
0.0
 11
155.6096394205
 21
42.1592551464
 31
0.0
  0
LINE
  5
BE
330
1F
100
AcDbEntity
  8
0
  6
Continuous
 62
     7
370
     0
100
AcDbLine
 10
142.9096394205
 20
42.1592551464
 30
0.0
 11
142.9096394205
 21
43.3792551464
 31
0.0
  0
LINE
  5
BF
330
1F
100
AcDbEntity
  8
0
  6
Continuous
 62
     7
370
     0
100
AcDbLine
 10
142.9096394205
 20
66.8592551464
 30
0.0
 11
155.6096394205
 21
66.8592551464
 31
0.0
  0
LINE
  5
C0
330
1F
100
AcDbEntity
  8
0
  6
Continuous
 62
     7
370
     0
100
AcDbLine
 10
142.9096394205
 20
66.6092551464
 30
0.0
 11
142.9096394205
 21
66.8592551464
 31
0.0
  0
LINE
  5
C1
330
1F
100
AcDbEntity
  8
0
  6
Continuous
 62
     7
370
     0
100
AcDbLine
 10
155.6096394205
 20
42.1092551464
 30
0.0
 11
205.2096394205
 21
42.1092551464
 31
0.0
  0
LINE
  5
C2
330
1F
100
AcDbEntity
  8
0
  6
Continuous
 62
     7
370
     0
100
AcDbLine
 10
155.6096394205
 20
42.1092551464
 30
0.0
 11
155.6096394205
 21
43.6092551464
 31
0.0
  0
LINE
  5
C3
330
1F
100
AcDbEntity
  8
0
  6
Continuous
 62
     7
370
     0
100
AcDbLine
 10
160.4096394205
 20
43.6092551464
 30
0.0
 11
155.6096394205
 21
43.6092551464
 31
0.0
  0
ARC
  5
C4
330
1F
100
AcDbEntity
  8
0
  6
Continuous
 62
     7
370
     0
100
AcDbCircle
 10
160.4096394205
 20
48.6092551464
 30
0.0
 40
4.999999999999922
100
AcDbArc
 50
270.0
 51
0.0
  0
LINE
  5
C5
330
1F
100
AcDbEntity
  8
0
  6
Continuous
 62
     7
370
     0
100
AcDbLine
 10
165.4096394205
 20
53.6092551464
 30
0.0
 11
165.4096394205
 21
48.6092551464
 31
0.0
  0
LINE
  5
C6
330
1F
100
AcDbEntity
  8
0
  6
Continuous
 62
     7
370
     0
100
AcDbLine
 10
165.4096394205
 20
53.6092551464
 30
0.0
 11
195.4096394205
 21
53.6092551464
 31
0.0
  0
LINE
  5
C7
330
1F
100
AcDbEntity
  8
0
  6
Continuous
 62
     7
370
     0
100
AcDbLine
 10
195.4096394205
 20
48.6092551464
 30
0.0
 11
195.4096394205
 21
53.6092551464
 31
0.0
  0
ARC
  5
C8
330
1F
100
AcDbEntity
  8
0
  6
Continuous
 62
     7
370
     0
100
AcDbCircle
 10
200.4096394205
 20
48.6092551464
 30
0.0
 40
4.999999999999972
100
AcDbArc
 50
180.0
 51
270.0
  0
LINE
  5
C9
330
1F
100
AcDbEntity
  8
0
  6
Continuous
 62
     7
370
     0
100
AcDbLine
 10
205.2096394205
 20
43.6092551464
 30
0.0
 11
200.4096394205
 21
43.6092551464
 31
0.0
  0
LINE
  5
CA
330
1F
100
AcDbEntity
  8
0
  6
Continuous
 62
     7
370
     0
100
AcDbLine
 10
205.2096394205
 20
42.1092551464
 30
0.0
 11
205.2096394205
 21
43.6092551464
 31
0.0
  0
LINE
  5
CB
330
1F
100
AcDbEntity
  8
0
  6
Continuous
 62
     7
370
     0
100
AcDbLine
 10
165.4096394205
 20
53.6092551464
 30
0.0
 11
165.4096394205
 21
59.7592551464
 31
0.0
  0
LINE
  5
CC
330
1F
100
AcDbEntity
  8
0
  6
Continuous
 62
     7
370
     0
100
AcDbLine
 10
155.6096394205
 20
59.7592551464
 30
0.0
 11
165.4096394205
 21
59.7592551464
 31
0.0
  0
LINE
  5
CD
330
1F
100
AcDbEntity
  8
0
  6
Continuous
 62
     7
370
     0
100
AcDbLine
 10
155.6096394205
 20
59.7592551464
 30
0.0
 11
155.6096394205
 21
66.6592551464
 31
0.0
  0
LINE
  5
CE
330
1F
100
AcDbEntity
  8
0
  6
Continuous
 62
     7
370
     0
100
AcDbLine
 10
155.6096394205
 20
66.6592551464
 30
0.0
 11
205.2096394205
 21
66.6592551464
 31
0.0
  0
LINE
  5
CF
330
1F
100
AcDbEntity
  8
0
  6
Continuous
 62
     7
370
     0
100
AcDbLine
 10
205.2096394205
 20
59.7592551464
 30
0.0
 11
205.2096394205
 21
66.6592551464
 31
0.0
  0
LINE
  5
D0
330
1F
100
AcDbEntity
  8
0
  6
Continuous
 62
     7
370
     0
100
AcDbLine
 10
195.4096394205
 20
59.7592551464
 30
0.0
 11
205.2096394205
 21
59.7592551464
 31
0.0
  0
LINE
  5
D1
330
1F
100
AcDbEntity
  8
0
  6
Continuous
 62
     7
370
     0
100
AcDbLine
 10
195.4096394205
 20
53.6092551464
 30
0.0
 11
195.4096394205
 21
59.7592551464
 31
0.0
  0
LINE
  5
D2
330
1F
100
AcDbEntity
  8
0
  6
Continuous
 62
     7
370
     0
100
AcDbLine
 10
155.6096394205
 20
66.6592551464
 30
0.0
 11
155.6096394205
 21
67.4592551464
 31
0.0
  0
LINE
  5
D3
330
1F
100
AcDbEntity
  8
0
  6
Continuous
 62
     7
370
     0
100
AcDbLine
 10
155.6096394205
 20
67.4592551464
 30
0.0
 11
205.2096394205
 21
67.4592551464
 31
0.0
  0
LINE
  5
D4
330
1F
100
AcDbEntity
  8
0
  6
Continuous
 62
     7
370
     0
100
AcDbLine
 10
205.2096394205
 20
66.6592551464
 30
0.0
 11
205.2096394205
 21
67.4592551464
 31
0.0
  0
LINE
  5
D5
330
1F
100
AcDbEntity
  8
0
  6
Continuous
 62
     7
370
     0
100
AcDbLine
 10
200.4096394205
 20
43.6092551464
 30
0.0
 11
200.4096394205
 21
59.7592551464
 31
0.0
  0
LINE
  5
D6
330
1F
100
AcDbEntity
  8
0
  6
Continuous
 62
     7
370
     0
100
AcDbLine
 10
160.4096394205
 20
43.6092551464
 30
0.0
 11
160.4096394205
 21
59.7592551464
 31
0.0
  0
LINE
  5
D7
330
1F
100
AcDbEntity
  8
0
  6
Continuous
 62
     7
370
     0
100
AcDbLine
 10
205.2096394205
 20
43.6092551464
 30
0.0
 11
205.2096394205
 21
59.7592551464
 31
0.0
  0
LINE
  5
D8
330
1F
100
AcDbEntity
  8
0
  6
Continuous
 62
     7
370
     0
100
AcDbLine
 10
155.6096394205
 20
43.6092551464
 30
0.0
 11
155.6096394205
 21
59.7592551464
 31
0.0
  0
LINE
  5
D9
330
1F
100
AcDbEntity
  8
0
  6
HIDDEN
 62
     7
370
     0
100
AcDbLine
 10
159.9096394205
 20
62.2592551464
 30
0.0
 11
159.9096394205
 21
67.4092551464
 31
0.0
  0
LINE
  5
DA
330
1F
100
AcDbEntity
  8
0
  6
HIDDEN
 62
     7
370
     0
100
AcDbLine
 10
165.9096394205
 20
62.2592551464
 30
0.0
 11
165.9096394205
 21
67.4092551464
 31
0.0
  0
LINE
  5
DB
330
1F
100
AcDbEntity
  8
0
  6
HIDDEN
 62
     7
370
     0
100
AcDbLine
 10
194.9096394205
 20
62.2592551464
 30
0.0
 11
194.9096394205
 21
67.4092551464
 31
0.0
  0
LINE
  5
DC
330
1F
100
AcDbEntity
  8
0
  6
HIDDEN
 62
     7
370
     0
100
AcDbLine
 10
200.9096394205
 20
62.2592551464
 30
0.0
 11
200.9096394205
 21
67.4092551464
 31
0.0
  0
LINE
  5
DD
330
1F
100
AcDbEntity
  8
0
  6
HIDDEN
 62
     7
370
     0
100
AcDbLine
 10
143.0596394205
 20
61.6592551464
 30
0.0
 11
148.9096394205
 21
61.6592551464
 31
0.0
  0
LINE
  5
DE
330
1F
100
AcDbEntity
  8
0
  6
HIDDEN
 62
     7
370
     0
100
AcDbLine
 10
143.0596394205
 20
58.6592551464
 30
0.0
 11
148.9096394205
 21
58.6592551464
 31
0.0
  0
LINE
  5
DF
330
1F
100
AcDbEntity
  8
0
  6
HIDDEN
 62
     7
370
     0
100
AcDbLine
 10
148.9096394205
 20
58.6592551464
 30
0.0
 11
148.9096394205
 21
61.6592551464
 31
0.0
  0
LINE
  5
E0
330
1F
100
AcDbEntity
  8
0
  6
HIDDEN
 62
     7
370
     0
100
AcDbLine
 10
217.7596394205
 20
58.6592551464
 30
0.0
 11
211.9096394205
 21
58.6592551464
 31
0.0
  0
LINE
  5
E1
330
1F
100
AcDbEntity
  8
0
  6
HIDDEN
 62
     7
370
     0
100
AcDbLine
 10
217.7596394205
 20
61.6592551464
 30
0.0
 11
211.9096394205
 21
61.6592551464
 31
0.0
  0
LINE
  5
E2
330
1F
100
AcDbEntity
  8
0
  6
HIDDEN
 62
     7
370
     0
100
AcDbLine
 10
211.9096394205
 20
61.6592551464
 30
0.0
 11
211.9096394205
 21
58.6592551464
 31
0.0
  0
LINE
  5
E3
330
1F
100
AcDbEntity
  8
0
  6
HIDDEN
 62
     7
370
     0
100
AcDbLine
 10
143.0596394205
 20
61.6592551464
 30
0.0
 11
148.9096394205
 21
61.6592551464
 31
0.0
  0
LINE
  5
E4
330
1F
100
AcDbEntity
  8
0
  6
HIDDEN
 62
     7
370
     0
100
AcDbLine
 10
143.0596394205
 20
58.6592551464
 30
0.0
 11
148.9096394205
 21
58.6592551464
 31
0.0
  0
LINE
  5
E5
330
1F
100
AcDbEntity
  8
0
  6
HIDDEN
 62
     7
370
     0
100
AcDbLine
 10
148.9096394205
 20
58.6592551464
 30
0.0
 11
148.9096394205
 21
61.6592551464
 31
0.0
  0
LINE
  5
E6
330
1F
100
AcDbEntity
  8
0
  6
HIDDEN
 62
     7
370
     0
100
AcDbLine
 10
217.7596394205
 20
58.6592551464
 30
0.0
 11
211.9096394205
 21
58.6592551464
 31
0.0
  0
LINE
  5
E7
330
1F
100
AcDbEntity
  8
0
  6
HIDDEN
 62
     7
370
     0
100
AcDbLine
 10
217.7596394205
 20
61.6592551464
 30
0.0
 11
211.9096394205
 21
61.6592551464
 31
0.0
  0
LINE
  5
E8
330
1F
100
AcDbEntity
  8
0
  6
HIDDEN
 62
     7
370
     0
100
AcDbLine
 10
211.9096394205
 20
61.6592551464
 30
0.0
 11
211.9096394205
 21
58.6592551464
 31
0.0
  0
LINE
  5
E9
330
1F
100
AcDbEntity
  8
0
  6
HIDDEN
 62
     7
370
     0
100
AcDbLine
 10
143.0596394205
 20
65.6092551464
 30
0.0
 11
148.9096394205
 21
65.6092551464
 31
0.0
  0
LINE
  5
EA
330
1F
100
AcDbEntity
  8
0
  6
HIDDEN
 62
     7
370
     0
100
AcDbLine
 10
143.0596394205
 20
62.6092551464
 30
0.0
 11
148.9096394205
 21
62.6092551464
 31
0.0
  0
LINE
  5
EB
330
1F
100
AcDbEntity
  8
0
  6
HIDDEN
 62
     7
370
     0
100
AcDbLine
 10
148.9096394205
 20
62.6092551464
 30
0.0
 11
148.9096394205
 21
65.6092551464
 31
0.0
  0
LINE
  5
EC
330
1F
100
AcDbEntity
  8
0
  6
HIDDEN
 62
     7
370
     0
100
AcDbLine
 10
217.7596394205
 20
62.6092551464
 30
0.0
 11
211.9096394205
 21
62.6092551464
 31
0.0
  0
LINE
  5
ED
330
1F
100
AcDbEntity
  8
0
  6
HIDDEN
 62
     7
370
     0
100
AcDbLine
 10
217.7596394205
 20
65.6092551464
 30
0.0
 11
211.9096394205
 21
65.6092551464
 31
0.0
  0
LINE
  5
EE
330
1F
100
AcDbEntity
  8
0
  6
HIDDEN
 62
     7
370
     0
100
AcDbLine
 10
211.9096394205
 20
65.6092551464
 30
0.0
 11
211.9096394205
 21
62.6092551464
 31
0.0
  0
ARC
  5
EF
330
1F
100
AcDbEntity
  8
0
  6
Continuous
 62
     7
370
     0
100
AcDbCircle
 10
148.6096394205
 20
64.1092551464
 30
0.0
 40
1.500000000000007
100
AcDbArc
 50
255.0
 51
195.0
  0
ARC
  5
F0
330
1F
100
AcDbEntity
  8
0
  6
Continuous
 62
     7
370
     0
100
AcDbCircle
 10
212.2096394205
 20
64.1092551464
 30
0.0
 40
1.500000000000007
100
AcDbArc
 50
255.0
 51
195.0
  0
ARC
  5
F1
330
1F
100
AcDbEntity
  8
0
  6
HIDDEN
 62
     7
370
     0
100
AcDbCircle
 10
148.6096394205
 20
64.1092551464
 30
0.0
 40
1.500000000000007
100
AcDbArc
 50
255.0
 51
195.0
  0
ARC
  5
F2
330
1F
100
AcDbEntity
  8
0
  6
HIDDEN
 62
     7
370
     0
100
AcDbCircle
 10
212.2096394205
 20
64.1092551464
 30
0.0
 40
1.500000000000007
100
AcDbArc
 50
255.0
 51
195.0
  0
LINE
  5
F3
330
1F
100
AcDbEntity
  8
0
  6
HIDDEN
 62
     7
370
     0
100
AcDbLine
 10
217.7601394205
 20
58.6587551464
 30
0.0
 11
214.4096394205
 21
58.6587551464
 31
0.0
  0
LINE
  5
F4
330
1F
100
AcDbEntity
  8
0
  6
HIDDEN
 62
     7
370
     0
100
AcDbLine
 10
217.7601394205
 20
61.6597551464
 30
0.0
 11
214.4096394205
 21
61.6597551464
 31
0.0
  0
LINE
  5
F5
330
1F
100
AcDbEntity
  8
0
  6
HIDDEN
 62
     7
370
     0
100
AcDbLine
 10
214.4096394205
 20
61.6597551464
 30
0.0
 11
214.4096394205
 21
58.6587551464
 31
0.0
  0
LINE
  5
F6
330
1F
100
AcDbEntity
  8
0
  6
HIDDEN
 62
     7
370
     0
100
AcDbLine
 10
217.7596394205
 20
62.6092551464
 30
0.0
 11
214.4096394205
 21
62.6092551464
 31
0.0
  0
LINE
  5
F7
330
1F
100
AcDbEntity
  8
0
  6
HIDDEN
 62
     7
370
     0
100
AcDbLine
 10
217.7596394205
 20
65.6092551464
 30
0.0
 11
214.4096394205
 21
65.6092551464
 31
0.0
  0
LINE
  5
F8
330
1F
100
AcDbEntity
  8
0
  6
HIDDEN
 62
     7
370
     0
100
AcDbLine
 10
214.4096394205
 20
65.6092551464
 30
0.0
 11
214.4096394205
 21
62.6092551464
 31
0.0
  0
LINE
  5
F9
330
1F
100
AcDbEntity
  8
0
  6
HIDDEN
 62
     7
370
     0
100
AcDbLine
 10
217.7596394205
 20
58.6592551464
 30
0.0
 11
214.4096394205
 21
58.6592551464
 31
0.0
  0
LINE
  5
FA
330
1F
100
AcDbEntity
  8
0
  6
HIDDEN
 62
     7
370
     0
100
AcDbLine
 10
217.7596394205
 20
61.6592551464
 30
0.0
 11
214.4096394205
 21
61.6592551464
 31
0.0
  0
LINE
  5
FB
330
1F
100
AcDbEntity
  8
0
  6
HIDDEN
 62
     7
370
     0
100
AcDbLine
 10
214.4096394205
 20
61.6592551464
 30
0.0
 11
214.4096394205
 21
58.6592551464
 31
0.0
  0
ARC
  5
FC
330
1F
100
AcDbEntity
  8
0
  6
HIDDEN
 62
     7
370
     0
100
AcDbCircle
 10
212.2096394205
 20
64.1092551464
 30
0.0
 40
1.500000000000011
100
AcDbArc
 50
255.0
 51
195.0
  0
ARC
  5
FD
330
1F
100
AcDbEntity
  8
0
  6
Continuous
 62
     7
370
     0
100
AcDbCircle
 10
212.2096394205
 20
64.1092551464
 30
0.0
 40
1.500000000000007
100
AcDbArc
 50
255.0
 51
195.0
  0
LINE
  5
FE
330
1F
100
AcDbEntity
  8
0
  6
Continuous
 62
     7
370
     0
100
AcDbLine
 10
92.5096144205
 20
165.8592801464
 30
0.0
 11
92.5096144205
 21
153.1592801464
 31
0.0
  0
LINE
  5
FF
330
1F
100
AcDbEntity
  8
0
  6
Continuous
 62
     7
370
     0
100
AcDbLine
 10
92.7596144205
 20
165.8592801464
 30
0.0
 11
92.7596144205
 21
153.1592801464
 31
0.0
  0
LINE
  5
100
330
1F
100
AcDbEntity
  8
0
  6
Continuous
 62
     7
370
     0
100
AcDbLine
 10
92.7596144205
 20
165.8592801464
 30
0.0
 11
92.5096144205
 21
165.8592801464
 31
0.0
  0
LINE
  5
101
330
1F
100
AcDbEntity
  8
0
  6
Continuous
 62
     7
370
     0
100
AcDbLine
 10
83.5096144205
 20
165.8592801464
 30
0.0
 11
83.5096144205
 21
153.1592801464
 31
0.0
  0
CIRCLE
  5
102
330
1F
100
AcDbEntity
  8
0
  6
Continuous
 62
     7
370
     0
100
AcDbCircle
 10
88.0096144205
 20
160.1592801464
 30
0.0
 40
2.5
  0
LINE
  5
103
330
1F
100
AcDbEntity
  8
0
  6
Continuous
 62
     7
370
     0
100
AcDbLine
 10
92.5096144205
 20
165.8592801464
 30
0.0
 11
83.5096144205
 21
165.8592801464
 31
0.0
  0
LINE
  5
104
330
1F
100
AcDbEntity
  8
0
  6
Continuous
 62
     7
370
     0
100
AcDbLine
 10
83.2596144205
 20
165.8592801464
 30
0.0
 11
83.2596144205
 21
153.1592801464
 31
0.0
  0
LINE
  5
105
330
1F
100
AcDbEntity
  8
0
  6
Continuous
 62
     7
370
     0
100
AcDbLine
 10
83.5096144205
 20
165.8592801464
 30
0.0
 11
83.2596144205
 21
165.8592801464
 31
0.0
  0
LINE
  5
106
330
1F
100
AcDbEntity
  8
0
  6
Continuous
 62
     7
370
     0
100
AcDbLine
 10
108.2096144205
 20
165.8592801464
 30
0.0
 11
108.2096144205
 21
153.1592801464
 31
0.0
  0
LINE
  5
107
330
1F
100
AcDbEntity
  8
0
  6
Continuous
 62
     7
370
     0
100
AcDbLine
 10
109.2096144205
 20
165.8592801464
 30
0.0
 11
109.2096144205
 21
160.8466665006
 31
0.0
  0
ARC
  5
108
330
1F
100
AcDbEntity
  8
0
  6
Continuous
 62
     7
370
     0
100
AcDbCircle
 10
118.2698813551
 20
160.1592801464
 30
0.0
 40
9.086304910569991
100
AcDbArc
 50
175.6613826136
 51
184.3386173864
  0
LINE
  5
109
330
1F
100
AcDbEntity
  8
0
  6
Continuous
 62
     7
370
     0
100
AcDbLine
 10
109.2096144205
 20
159.4718937921
 30
0.0
 11
109.2096144205
 21
153.1592801464
 31
0.0
  0
LINE
  5
10A
330
1F
100
AcDbEntity
  8
0
  6
Continuous
 62
     7
370
     0
100
AcDbLine
 10
109.2096144205
 20
165.8592801464
 30
0.0
 11
108.2096144205
 21
165.8592801464
 31
0.0
  0
LINE
  5
10B
330
1F
100
AcDbEntity
  8
0
  6
Continuous
 62
     7
370
     0
100
AcDbLine
 10
108.2096144205
 20
165.8592801464
 30
0.0
 11
92.7596144205
 21
165.8592801464
 31
0.0
  0
LINE
  5
10C
330
1F
100
AcDbEntity
  8
0
  6
Continuous
 62
     7
370
     0
100
AcDbLine
 10
67.8096144205
 20
165.8592801464
 30
0.0
 11
67.8096144205
 21
153.1592801464
 31
0.0
  0
LINE
  5
10D
330
1F
100
AcDbEntity
  8
0
  6
Continuous
 62
     7
370
     0
100
AcDbLine
 10
83.2596144205
 20
165.8592801464
 30
0.0
 11
67.8096144205
 21
165.8592801464
 31
0.0
  0
LINE
  5
10E
330
1F
100
AcDbEntity
  8
0
  6
Continuous
 62
     7
370
     0
100
AcDbLine
 10
66.8096144205
 20
159.4718937921
 30
0.0
 11
66.8096144205
 21
153.1592801464
 31
0.0
  0
ARC
  5
10F
330
1F
100
AcDbEntity
  8
0
  6
Continuous
 62
     7
370
     0
100
AcDbCircle
 10
57.7498378675
 20
160.1592801464
 30
0.0
 40
9.085815934172002
100
AcDbArc
 50
355.6611486724
 51
4.3388513276
  0
LINE
  5
110
330
1F
100
AcDbEntity
  8
0
  6
Continuous
 62
     7
370
     0
100
AcDbLine
 10
66.8096144205
 20
165.8592801464
 30
0.0
 11
66.8096144205
 21
160.8466665006
 31
0.0
  0
LINE
  5
111
330
1F
100
AcDbEntity
  8
0
  6
Continuous
 62
     7
370
     0
100
AcDbLine
 10
67.8096144205
 20
165.8592801464
 30
0.0
 11
66.8096144205
 21
165.8592801464
 31
0.0
  0
CIRCLE
  5
112
330
1F
100
AcDbEntity
  8
0
  6
Continuous
 62
     7
370
     0
100
AcDbCircle
 10
88.0096144205
 20
159.3592801464
 30
0.0
 40
0.3999999999999915
  0
LINE
  5
113
330
1F
100
AcDbEntity
  8
0
  6
Continuous
 62
     7
370
     0
100
AcDbLine
 10
109.2096144205
 20
161.8092801464
 30
0.0
 11
109.2096144205
 21
160.8602001989
 31
0.0
  0
LINE
  5
114
330
1F
100
AcDbEntity
  8
0
  6
Continuous
 62
     7
370
     0
100
AcDbLine
 10
109.2096144205
 20
159.4662906435
 30
0.0
 11
109.2096144205
 21
158.5092801464
 31
0.0
  0
LINE
  5
115
330
1F
100
AcDbEntity
  8
0
  6
Continuous
 62
     7
370
     0
100
AcDbLine
 10
66.8096144205
 20
158.5092801464
 30
0.0
 11
66.8096144205
 21
159.4583600939
 31
0.0
  0
LINE
  5
116
330
1F
100
AcDbEntity
  8
0
  6
Continuous
 62
     7
370
     0
100
AcDbLine
 10
66.8096144205
 20
160.8522696492
 30
0.0
 11
66.8096144205
 21
161.8092801464
 31
0.0
  0
CIRCLE
  5
117
330
1F
100
AcDbEntity
  8
0
  6
Continuous
 62
     7
370
     0
100
AcDbCircle
 10
88.0096144205
 20
96.5592801464
 30
0.0
 40
2.500000000000014
  0
LINE
  5
118
330
1F
100
AcDbEntity
  8
0
  6
Continuous
 62
     7
370
     0
100
AcDbLine
 10
92.5096144205
 20
90.8592801464
 30
0.0
 11
92.5096144205
 21
103.5592801464
 31
0.0
  0
LINE
  5
119
330
1F
100
AcDbEntity
  8
0
  6
Continuous
 62
     7
370
     0
100
AcDbLine
 10
92.5096144205
 20
90.8592801464
 30
0.0
 11
83.5096144205
 21
90.8592801464
 31
0.0
  0
LINE
  5
11A
330
1F
100
AcDbEntity
  8
0
  6
Continuous
 62
     7
370
     0
100
AcDbLine
 10
83.5096144205
 20
90.8592801464
 30
0.0
 11
83.5096144205
 21
103.5592801464
 31
0.0
  0
LINE
  5
11B
330
1F
100
AcDbEntity
  8
0
  6
Continuous
 62
     7
370
     0
100
AcDbLine
 10
92.7596144205
 20
90.8592801464
 30
0.0
 11
92.7596144205
 21
103.5592801464
 31
0.0
  0
LINE
  5
11C
330
1F
100
AcDbEntity
  8
0
  6
Continuous
 62
     7
370
     0
100
AcDbLine
 10
92.7596144205
 20
90.8592801464
 30
0.0
 11
92.5096144205
 21
90.8592801464
 31
0.0
  0
LINE
  5
11D
330
1F
100
AcDbEntity
  8
0
  6
Continuous
 62
     7
370
     0
100
AcDbLine
 10
83.5096144205
 20
90.8592801464
 30
0.0
 11
83.2596144205
 21
90.8592801464
 31
0.0
  0
LINE
  5
11E
330
1F
100
AcDbEntity
  8
0
  6
Continuous
 62
     7
370
     0
100
AcDbLine
 10
83.2596144205
 20
90.8592801464
 30
0.0
 11
83.2596144205
 21
103.5592801464
 31
0.0
  0
LINE
  5
11F
330
1F
100
AcDbEntity
  8
0
  6
Continuous
 62
     7
370
     0
100
AcDbLine
 10
108.2096144205
 20
90.8592801464
 30
0.0
 11
108.2096144205
 21
103.5592801464
 31
0.0
  0
LINE
  5
120
330
1F
100
AcDbEntity
  8
0
  6
Continuous
 62
     7
370
     0
100
AcDbLine
 10
109.2096144205
 20
97.2466665006
 30
0.0
 11
109.2096144205
 21
103.5592801464
 31
0.0
  0
ARC
  5
121
330
1F
100
AcDbEntity
  8
0
  6
Continuous
 62
     7
370
     0
100
AcDbCircle
 10
118.2698683465
 20
96.5592801464
 30
0.0
 40
9.086291939212144
100
AcDbArc
 50
175.661376408
 51
184.338623592
  0
LINE
  5
122
330
1F
100
AcDbEntity
  8
0
  6
Continuous
 62
     7
370
     0
100
AcDbLine
 10
109.2096144205
 20
90.8592801464
 30
0.0
 11
109.2096144205
 21
95.8718937921
 31
0.0
  0
LINE
  5
123
330
1F
100
AcDbEntity
  8
0
  6
Continuous
 62
     7
370
     0
100
AcDbLine
 10
109.2096144205
 20
90.8592801464
 30
0.0
 11
108.2096144205
 21
90.8592801464
 31
0.0
  0
LINE
  5
124
330
1F
100
AcDbEntity
  8
0
  6
Continuous
 62
     7
370
     0
100
AcDbLine
 10
108.2096144205
 20
90.8592801464
 30
0.0
 11
92.7596144205
 21
90.8592801464
 31
0.0
  0
LINE
  5
125
330
1F
100
AcDbEntity
  8
0
  6
Continuous
 62
     7
370
     0
100
AcDbLine
 10
67.8096144205
 20
90.8592801464
 30
0.0
 11
67.8096144205
 21
103.5592801464
 31
0.0
  0
LINE
  5
126
330
1F
100
AcDbEntity
  8
0
  6
Continuous
 62
     7
370
     0
100
AcDbLine
 10
66.8096144205
 20
90.8592801464
 30
0.0
 11
66.8096144205
 21
95.8718937921
 31
0.0
  0
ARC
  5
127
330
1F
100
AcDbEntity
  8
0
  6
Continuous
 62
     7
370
     0
100
AcDbCircle
 10
57.7498508796
 20
96.5592801464
 30
0.0
 40
9.085802959401482
100
AcDbArc
 50
355.6611424646
 51
4.3388575354
  0
LINE
  5
128
330
1F
100
AcDbEntity
  8
0
  6
Continuous
 62
     7
370
     0
100
AcDbLine
 10
66.8096144205
 20
97.2466665006
 30
0.0
 11
66.8096144205
 21
103.5592801464
 31
0.0
  0
LINE
  5
129
330
1F
100
AcDbEntity
  8
0
  6
Continuous
 62
     7
370
     0
100
AcDbLine
 10
67.8096144205
 20
90.8592801464
 30
0.0
 11
66.8096144205
 21
90.8592801464
 31
0.0
  0
LINE
  5
12A
330
1F
100
AcDbEntity
  8
0
  6
Continuous
 62
     7
370
     0
100
AcDbLine
 10
83.2596144205
 20
90.8592801464
 30
0.0
 11
67.8096144205
 21
90.8592801464
 31
0.0
  0
CIRCLE
  5
12B
330
1F
100
AcDbEntity
  8
0
  6
Continuous
 62
     7
370
     0
100
AcDbCircle
 10
88.0096144205
 20
97.3592801464
 30
0.0
 40
0.4000000000000057
  0
LINE
  5
12C
330
1F
100
AcDbEntity
  8
0
  6
Continuous
 62
     7
370
     0
100
AcDbLine
 10
109.2096144205
 20
98.2092801464
 30
0.0
 11
109.2096144205
 21
97.2602001989
 31
0.0
  0
LINE
  5
12D
330
1F
100
AcDbEntity
  8
0
  6
Continuous
 62
     7
370
     0
100
AcDbLine
 10
109.2096144205
 20
95.8662906435
 30
0.0
 11
109.2096144205
 21
94.9092801464
 31
0.0
  0
LINE
  5
12E
330
1F
100
AcDbEntity
  8
0
  6
Continuous
 62
     7
370
     0
100
AcDbLine
 10
66.8096144205
 20
94.9092801464
 30
0.0
 11
66.8096144205
 21
95.8583600939
 31
0.0
  0
LINE
  5
12F
330
1F
100
AcDbEntity
  8
0
  6
Continuous
 62
     7
370
     0
100
AcDbLine
 10
66.8096144205
 20
97.2522696492
 30
0.0
 11
66.8096144205
 21
98.2092801464
 31
0.0
  0
LINE
  5
130
330
1F
100
AcDbEntity
  8
0
  6
Continuous
 62
     7
370
     0
100
AcDbLine
 10
93.2596144205
 20
103.5592801464
 30
0.0
 11
93.2596144205
 21
153.1592801464
 31
0.0
  0
LINE
  5
131
330
1F
100
AcDbEntity
  8
0
  6
Continuous
 62
     7
370
     0
100
AcDbLine
 10
93.2596144205
 20
103.5592801464
 30
0.0
 11
92.8596144205
 21
103.5592801464
 31
0.0
  0
LINE
  5
132
330
1F
100
AcDbEntity
  8
0
  6
Continuous
 62
     7
370
     0
100
AcDbLine
 10
92.8596144205
 20
103.5592801464
 30
0.0
 11
92.8596144205
 21
153.1592801464
 31
0.0
  0
LINE
  5
133
330
1F
100
AcDbEntity
  8
0
  6
Continuous
 62
     7
370
     0
100
AcDbLine
 10
93.2596144205
 20
153.1592801464
 30
0.0
 11
92.8596144205
 21
153.1592801464
 31
0.0
  0
LINE
  5
134
330
1F
100
AcDbEntity
  8
0
  6
Continuous
 62
     7
370
     0
100
AcDbLine
 10
92.8596144205
 20
103.5592801464
 30
0.0
 11
83.1596144205
 21
103.5592801464
 31
0.0
  0
LINE
  5
135
330
1F
100
AcDbEntity
  8
0
  6
Continuous
 62
     7
370
     0
100
AcDbLine
 10
83.1596144205
 20
103.5592801464
 30
0.0
 11
83.1596144205
 21
153.1592801464
 31
0.0
  0
LINE
  5
136
330
1F
100
AcDbEntity
  8
0
  6
Continuous
 62
     7
370
     0
100
AcDbLine
 10
92.8596144205
 20
153.1592801464
 30
0.0
 11
83.1596144205
 21
153.1592801464
 31
0.0
  0
CIRCLE
  5
137
330
1F
100
AcDbEntity
  8
0
  6
Continuous
 62
     7
370
     0
100
AcDbCircle
 10
88.0096144205
 20
110.8592801464
 30
0.0
 40
3.049999999999585
  0
CIRCLE
  5
138
330
1F
100
AcDbEntity
  8
0
  6
Continuous
 62
     7
370
     0
100
AcDbCircle
 10
88.0096144205
 20
145.8592801464
 30
0.0
 40
3.049999999999585
  0
LINE
  5
139
330
1F
100
AcDbEntity
  8
0
  6
Continuous
 62
     7
370
     0
100
AcDbLine
 10
83.1596144205
 20
103.5592801464
 30
0.0
 11
82.7596144205
 21
103.5592801464
 31
0.0
  0
LINE
  5
13A
330
1F
100
AcDbEntity
  8
0
  6
Continuous
 62
     7
370
     0
100
AcDbLine
 10
82.7596144205
 20
103.5592801464
 30
0.0
 11
82.7596144205
 21
153.1592801464
 31
0.0
  0
LINE
  5
13B
330
1F
100
AcDbEntity
  8
0
  6
Continuous
 62
     7
370
     0
100
AcDbLine
 10
83.1596144205
 20
153.1592801464
 30
0.0
 11
82.7596144205
 21
153.1592801464
 31
0.0
  0
LINE
  5
13C
330
1F
100
AcDbEntity
  8
0
  6
Continuous
 62
     7
370
     0
100
AcDbLine
 10
118.7096144205
 20
103.5592801464
 30
0.0
 11
118.7096144205
 21
153.1592801464
 31
0.0
  0
LINE
  5
13D
330
1F
100
AcDbEntity
  8
0
  6
Continuous
 62
     7
370
     0
100
AcDbLine
 10
118.7096144205
 20
103.5592801464
 30
0.0
 11
109.6596144205
 21
103.5592801464
 31
0.0
  0
LINE
  5
13E
330
1F
100
AcDbEntity
  8
0
  6
Continuous
 62
     7
370
     0
100
AcDbLine
 10
109.6596144205
 20
103.5592801464
 30
0.0
 11
109.6596144205
 21
153.1592801464
 31
0.0
  0
LINE
  5
13F
330
1F
100
AcDbEntity
  8
0
  6
Continuous
 62
     7
370
     0
100
AcDbLine
 10
118.7096144205
 20
153.1592801464
 30
0.0
 11
109.6596144205
 21
153.1592801464
 31
0.0
  0
CIRCLE
  5
140
330
1F
100
AcDbEntity
  8
0
  6
Continuous
 62
     7
370
     0
100
AcDbCircle
 10
114.5096144205
 20
148.3592801464
 30
0.0
 40
3.049999999999997
  0
CIRCLE
  5
141
330
1F
100
AcDbEntity
  8
0
  6
Continuous
 62
     7
370
     0
100
AcDbCircle
 10
114.5096144205
 20
108.3592801464
 30
0.0
 40
3.049999999999997
  0
LINE
  5
142
330
1F
100
AcDbEntity
  8
0
  6
Continuous
 62
     7
370
     0
100
AcDbLine
 10
57.3096144205
 20
103.5592801464
 30
0.0
 11
57.3096144205
 21
153.1592801464
 31
0.0
  0
LINE
  5
143
330
1F
100
AcDbEntity
  8
0
  6
Continuous
 62
     7
370
     0
100
AcDbLine
 10
57.3096144205
 20
103.5592801464
 30
0.0
 11
56.5096144205
 21
103.5592801464
 31
0.0
  0
LINE
  5
144
330
1F
100
AcDbEntity
  8
0
  6
Continuous
 62
     7
370
     0
100
AcDbLine
 10
56.5096144205
 20
103.5592801464
 30
0.0
 11
56.5096144205
 21
153.1592801464
 31
0.0
  0
LINE
  5
145
330
1F
100
AcDbEntity
  8
0
  6
Continuous
 62
     7
370
     0
100
AcDbLine
 10
57.3096144205
 20
153.1592801464
 30
0.0
 11
56.5096144205
 21
153.1592801464
 31
0.0
  0
LINE
  5
146
330
1F
100
AcDbEntity
  8
0
  6
Continuous
 62
     7
370
     0
100
AcDbLine
 10
119.5096144205
 20
103.5592801464
 30
0.0
 11
119.5096144205
 21
153.1592801464
 31
0.0
  0
LINE
  5
147
330
1F
100
AcDbEntity
  8
0
  6
Continuous
 62
     7
370
     0
100
AcDbLine
 10
119.5096144205
 20
103.5592801464
 30
0.0
 11
118.7096144205
 21
103.5592801464
 31
0.0
  0
LINE
  5
148
330
1F
100
AcDbEntity
  8
0
  6
Continuous
 62
     7
370
     0
100
AcDbLine
 10
119.5096144205
 20
153.1592801464
 30
0.0
 11
118.7096144205
 21
153.1592801464
 31
0.0
  0
LINE
  5
149
330
1F
100
AcDbEntity
  8
0
  6
Continuous
 62
     7
370
     0
100
AcDbLine
 10
66.3596144205
 20
103.5592801464
 30
0.0
 11
66.3596144205
 21
153.1592801464
 31
0.0
  0
LINE
  5
14A
330
1F
100
AcDbEntity
  8
0
  6
Continuous
 62
     7
370
     0
100
AcDbLine
 10
66.3596144205
 20
103.5592801464
 30
0.0
 11
57.3096144205
 21
103.5592801464
 31
0.0
  0
CIRCLE
  5
14B
330
1F
100
AcDbEntity
  8
0
  6
Continuous
 62
     7
370
     0
100
AcDbCircle
 10
61.5096144205
 20
108.3592801464
 30
0.0
 40
3.049999999999997
  0
CIRCLE
  5
14C
330
1F
100
AcDbEntity
  8
0
  6
Continuous
 62
     7
370
     0
100
AcDbCircle
 10
61.5096144205
 20
148.3592801464
 30
0.0
 40
3.04999999999999
  0
LINE
  5
14D
330
1F
100
AcDbEntity
  8
0
  6
Continuous
 62
     7
370
     0
100
AcDbLine
 10
66.3596144205
 20
153.1592801464
 30
0.0
 11
57.3096144205
 21
153.1592801464
 31
0.0
  0
LINE
  5
14E
330
1F
100
AcDbEntity
  8
0
  6
Continuous
 62
     7
370
     0
100
AcDbLine
 10
109.6596144205
 20
103.5592801464
 30
0.0
 11
109.2596144205
 21
103.5592801464
 31
0.0
  0
LINE
  5
14F
330
1F
100
AcDbEntity
  8
0
  6
Continuous
 62
     7
370
     0
100
AcDbLine
 10
109.2596144205
 20
103.5592801464
 30
0.0
 11
109.2596144205
 21
153.1592801464
 31
0.0
  0
LINE
  5
150
330
1F
100
AcDbEntity
  8
0
  6
Continuous
 62
     7
370
     0
100
AcDbLine
 10
109.6596144205
 20
153.1592801464
 30
0.0
 11
109.2596144205
 21
153.1592801464
 31
0.0
  0
LINE
  5
151
330
1F
100
AcDbEntity
  8
0
  6
Continuous
 62
     7
370
     0
100
AcDbLine
 10
66.7596144205
 20
103.5592801464
 30
0.0
 11
66.7596144205
 21
153.1592801464
 31
0.0
  0
LINE
  5
152
330
1F
100
AcDbEntity
  8
0
  6
Continuous
 62
     7
370
     0
100
AcDbLine
 10
66.7596144205
 20
103.5592801464
 30
0.0
 11
66.3596144205
 21
103.5592801464
 31
0.0
  0
LINE
  5
153
330
1F
100
AcDbEntity
  8
0
  6
Continuous
 62
     7
370
     0
100
AcDbLine
 10
66.7596144205
 20
153.1592801464
 30
0.0
 11
66.3596144205
 21
153.1592801464
 31
0.0
  0
CIRCLE
  5
154
330
1F
100
AcDbEntity
  8
0
  6
Continuous
 62
     7
370
     0
100
AcDbCircle
 10
114.5096144205
 20
148.3592801464
 30
0.0
 40
2.649999999999977
  0
CIRCLE
  5
155
330
1F
100
AcDbEntity
  8
0
  6
Continuous
 62
     7
370
     0
100
AcDbCircle
 10
61.5096144205
 20
148.3592801464
 30
0.0
 40
2.649999999999977
  0
CIRCLE
  5
156
330
1F
100
AcDbEntity
  8
0
  6
Continuous
 62
     7
370
     0
100
AcDbCircle
 10
88.0096144205
 20
145.8592801464
 30
0.0
 40
2.650000000000006
  0
CIRCLE
  5
157
330
1F
100
AcDbEntity
  8
0
  6
Continuous
 62
     7
370
     0
100
AcDbCircle
 10
88.0096144205
 20
110.8592801464
 30
0.0
 40
2.650000000000006
  0
CIRCLE
  5
158
330
1F
100
AcDbEntity
  8
0
  6
Continuous
 62
     7
370
     0
100
AcDbCircle
 10
114.5096144205
 20
108.3592801464
 30
0.0
 40
2.649999999999977
  0
CIRCLE
  5
159
330
1F
100
AcDbEntity
  8
0
  6
Continuous
 62
     7
370
     0
100
AcDbCircle
 10
61.5096144205
 20
108.3592801464
 30
0.0
 40
2.649999999999977
  0
LINE
  5
15A
330
1F
100
AcDbEntity
  8
0
  6
Continuous
 62
     7
370
     0
100
AcDbLine
 10
82.7596144205
 20
103.5592801464
 30
0.0
 11
66.7596144205
 21
103.5592801464
 31
0.0
  0
LINE
  5
15B
330
1F
100
AcDbEntity
  8
0
  6
Continuous
 62
     7
370
     0
100
AcDbLine
 10
82.7596144205
 20
153.1592801464
 30
0.0
 11
66.7596144205
 21
153.1592801464
 31
0.0
  0
LINE
  5
15C
330
1F
100
AcDbEntity
  8
0
  6
Continuous
 62
     7
370
     0
100
AcDbLine
 10
109.2596144205
 20
103.5592801464
 30
0.0
 11
93.2596144205
 21
103.5592801464
 31
0.0
  0
LINE
  5
15D
330
1F
100
AcDbEntity
  8
0
  6
Continuous
 62
     7
370
     0
100
AcDbLine
 10
109.2596144205
 20
153.1592801464
 30
0.0
 11
93.2596144205
 21
153.1592801464
 31
0.0
  0
INSERT
  5
169
330
1F
100
AcDbEntity
  8
0
  6
Continuous
 62
     7
370
     0
100
AcDbBlockReference
  2
SW_CENTERMARKSYMBOL_3
 10
88.0096144205
 20
160.1592801464
 30
0.0
  0
INSERT
  5
175
330
1F
100
AcDbEntity
  8
0
  6
Continuous
 62
     7
370
     0
100
AcDbBlockReference
  2
SW_CENTERMARKSYMBOL_4
 10
88.0096144205
 20
159.3592801464
 30
0.0
  0
INSERT
  5
181
330
1F
100
AcDbEntity
  8
0
  6
Continuous
 62
     7
370
     0
100
AcDbBlockReference
  2
SW_CENTERMARKSYMBOL_5
 10
88.0096144205
 20
96.5592801464
 30
0.0
  0
INSERT
  5
18D
330
1F
100
AcDbEntity
  8
0
  6
Continuous
 62
     7
370
     0
100
AcDbBlockReference
  2
SW_CENTERMARKSYMBOL_6
 10
88.0096144205
 20
97.3592801464
 30
0.0
  0
INSERT
  5
199
330
1F
100
AcDbEntity
  8
0
  6
Continuous
 62
     7
370
     0
100
AcDbBlockReference
  2
SW_CENTERMARKSYMBOL_7
 10
61.5096144205
 20
148.3592801464
 30
0.0
  0
INSERT
  5
1A5
330
1F
100
AcDbEntity
  8
0
  6
Continuous
 62
     7
370
     0
100
AcDbBlockReference
  2
SW_CENTERMARKSYMBOL_8
 10
114.5096144205
 20
108.3592801464
 30
0.0
  0
INSERT
  5
1B1
330
1F
100
AcDbEntity
  8
0
  6
Continuous
 62
     7
370
     0
100
AcDbBlockReference
  2
SW_CENTERMARKSYMBOL_9
 10
88.0096144205
 20
145.8592801464
 30
0.0
  0
INSERT
  5
1BD
330
1F
100
AcDbEntity
  8
0
  6
Continuous
 62
     7
370
     0
100
AcDbBlockReference
  2
SW_CENTERMARKSYMBOL_10
 10
88.0096144205
 20
110.8592801464
 30
0.0
  0
INSERT
  5
1C9
330
1F
100
AcDbEntity
  8
0
  6
Continuous
 62
     7
370
     0
100
AcDbBlockReference
  2
SW_CENTERMARKSYMBOL_11
 10
61.5096144205
 20
108.3592801464
 30
0.0
  0
INSERT
  5
1D5
330
1F
100
AcDbEntity
  8
0
  6
Continuous
 62
     7
370
     0
100
AcDbBlockReference
  2
SW_CENTERMARKSYMBOL_12
 10
114.5096144205
 20
148.3592801464
 30
0.0
  0
ARC
  5
1D6
330
1F
100
AcDbEntity
  8
0
  6
Continuous
 62
     7
370
     0
100
AcDbCircle
 10
88.0096144205
 20
110.8592801464
 30
0.0
 40
2.999999999999994
100
AcDbArc
 50
255.0
 51
195.0
  0
ARC
  5
1D7
330
1F
100
AcDbEntity
  8
0
  6
Continuous
 62
     7
370
     0
100
AcDbCircle
 10
88.0096144205
 20
145.8592801464
 30
0.0
 40
3.000000000000018
100
AcDbArc
 50
255.0
 51
195.0
  0
ARC
  5
1D8
330
1F
100
AcDbEntity
  8
0
  6
Continuous
 62
     7
370
     0
100
AcDbCircle
 10
61.5096144205
 20
108.3592801464
 30
0.0
 40
3.000000000000008
100
AcDbArc
 50
255.0
 51
195.0
  0
ARC
  5
1D9
330
1F
100
AcDbEntity
  8
0
  6
Continuous
 62
     7
370
     0
100
AcDbCircle
 10
114.5096144205
 20
108.3592801464
 30
0.0
 40
3.000000000000008
100
AcDbArc
 50
255.0
 51
195.0
  0
ARC
  5
1DA
330
1F
100
AcDbEntity
  8
0
  6
Continuous
 62
     7
370
     0
100
AcDbCircle
 10
114.5096144205
 20
148.3592801464
 30
0.0
 40
3.000000000000022
100
AcDbArc
 50
255.0
 51
195.0
  0
ARC
  5
1DB
330
1F
100
AcDbEntity
  8
0
  6
Continuous
 62
     7
370
     0
100
AcDbCircle
 10
61.5096144205
 20
148.3592801464
 30
0.0
 40
3.000000000000022
100
AcDbArc
 50
255.0
 51
195.0
  0
LINE
  5
1DC
330
1F
100
AcDbEntity
  8
0
  6
Continuous
 62
     7
370
     0
100
AcDbLine
 10
203.4329879482
 20
162.6334771771
 30
0.0
 11
194.9780814066
 21
157.7525635238
 31
0.0
  0
LINE
  5
1DD
330
1F
100
AcDbEntity
  8
0
  6
Continuous
 62
     7
370
     0
100
AcDbLine
 10
171.4060353799
 20
111.6645579884
 30
0.0
 11
170.563670441
 21
111.17827106
 31
0.0
  0
LINE
  5
1DE
330
1F
100
AcDbEntity
  8
0
  6
Continuous
 62
     7
370
     0
100
AcDbLine
 10
159.3802354803
 20
137.2023644939
 30
0.0
 11
150.3999793592
 21
132.0181729838
 31
0.0
  0
LINE
  5
1DF
330
1F
100
AcDbEntity
  8
0
  6
Continuous
 62
     7
370
     0
100
AcDbLine
 10
159.80332097
 20
108.9126812087
 30
0.0
 11
168.783577091
 21
114.0968727188
 31
0.0
  0
LINE
  5
1E0
330
1F
100
AcDbEntity
  8
0
  6
Continuous
 62
     7
370
     0
100
AcDbLine
 10
168.783577091
 20
114.0968727188
 30
0.0
 11
169.5923652766
 21
114.5637762
 31
0.0
  0
ARC
  5
1E1
330
1F
100
AcDbEntity
  8
0
  6
Continuous
 62
     7
370
     0
100
AcDbCircle
 10
231.6719519543
 20
144.7979195478
 30
0.0
 40
1.536804807572078
100
AcDbArc
 50
2.6054784857
 51
57.39452166
  0
LINE
  5
1E2
330
1F
100
AcDbEntity
  8
0
  6
Continuous
 62
     7
370
     0
100
AcDbLine
 10
233.2071680557
 20
144.8677804
 30
0.0
 11
229.6627149553
 21
142.8216111791
 31
0.0
  0
ARC
  5
1E3
330
1F
100
AcDbEntity
  8
0
  6
Continuous
 62
     7
370
     0
100
AcDbCircle
 10
229.5268194848
 20
141.9344565065
 30
0.0
 40
0.8975026417816794
100
AcDbArc
 50
81.2910562468
 51
158.7035672205
  0
LINE
  5
1E4
330
1F
100
AcDbEntity
  8
0
  6
Continuous
 62
     7
370
     0
100
AcDbLine
 10
233.2071680557
 20
126.7160781518
 30
0.0
 11
233.2071680557
 21
144.8677804
 31
0.0
  0
LINE
  5
1E5
330
1F
100
AcDbEntity
  8
0
  6
Continuous
 62
     7
370
     0
100
AcDbLine
 10
233.2071680557
 20
126.7160781518
 30
0.0
 11
224.5804653252
 21
121.7359886697
 31
0.0
  0
LWPOLYLINE
  5
1E6
330
1F
100
AcDbEntity
  8
0
  6
Continuous
 62
     7
370
     0
100
AcDbPolyline
 90
       22
 70
   128
 43
0.0
 10
229.6627149553
 20
142.8216111791
 10
229.9175004907
 20
142.7847127183
 10
230.1231413999
 20
142.6503990199
 10
230.2659962344
 20
142.4275799522
 10
230.3365885388
 20
142.1310364985
 10
230.3302354839
 20
141.7804402422
 10
230.2473585074
 20
141.3990484273
 10
230.093455358
 20
141.0121611598
 10
229.8787353948
 20
140.6454430938
 10
229.6174423369
 20
140.3232209338
 10
229.3269093882
 20
140.0668696924
 10
229.0264094176
 20
139.8933947518
 10
228.7358764688
 20
139.8143037907
 10
228.4745834109
 20
139.8348434076
 10
228.2598634478
 20
139.953651081
 10
228.1059602984
 20
140.1628455545
 10
228.0230833219
 20
140.4485496492
 10
228.016730267
 20
140.7918108244
 10
228.0873225714
 20
141.1698584179
 10
228.2301774059
 20
141.5576141667
 10
228.4358183151
 20
141.9293558051
 10
228.6906038505
 20
142.2604233835
  0
LINE
  5
1E7
330
1F
100
AcDbEntity
  8
0
  6
Continuous
 62
     7
370
     0
100
AcDbLine
 10
221.5752615051
 20
152.3992779316
 30
0.0
 11
212.9309083998
 21
147.408999105
 31
0.0
  0
LINE
  5
1E8
330
1F
100
AcDbEntity
  8
0
  6
Continuous
 62
     7
370
     0
100
AcDbLine
 10
232.5000612745
 20
146.0925252678
 30
0.0
 11
221.5752615051
 21
152.3992779316
 31
0.0
  0
LWPOLYLINE
  5
1E9
330
1F
100
AcDbEntity
  8
0
  6
Continuous
 62
     7
370
     0
100
AcDbPolyline
 90
       16
 70
   128
 43
0.0
 10
228.0197777801
 20
140.8230041297
 10
228.0683213213
 20
140.638123035
 10
228.1992743002
 20
140.4472490628
 10
228.3928122965
 20
140.3493898197
 10
228.6314956565
 20
140.3533633744
 10
228.8938166904
 20
140.458811671
 10
229.1561377243
 20
140.6562327934
 10
229.3948210843
 20
140.9278371803
 10
229.5883590807
 20
141.2491506376
 10
229.7193120595
 20
141.5912197009
 10
229.7758798851
 20
141.9232206241
 10
229.7529652467
 20
142.2152368982
 10
229.652632976
 20
142.4409550198
 10
229.4839239852
 20
142.5800355929
 10
229.2620405937
 20
142.6199461068
 10
229.2620405937
 20
142.6199461068
  0
SPLINE
  5
1EA
330
1F
100
AcDbEntity
  8
0
  6
Continuous
 62
     7
370
     0
100
AcDbSpline
210
0.0
220
0.0
230
1.0
 70
    24
 71
     3
 72
     8
 73
     4
 74
     0
 42
0.00000001
 43
0.00000001
 40
0.0
 40
0.0
 40
0.0
 40
0.0
 40
1.0
 40
1.0
 40
1.0
 40
1.0
 10
229.262040593731
 20
142.6199461067753
 30
0.0
 10
229.3955987142432
 20
142.6871677975515
 30
0.0
 10
229.5291568347554
 20
142.7543894883277
 30
0.0
 10
229.6627149552676
 20
142.8216111791038
 30
0.0
  0
ARC
  5
1EB
330
1F
100
AcDbEntity
  8
0
  6
Continuous
 62
     7
370
     0
100
AcDbCircle
 10
229.2634360683
 20
141.9254758092
 30
0.0
 40
0.6944716996453134
100
AcDbArc
 50
90.1151304769
 51
124.5342263522
  0
LINE
  5
1EC
330
1F
100
AcDbEntity
  8
0
  6
Continuous
 62
     7
370
     0
100
AcDbLine
 10
221.3984848098
 20
152.7054641486
 30
0.0
 11
212.7541317045
 21
147.7151853219
 31
0.0
  0
LINE
  5
1ED
330
1F
100
AcDbEntity
  8
0
  6
Continuous
 62
     7
370
     0
100
AcDbLine
 10
221.5752615051
 20
152.3992779316
 30
0.0
 11
221.3984848098
 21
152.7054641486
 31
0.0
  0
LINE
  5
1EE
330
1F
100
AcDbEntity
  8
0
  6
Continuous
 62
     7
370
     0
100
AcDbLine
 10
215.0345237792
 20
156.3793006518
 30
0.0
 11
206.4786006872
 21
151.4400713853
 31
0.0
  0
LWPOLYLINE
  5
1EF
330
1F
100
AcDbEntity
  8
0
  6
Continuous
 62
     7
370
     0
100
AcDbPolyline
 90
       32
 70
   128
 43
0.0
 10
212.4182286888
 20
153.2361294213
 10
212.0985661107
 20
153.0098123379
 10
211.8643631428
 20
152.7509808975
 10
211.7252080822
 20
152.4702316896
 10
211.6867979535
 20
152.1790586198
 10
211.7507052717
 20
151.8893823478
 10
211.9143136639
 20
151.6130622542
 10
212.1709249831
 20
151.3614109161
 10
212.5100335318
 20
151.1447309688
 10
212.9177561663
 20
150.9718933149
 10
213.3774006739
 20
150.8499739482
 10
213.8701491544
 20
150.7839642619
 10
214.3758284273
 20
150.7765667003
 10
214.8737359236
 20
150.8280841204
 10
215.343487252
 20
150.9364073931
 10
215.7658507378
 20
151.0971017508
 10
216.1235347704
 20
151.3035883476
 10
216.4018957235
 20
151.5474135981
 10
216.5895374668
 20
151.8185952677
 10
216.6787779254
 20
152.106031147
 10
216.6659635844
 20
152.3979535775
 10
216.5516190644
 20
152.6824112205
 10
216.3404256436
 20
152.9477583467
 10
216.0410296054
 20
153.1831316135
 10
215.6656882587
 20
153.3788948117
 10
215.2297681224
 20
153.5270333731
 10
214.7511158182
 20
153.6214824875
 10
214.2493274275
 20
153.658375397
 10
213.7449462261
 20
153.6362017017
 10
213.2586216396
 20
153.5558691951
 10
212.8102638536
 20
153.4206666996
 10
212.4182286888
 20
153.2361294213
  0
LINE
  5
1F0
330
1F
100
AcDbEntity
  8
0
  6
Continuous
 62
     7
370
     0
100
AcDbLine
 10
221.3984848098
 20
152.7054641486
 30
0.0
 11
215.0345237792
 21
156.3793006518
 31
0.0
  0
ARC
  5
1F1
330
1F
100
AcDbEntity
  8
0
  6
Continuous
 62
     7
370
     0
100
AcDbCircle
 10
213.1170451101
 20
151.0699934244
 30
0.0
 40
1.519786680454582
100
AcDbArc
 50
117.3749882612
 51
150.9763654547
  0
ARC
  5
1F2
330
1F
100
AcDbEntity
  8
0
  6
Continuous
 62
     7
370
     0
100
AcDbCircle
 10
214.1302081985
 20
149.5902584143
 30
0.0
 40
3.306959811502019
100
AcDbArc
 50
42.1003870624
 51
121.1774180018
  0
LINE
  5
1F3
330
1F
100
AcDbEntity
  8
0
  6
Continuous
 62
     7
370
     0
100
AcDbLine
 10
232.3444977826
 20
126.2179073095
 30
0.0
 11
224.5804653252
 21
121.7358267756
 31
0.0
  0
LINE
  5
1F4
330
1F
100
AcDbEntity
  8
0
  6
Continuous
 62
     7
370
     0
100
AcDbLine
 10
232.3444977826
 20
126.2179073095
 30
0.0
 11
233.2071680557
 21
126.7160781518
 31
0.0
  0
LWPOLYLINE
  5
1F5
330
1F
100
AcDbEntity
  8
0
  6
Continuous
 62
     7
370
     0
100
AcDbPolyline
 90
       17
 70
   128
 43
0.0
 10
213.3374675043
 20
151.2357968473
 10
213.2507584038
 20
151.1608826021
 10
213.2203102168
 20
151.0725152249
 10
213.2507584038
 20
150.9841478476
 10
213.3374675043
 20
150.9092336025
 10
213.4672368438
 20
150.8591775043
 10
213.6203102168
 20
150.8416001401
 10
213.7733835897
 20
150.8591775043
 10
213.9031529293
 20
150.9092336025
 10
213.9898620298
 20
150.9841478476
 10
214.0203102168
 20
151.0725152249
 10
213.9898620298
 20
151.1608826021
 10
213.9031529293
 20
151.2357968473
 10
213.7733835897
 20
151.2858529455
 10
213.6203102168
 20
151.3034303097
 10
213.4672368438
 20
151.2858529455
 10
213.3374675043
 20
151.2357968473
  0
LINE
  5
1F6
330
1F
100
AcDbEntity
  8
0
  6
Continuous
 62
     7
370
     0
100
AcDbLine
 10
214.8577183503
 20
156.2772330503
 30
0.0
 11
203.9329473145
 21
162.5839691266
 31
0.0
  0
LWPOLYLINE
  5
1F7
330
1F
100
AcDbEntity
  8
0
  6
Continuous
 62
     7
370
     0
100
AcDbPolyline
 90
        6
 70
   128
 43
0.0
 10
203.9329473145
 20
162.5839691266
 10
203.7949976249
 20
162.6479161846
 10
203.6623492645
 20
162.6780265875
 10
203.5400998353
 20
162.6731432095
 10
203.4329473145
 20
162.633453716
 10
203.4329879482
 20
162.6334771771
  0
ARC
  5
1F8
330
1F
100
AcDbEntity
  8
0
  6
Continuous
 62
     7
370
     0
100
AcDbCircle
 10
173.809045917
 20
104.5769233718
 30
0.0
 40
3.750729200948097
100
AcDbArc
 50
191.0195317293
 51
230.1575881603
  0
LINE
  5
1F9
330
1F
100
AcDbEntity
  8
0
  6
Continuous
 62
     7
370
     0
100
AcDbLine
 10
170.1274723573
 20
103.8599954368
 30
0.0
 11
169.3554257145
 21
104.8204146739
 31
0.0
  0
LINE
  5
1FA
330
1F
100
AcDbEntity
  8
0
  6
Continuous
 62
     7
370
     0
100
AcDbLine
 10
169.3554257145
 20
104.8204146739
 30
0.0
 11
169.3554257145
 21
110.4545462759
 31
0.0
  0
LINE
  5
1FB
330
1F
100
AcDbEntity
  8
0
  6
Continuous
 62
     7
370
     0
100
AcDbLine
 10
169.3554257145
 20
110.4545462759
 30
0.0
 11
170.1276621724
 21
110.5235963968
 31
0.0
  0
ARC
  5
1FC
330
1F
100
AcDbEntity
  8
0
  6
Continuous
 62
     7
370
     0
100
AcDbCircle
 10
171.0241811599
 20
110.3869169123
 30
0.0
 40
0.9068779280703935
100
AcDbArc
 50
65.098179652
 51
171.3316756619
  0
LINE
  5
1FD
330
1F
100
AcDbEntity
  8
0
  6
Continuous
 62
     7
370
     0
100
AcDbLine
 10
171.4060353799
 20
111.2094829771
 30
0.0
 11
171.4060353799
 21
111.8346926631
 31
0.0
  0
LINE
  5
1FE
330
1F
100
AcDbEntity
  8
0
  6
Continuous
 62
     7
370
     0
100
AcDbLine
 10
171.4060353799
 20
111.8346926631
 30
0.0
 11
171.2610424092
 21
112.0858278545
 31
0.0
  0
LINE
  5
1FF
330
1F
100
AcDbEntity
  8
0
  6
Continuous
 62
     7
370
     0
100
AcDbLine
 10
171.2610424092
 20
112.0858278545
 30
0.0
 11
171.6124971632
 21
113.3975788851
 31
0.0
  0
LINE
  5
200
330
1F
100
AcDbEntity
  8
0
  6
Continuous
 62
     7
370
     0
100
AcDbLine
 10
171.6124971632
 20
113.3975788851
 30
0.0
 11
158.7544942478
 21
120.8203459701
 31
0.0
  0
LINE
  5
201
330
1F
100
AcDbEntity
  8
0
  6
Continuous
 62
     7
370
     0
100
AcDbLine
 10
158.7544942478
 20
120.8203459701
 30
0.0
 11
159.1059490018
 21
119.1028139178
 31
0.0
  0
LINE
  5
202
330
1F
100
AcDbEntity
  8
0
  6
Continuous
 62
     7
370
     0
100
AcDbLine
 10
159.1059490018
 20
119.1028139178
 30
0.0
 11
158.9609560311
 21
119.0190840471
 31
0.0
  0
LINE
  5
203
330
1F
100
AcDbEntity
  8
0
  6
Continuous
 62
     7
370
     0
100
AcDbLine
 10
158.9609560311
 20
119.0190840471
 30
0.0
 11
158.9609560311
 21
118.3938743612
 31
0.0
  0
ARC
  5
204
330
1F
100
AcDbEntity
  8
0
  6
Continuous
 62
     7
370
     0
100
AcDbCircle
 10
156.5577989465
 20
115.513916134
 30
0.0
 40
3.750909671445344
100
AcDbArc
 50
11.0371318676
 51
50.1569729398
  0
LINE
  5
205
330
1F
100
AcDbEntity
  8
0
  6
Continuous
 62
     7
370
     0
100
AcDbLine
 10
160.2393292386
 20
116.2320094925
 30
0.0
 11
161.0115656965
 21
115.2713541357
 31
0.0
  0
LINE
  5
206
330
1F
100
AcDbEntity
  8
0
  6
Continuous
 62
     7
370
     0
100
AcDbLine
 10
161.0115656965
 20
115.2713541357
 30
0.0
 11
161.0115656965
 21
109.6372225337
 31
0.0
  0
LINE
  5
207
330
1F
100
AcDbEntity
  8
0
  6
Continuous
 62
     7
370
     0
100
AcDbLine
 10
161.0115656965
 20
109.6372225337
 30
0.0
 11
160.2395190537
 21
109.5681893767
 31
0.0
  0
ARC
  5
208
330
1F
100
AcDbEntity
  8
0
  6
Continuous
 62
     7
370
     0
100
AcDbCircle
 10
159.3427938647
 20
109.7041483082
 30
0.0
 40
0.9069734811482744
100
AcDbArc
 50
245.102123064
 51
351.3786380962
  0
LINE
  5
209
330
1F
100
AcDbEntity
  8
0
  6
Continuous
 62
     7
370
     0
100
AcDbLine
 10
158.9609560311
 20
108.8814692916
 30
0.0
 11
158.9609560311
 21
107.3507158453
 31
0.0
  0
LINE
  5
20A
330
1F
100
AcDbEntity
  8
0
  6
Continuous
 62
     7
370
     0
100
AcDbLine
 10
151.0555022174
 20
111.9144371904
 30
0.0
 11
158.9609560311
 21
107.3507158453
 31
0.0
  0
LINE
  5
20B
330
1F
100
AcDbEntity
  8
0
  6
Continuous
 62
     7
370
     0
100
AcDbLine
 10
150.1928319443
 20
113.4086259291
 30
0.0
 11
151.0555022174
 21
111.9144371904
 31
0.0
  0
LINE
  5
20C
330
1F
100
AcDbEntity
  8
0
  6
Continuous
 62
     7
370
     0
100
AcDbLine
 10
150.1928319443
 20
131.5603281773
 30
0.0
 11
150.1928319443
 21
113.4086259291
 31
0.0
  0
ARC
  5
20D
330
1F
100
AcDbEntity
  8
0
  6
Continuous
 62
     7
370
     0
100
AcDbCircle
 10
150.6239063118
 20
131.6302553742
 30
0.0
 40
0.4367091974284981
100
AcDbArc
 50
50.7967147643
 51
189.2140369905
  0
LINE
  5
20E
330
1F
100
AcDbEntity
  8
0
  6
Continuous
 62
     7
370
     0
100
AcDbLine
 10
161.8247384949
 20
125.6619122695
 30
0.0
 11
150.8999387255
 21
131.9686649333
 31
0.0
  0
LINE
  5
20F
330
1F
100
AcDbEntity
  8
0
  6
Continuous
 62
     7
370
     0
100
AcDbLine
 10
162.0015151902
 20
125.7639964584
 30
0.0
 11
161.8247384949
 21
125.6619122695
 31
0.0
  0
LINE
  5
210
330
1F
100
AcDbEntity
  8
0
  6
Continuous
 62
     7
370
     0
100
AcDbLine
 10
168.3654762208
 20
122.0901599552
 30
0.0
 11
162.0015151902
 21
125.7639964584
 31
0.0
  0
LINE
  5
211
330
1F
100
AcDbEntity
  8
0
  6
Continuous
 62
     7
370
     0
100
AcDbLine
 10
168.5422529161
 20
121.7839737383
 30
0.0
 11
168.3654762208
 21
122.0901599552
 31
0.0
  0
LINE
  5
212
330
1F
100
AcDbEntity
  8
0
  6
Continuous
 62
     7
370
     0
100
AcDbLine
 10
179.4670526855
 20
115.4772210745
 30
0.0
 11
168.5422529161
 21
121.7839737383
 31
0.0
  0
ARC
  5
213
330
1F
100
AcDbEntity
  8
0
  6
Continuous
 62
     7
370
     0
100
AcDbCircle
 10
178.6389433653
 20
114.1826153544
 30
0.0
 40
1.536804807572105
100
AcDbArc
 50
2.6054784857
 51
57.39452166
  0
LINE
  5
214
330
1F
100
AcDbEntity
  8
0
  6
Continuous
 62
     7
370
     0
100
AcDbLine
 10
180.1741594667
 20
96.1007739584
 30
0.0
 11
180.1741594667
 21
114.2524762067
 31
0.0
  0
LINE
  5
215
330
1F
100
AcDbEntity
  8
0
  6
Continuous
 62
     7
370
     0
100
AcDbLine
 10
179.3114891936
 20
95.6026031162
 30
0.0
 11
180.1741594667
 21
96.1007739584
 31
0.0
  0
LINE
  5
216
330
1F
100
AcDbEntity
  8
0
  6
Continuous
 62
     7
370
     0
100
AcDbLine
 10
171.4060353799
 20
100.1663244612
 30
0.0
 11
179.3114891936
 21
95.6026031162
 31
0.0
  0
LINE
  5
217
330
1F
100
AcDbEntity
  8
0
  6
Continuous
 62
     7
370
     0
100
AcDbLine
 10
171.4060353799
 20
100.1663244612
 30
0.0
 11
171.4060353799
 21
101.6970779076
 31
0.0
  0
LWPOLYLINE
  5
218
330
1F
100
AcDbEntity
  8
0
  6
Continuous
 62
     7
370
     0
100
AcDbPolyline
 90
       26
 70
   128
 43
0.0
 10
154.8597367002
 20
124.4160339835
 10
154.8230818515
 20
124.1021363973
 10
154.7154204644
 20
123.8502829384
 10
154.5435172998
 20
123.6762984858
 10
154.3181736657
 20
123.5911151225
 10
154.0535487314
 20
123.6000852326
 10
153.7662698548
 20
123.702645191
 10
153.4743878242
 20
123.8923507784
 10
153.196242661
 20
124.157282095
 10
152.9493112489
 20
124.4807925318
 10
152.7491091966
 20
124.8425547384
 10
152.6082159353
 20
125.2198378648
 10
152.5354843067
 20
125.5889358245
 10
152.5354843067
 20
125.9266568355
 10
152.6082159353
 20
126.2117806445
 10
152.7491091966
 20
126.4263918739
 10
152.9493112489
 20
126.5570057109
 10
153.196242661
 20
126.5954152079
 10
153.4743878242
 20
126.5392069548
 10
153.7662698548
 20
126.3919127229
 10
154.0535487314
 20
126.1627875505
 10
154.3181736657
 20
125.8662282148
 10
154.5435172998
 20
125.5208686296
 10
154.7154204644
 20
125.1484090078
 10
154.8230818515
 20
124.7722523572
 10
154.8597367002
 20
124.4160339835
  0
LWPOLYLINE
  5
219
330
1F
100
AcDbEntity
  8
0
  6
Continuous
 62
     7
370
     0
100
AcDbPolyline
 90
       26
 70
   128
 43
0.0
 10
166.3502218945
 20
121.0080542819
 10
166.3135670458
 20
120.6941566957
 10
166.2059056587
 20
120.4423032368
 10
166.034002494
 20
120.2683187842
 10
165.80865886
 20
120.1831354209
 10
165.5440339257
 20
120.192105531
 10
165.2567550491
 20
120.2946654894
 10
164.9648730185
 20
120.4843710768
 10
164.6867278553
 20
120.7493023934
 10
164.4397964432
 20
121.0728128302
 10
164.2395943909
 20
121.4345750368
 10
164.0987011295
 20
121.8118581631
 10
164.025969501
 20
122.1809561229
 10
164.025969501
 20
122.5186771339
 10
164.0987011295
 20
122.8038009429
 10
164.2395943909
 20
123.0184121723
 10
164.4397964432
 20
123.1490260093
 10
164.6867278553
 20
123.1874355063
 10
164.9648730185
 20
123.1312272532
 10
165.2567550491
 20
122.9839330213
 10
165.5440339257
 20
122.7548078489
 10
165.80865886
 20
122.4582485132
 10
166.034002494
 20
122.112888928
 10
166.2059056587
 20
121.7404293062
 10
166.3135670458
 20
121.3642726556
 10
166.3502218945
 20
121.0080542819
  0
LWPOLYLINE
  5
21A
330
1F
100
AcDbEntity
  8
0
  6
Continuous
 62
     7
370
     0
100
AcDbPolyline
 90
       26
 70
   128
 43
0.0
 10
177.8407070887
 20
111.1494021664
 10
177.8040522401
 20
110.8355045802
 10
177.696390853
 20
110.5836511213
 10
177.5244876883
 20
110.4096666687
 10
177.2991440542
 20
110.3244833054
 10
177.03451912
 20
110.3334534155
 10
176.7472402433
 20
110.4360133739
 10
176.4553582127
 20
110.6257189613
 10
176.1772130496
 20
110.8906502779
 10
175.9302816375
 20
111.2141607147
 10
175.7300795851
 20
111.5759229213
 10
175.5891863238
 20
111.9532060476
 10
175.5164546953
 20
112.3223040074
 10
175.5164546953
 20
112.6600250184
 10
175.5891863238
 20
112.9451488273
 10
175.7300795851
 20
113.1597600568
 10
175.9302816375
 20
113.2903738938
 10
176.1772130496
 20
113.3287833908
 10
176.4553582127
 20
113.2725751377
 10
176.7472402433
 20
113.1252809058
 10
177.03451912
 20
112.8961557334
 10
177.2991440542
 20
112.5995963977
 10
177.5244876883
 20
112.2542368125
 10
177.696390853
 20
111.8817771907
 10
177.8040522401
 20
111.50562054
 10
177.8407070887
 20
111.1494021664
  0
LINE
  5
21B
330
1F
100
AcDbEntity
  8
0
  6
Continuous
 62
     7
370
     0
100
AcDbLine
 10
179.4670526855
 20
115.4772210745
 30
0.0
 11
188.4473088065
 21
120.6614125845
 31
0.0
  0
ARC
  5
21C
330
1F
100
AcDbEntity
  8
0
  6
Continuous
 62
     7
370
     0
100
AcDbCircle
 10
187.6191994864
 20
119.3668068645
 30
0.0
 40
1.536804807572105
100
AcDbArc
 50
2.6054784857
 51
57.39452166
  0
LINE
  5
21D
330
1F
100
AcDbEntity
  8
0
  6
Continuous
 62
     7
370
     0
100
AcDbLine
 10
184.6907236718
 20
116.8598332231
 30
0.0
 11
189.1544155877
 21
119.4366677167
 31
0.0
  0
ARC
  5
21E
330
1F
100
AcDbEntity
  8
0
  6
Continuous
 62
     7
370
     0
100
AcDbCircle
 10
184.5545772683
 20
115.9731132264
 30
0.0
 40
0.8971110276124944
100
AcDbArc
 50
81.2710111891
 51
158.7236122782
  0
LINE
  5
21F
330
1F
100
AcDbEntity
  8
0
  6
Continuous
 62
     7
370
     0
100
AcDbLine
 10
180.1741594667
 20
114.2524762067
 30
0.0
 11
183.718612567
 21
116.2986454276
 31
0.0
  0
LINE
  5
220
330
1F
100
AcDbEntity
  8
0
  6
Continuous
 62
     7
370
     0
100
AcDbLine
 10
189.1544155877
 20
101.2849654685
 30
0.0
 11
189.1544155877
 21
119.4366677167
 31
0.0
  0
LINE
  5
221
330
1F
100
AcDbEntity
  8
0
  6
Continuous
 62
     7
370
     0
100
AcDbLine
 10
180.1741594667
 20
96.1007739584
 30
0.0
 11
189.1544155877
 21
101.2849654685
 31
0.0
  0
LWPOLYLINE
  5
222
330
1F
100
AcDbEntity
  8
0
  6
Continuous
 62
     7
370
     0
100
AcDbPolyline
 90
       22
 70
   128
 43
0.0
 10
184.6907236718
 20
116.8598332231
 10
184.9455092072
 20
116.8229347623
 10
185.1511501164
 20
116.6886210639
 10
185.2940049509
 20
116.4658019962
 10
185.3645972553
 20
116.1692585426
 10
185.3582442004
 20
115.8186622862
 10
185.2753672239
 20
115.4372704713
 10
185.1214640746
 20
115.0503832039
 10
184.9067441114
 20
114.6836651378
 10
184.6454510535
 20
114.3614429778
 10
184.3549181047
 20
114.1050917364
 10
184.0544181341
 20
113.9316167959
 10
183.7638851854
 20
113.8525258348
 10
183.5025921275
 20
113.8730654516
 10
183.2878721643
 20
113.9918731251
 10
183.1339690149
 20
114.2010675985
 10
183.0510920384
 20
114.4867716932
 10
183.0447389835
 20
114.8300328684
 10
183.115331288
 20
115.208080462
 10
183.2581861224
 20
115.5958362108
 10
183.4638270317
 20
115.9675778492
 10
183.718612567
 20
116.2986454276
  0
LINE
  5
223
330
1F
100
AcDbEntity
  8
0
  6
Continuous
 62
     7
370
     0
100
AcDbLine
 10
168.5422529161
 20
121.7839737383
 30
0.0
 11
177.5225090372
 21
126.9681652484
 31
0.0
  0
LINE
  5
224
330
1F
100
AcDbEntity
  8
0
  6
Continuous
 62
     7
370
     0
100
AcDbLine
 10
188.4473088065
 20
120.6614125845
 30
0.0
 11
177.5225090372
 21
126.9681652484
 31
0.0
  0
LWPOLYLINE
  5
225
330
1F
100
AcDbEntity
  8
0
  6
Continuous
 62
     7
370
     0
100
AcDbPolyline
 90
       16
 70
   128
 43
0.0
 10
183.0477864966
 20
114.8612261741
 10
183.0963300379
 20
114.676345079
 10
183.2272830167
 20
114.4854711068
 10
183.4208210131
 20
114.3876118638
 10
183.6595043731
 20
114.3915854185
 10
183.9218254069
 20
114.497033715
 10
184.1841464408
 20
114.6944548374
 10
184.4228298008
 20
114.9660592243
 10
184.6163677972
 20
115.2873726817
 10
184.747320776
 20
115.629441745
 10
184.8038886016
 20
115.9614426681
 10
184.7809739633
 20
116.2534589422
 10
184.6806416925
 20
116.4791770638
 10
184.5119327017
 20
116.618257637
 10
184.2900493103
 20
116.6581681508
 10
184.2900493103
 20
116.6581681508
  0
SPLINE
  5
226
330
1F
100
AcDbEntity
  8
0
  6
Continuous
 62
     7
370
     0
100
AcDbSpline
210
0.0
220
0.0
230
1.0
 70
    24
 71
     3
 72
     8
 73
     4
 74
     0
 42
0.00000001
 43
0.00000001
 40
0.0
 40
0.0
 40
0.0
 40
0.0
 40
1.0
 40
1.0
 40
1.0
 40
1.0
 10
184.2900493102665
 20
116.6581681508132
 30
0.0
 10
184.4236074307787
 20
116.7253898415894
 30
0.0
 10
184.5571655512909
 20
116.7926115323656
 30
0.0
 10
184.6907236718031
 20
116.8598332231417
 30
0.0
  0
ARC
  5
227
330
1F
100
AcDbEntity
  8
0
  6
Continuous
 62
     7
370
     0
100
AcDbCircle
 10
184.2914709577
 20
115.9630205032
 30
0.0
 40
0.695149101296939
100
AcDbArc
 50
90.1171755192
 51
124.4713049943
  0
LWPOLYLINE
  5
228
330
1F
100
AcDbEntity
  8
0
  6
Continuous
 62
     7
370
     0
100
AcDbPolyline
 90
       17
 70
   128
 43
0.0
 10
176.8254134629
 20
113.0714144953
 10
176.5896451464
 20
113.1266276575
 10
176.3780030301
 20
113.0917419544
 10
176.2132535151
 20
112.9672934762
 10
176.1087436271
 20
112.7633642987
 10
176.0729401358
 20
112.4964755509
 10
176.1087436271
 20
112.188248972
 10
176.2132535151
 20
111.8636552462
 10
176.3780030301
 20
111.5489910268
 10
176.5896451464
 20
111.2697485375
 10
176.8310338783
 20
111.048550344
 10
177.0826133463
 20
110.9033166085
 10
177.3240020781
 20
110.8458133045
 10
177.5356441944
 20
110.8806990077
 10
177.7003937095
 20
111.0051474858
 10
177.8049035974
 20
111.2090766633
 10
177.8308625226
 20
111.3297369251
  0
LINE
  5
229
330
1F
100
AcDbEntity
  8
0
  6
Continuous
 62
     7
370
     0
100
AcDbLine
 10
168.3654762208
 20
122.0901599552
 30
0.0
 11
177.3457323419
 21
127.2743514653
 31
0.0
  0
LINE
  5
22A
330
1F
100
AcDbEntity
  8
0
  6
Continuous
 62
     7
370
     0
100
AcDbLine
 10
177.5225090372
 20
126.9681652484
 30
0.0
 11
177.3457323419
 21
127.2743514653
 31
0.0
  0
LWPOLYLINE
  5
22B
330
1F
100
AcDbEntity
  8
0
  6
Continuous
 62
     7
370
     0
100
AcDbPolyline
 90
       32
 70
   128
 43
0.0
 10
170.9817713112
 20
125.2333311858
 10
170.5897361464
 20
125.0487939074
 10
170.1413783604
 20
124.9135914119
 10
169.6550537739
 20
124.8332589054
 10
169.1506725725
 20
124.81108521
 10
168.6488841818
 20
124.8479781196
 10
168.1702318776
 20
124.942427234
 10
167.7343117413
 20
125.0905657953
 10
167.3589703946
 20
125.2863289936
 10
167.0595743564
 20
125.5217022604
 10
166.8483809356
 20
125.7870493865
 10
166.7340364156
 20
126.0715070295
 10
166.7212220746
 20
126.36342946
 10
166.8104625332
 20
126.6508653394
 10
166.9981042765
 20
126.922047009
 10
167.2764652296
 20
127.1658722594
 10
167.6341492622
 20
127.3723588562
 10
168.056512748
 20
127.5330532139
 10
168.5262640764
 20
127.6413764866
 10
169.0241715727
 20
127.6928939068
 10
169.5298508456
 20
127.6854963452
 10
170.0225993261
 20
127.6194866589
 10
170.4822438337
 20
127.4975672922
 10
170.8899664682
 20
127.3247296382
 10
171.2290750169
 20
127.108049691
 10
171.4856863361
 20
126.8563983529
 10
171.6492947283
 20
126.5800782593
 10
171.7132020465
 20
126.2904019873
 10
171.6747919178
 20
125.9992289175
 10
171.5356368572
 20
125.7184797096
 10
171.3014338893
 20
125.4596482691
 10
170.9817713112
 20
125.2333311858
  0
LINE
  5
22C
330
1F
100
AcDbEntity
  8
0
  6
Continuous
 62
     7
370
     0
100
AcDbLine
 10
162.0015151902
 20
125.7639964584
 30
0.0
 11
170.9817713112
 21
130.9481879685
 31
0.0
  0
LINE
  5
22D
330
1F
100
AcDbEntity
  8
0
  6
Continuous
 62
     7
370
     0
100
AcDbLine
 10
177.3457323419
 20
127.2743514653
 30
0.0
 11
170.9817713112
 21
130.9481879685
 31
0.0
  0
LWPOLYLINE
  5
22E
330
1F
100
AcDbEntity
  8
0
  6
Continuous
 62
     7
370
     0
100
AcDbPolyline
 90
       17
 70
   128
 43
0.0
 10
165.3349282687
 20
122.9300666108
 10
165.0991599521
 20
122.985279773
 10
164.8875178358
 20
122.9503940699
 10
164.7227683208
 20
122.8259455917
 10
164.6182584328
 20
122.6220164142
 10
164.5824549415
 20
122.3551276664
 10
164.6182584328
 20
122.0469010875
 10
164.7227683208
 20
121.7223073617
 10
164.8875178358
 20
121.4076431423
 10
165.0991599521
 20
121.128400653
 10
165.340548684
 20
120.9072024596
 10
165.592128152
 20
120.7619687241
 10
165.8335168839
 20
120.70446542
 10
166.0451590001
 20
120.7393511232
 10
166.2099085152
 20
120.8637996013
 10
166.3144184032
 20
121.0677287788
 10
166.3403773284
 20
121.1883890407
  0
ARC
  5
22F
330
1F
100
AcDbEntity
  8
0
  6
Continuous
 62
     7
370
     0
100
AcDbCircle
 10
169.2140043583
 20
123.8214846744
 30
0.0
 40
3.137955158005177
100
AcDbArc
 50
40.1681883496
 51
139.8318116504
  0
LWPOLYLINE
  5
230
330
1F
100
AcDbEntity
  8
0
  6
Continuous
 62
     7
370
     0
100
AcDbPolyline
 90
       17
 70
   128
 43
0.0
 10
170.0625324957
 20
125.600582136
 10
170.1492415962
 20
125.6754963811
 10
170.1796897832
 20
125.7638637584
 10
170.1492415962
 20
125.8522311356
 10
170.0625324957
 20
125.9271453807
 10
169.9327631562
 20
125.977201479
 10
169.7796897832
 20
125.9947788432
 10
169.6266164103
 20
125.977201479
 10
169.4968470707
 20
125.9271453807
 10
169.4101379702
 20
125.8522311356
 10
169.3796897832
 20
125.7638637584
 10
169.4101379702
 20
125.6754963811
 10
169.4968470707
 20
125.600582136
 10
169.6266164103
 20
125.5505260378
 10
169.7796897832
 20
125.5329486735
 10
169.9327631562
 20
125.5505260378
 10
170.0625324957
 20
125.600582136
  0
LINE
  5
231
330
1F
100
AcDbEntity
  8
0
  6
Continuous
 62
     7
370
     0
100
AcDbLine
 10
179.3114891936
 20
95.6026031162
 30
0.0
 11
188.2917453147
 21
100.7867946262
 31
0.0
  0
LINE
  5
232
330
1F
100
AcDbEntity
  8
0
  6
Continuous
 62
     7
370
     0
100
AcDbLine
 10
188.2917453147
 20
100.7867946262
 30
0.0
 11
189.1544155877
 21
101.2849654685
 31
0.0
  0
LINE
  5
233
330
1F
100
AcDbEntity
  8
0
  6
Continuous
 62
     7
370
     0
100
AcDbLine
 10
150.8999387255
 20
131.9686649333
 30
0.0
 11
159.8801948466
 21
137.1528564434
 31
0.0
  0
LINE
  5
234
330
1F
100
AcDbEntity
  8
0
  6
Continuous
 62
     7
370
     0
100
AcDbLine
 10
170.8049658824
 20
130.846120367
 30
0.0
 11
159.8801948466
 21
137.1528564434
 31
0.0
  0
LINE
  5
235
330
1F
100
AcDbEntity
  8
0
  6
Continuous
 62
     7
370
     0
100
AcDbLine
 10
170.413459813
 20
111.0653363599
 30
0.0
 11
169.3554257145
 21
110.4545462759
 31
0.0
  0
LINE
  5
236
330
1F
100
AcDbEntity
  8
0
  6
Continuous
 62
     7
370
     0
100
AcDbLine
 10
160.4178091972
 20
119.8601346885
 30
0.0
 11
159.1059490018
 21
119.1028139178
 31
0.0
  0
LINE
  5
237
330
1F
100
AcDbEntity
  8
0
  6
Continuous
 62
     7
370
     0
100
AcDbLine
 10
163.4709582902
 20
118.097589234
 30
0.0
 11
160.2393292386
 21
116.2320094925
 31
0.0
  0
LINE
  5
238
330
1F
100
AcDbEntity
  8
0
  6
Continuous
 62
     7
370
     0
100
AcDbLine
 10
160.9593389085
 20
119.5475162404
 30
0.0
 11
158.9609560311
 21
118.3938743612
 31
0.0
  0
LINE
  5
239
330
1F
100
AcDbEntity
  8
0
  6
Continuous
 62
     7
370
     0
100
AcDbLine
 10
160.4178327645
 20
119.8601210834
 30
0.0
 11
158.9609560311
 21
119.0190840471
 31
0.0
  0
LINE
  5
23A
330
1F
100
AcDbEntity
  8
0
  6
Continuous
 62
     7
370
     0
100
AcDbLine
 10
164.6891186159
 20
117.3943602466
 30
0.0
 11
161.0115656965
 21
115.2713541357
 31
0.0
  0
LINE
  5
23B
330
1F
100
AcDbEntity
  8
0
  6
Continuous
 62
     7
370
     0
100
AcDbLine
 10
169.5689484512
 20
114.5772944456
 30
0.0
 11
161.0115656965
 21
109.6372225337
 31
0.0
  0
LWPOLYLINE
  5
23C
330
1F
100
AcDbEntity
  8
0
  6
Continuous
 62
     7
370
     0
100
AcDbPolyline
 90
       17
 70
   128
 43
0.0
 10
153.8444430744
 20
126.3380463124
 10
153.6086747578
 20
126.3932594746
 10
153.3970326416
 20
126.3583737715
 10
153.2322831265
 20
126.2339252934
 10
153.1277732385
 20
126.0299961158
 10
153.0919697472
 20
125.763107368
 10
153.1277732385
 20
125.4548807891
 10
153.2322831265
 20
125.1302870633
 10
153.3970326416
 20
124.8156228439
 10
153.6086747578
 20
124.5363803546
 10
153.8500634897
 20
124.3151821612
 10
154.1016429577
 20
124.1699484257
 10
154.3430316896
 20
124.1124451216
 10
154.5546738058
 20
124.1473308248
 10
154.7194233209
 20
124.2717793029
 10
154.8239332089
 20
124.4757084805
 10
154.8498921341
 20
124.5963687423
  0
LWPOLYLINE
  5
23D
330
1F
100
AcDbEntity
  8
0
  6
Continuous
 62
     7
370
     0
100
AcDbPolyline
 90
        6
 70
   128
 43
0.0
 10
159.8801948466
 20
137.1528564434
 10
159.742245157
 20
137.2168035013
 10
159.6095967965
 20
137.2469139043
 10
159.4873473674
 20
137.2420305262
 10
159.3801948466
 20
137.2023410327
 10
159.3802354803
 20
137.2023644939
  0
LWPOLYLINE
  5
23E
330
1F
100
AcDbEntity
  8
0
  6
Continuous
 62
     7
370
     0
100
AcDbPolyline
 90
        3
 70
   128
 43
0.0
 10
168.9359179643
 20
114.2118537241
 10
168.9196397351
 20
114.196585413
 10
168.783577091
 20
114.0968727188
  0
LINE
  5
23F
330
1F
100
AcDbEntity
  8
0
  6
Continuous
 62
     7
370
     0
100
AcDbLine
 10
167.9412121521
 20
112.5349073554
 30
0.0
 11
158.9609560311
 21
107.3507158453
 31
0.0
  0
LINE
  5
240
330
1F
100
AcDbEntity
  8
0
  6
Continuous
 62
     7
370
     0
100
AcDbLine
 10
167.9412121521
 20
113.6105857905
 30
0.0
 11
167.9412121521
 21
112.5349073554
 31
0.0
  0
LINE
  5
241
330
1F
100
AcDbEntity
  8
0
  6
Continuous
 62
     7
370
     0
100
AcDbLine
 10
188.2563842289
 20
100.7663811059
 30
0.0
 11
188.3058874503
 21
100.7378035045
 31
0.0
  0
LWPOLYLINE
  5
242
330
1F
100
AcDbEntity
  8
0
  6
Continuous
 62
     7
370
     0
100
AcDbPolyline
 90
        3
 70
   128
 43
0.0
 10
168.783577091
 20
114.0968727188
 10
168.9196397351
 20
114.196585413
 10
168.9359179643
 20
114.2118537241
  0
LINE
  5
243
330
1F
100
AcDbEntity
  8
0
  6
Continuous
 62
     7
370
     0
100
AcDbLine
 10
167.9412121521
 20
112.4940803148
 30
0.0
 11
167.9412121521
 21
113.6105857905
 31
0.0
  0
LINE
  5
244
330
1F
100
AcDbEntity
  8
0
  6
Continuous
 62
     7
370
     0
100
AcDbLine
 10
167.9058510664
 20
112.5144938351
 30
0.0
 11
167.9412121521
 21
112.4940803148
 31
0.0
  0
LINE
  5
245
330
1F
100
AcDbEntity
  8
0
  6
Continuous
 62
     7
370
     0
100
AcDbLine
 10
153.3041017816
 20
135.3558496019
 30
0.0
 11
154.7428665383
 21
134.5252683873
 31
0.0
  0
LINE
  5
246
330
1F
100
AcDbEntity
  8
0
  6
Continuous
 62
     7
370
     0
100
AcDbLine
 10
153.3041017816
 20
136.7439689821
 30
0.0
 11
153.3041017816
 21
135.3558496019
 31
0.0
  0
LINE
  5
247
330
1F
100
AcDbEntity
  8
0
  6
Continuous
 62
     7
370
     0
100
AcDbLine
 10
151.8898882192
 20
139.1934587177
 30
0.0
 11
153.3041017816
 21
136.7439689821
 31
0.0
  0
LINE
  5
248
330
1F
100
AcDbEntity
  8
0
  6
Continuous
 62
     7
370
     0
100
AcDbLine
 10
151.8898882192
 20
141.8063893157
 30
0.0
 11
151.8898882192
 21
139.1934587177
 31
0.0
  0
LINE
  5
249
330
1F
100
AcDbEntity
  8
0
  6
Continuous
 62
     7
370
     0
100
AcDbLine
 10
152.4555736441
 20
142.1330587205
 30
0.0
 11
151.8898882192
 21
141.8063893157
 31
0.0
  0
LINE
  5
24A
330
1F
100
AcDbEntity
  8
0
  6
Continuous
 62
     7
370
     0
100
AcDbLine
 10
158.8548900139
 20
138.4388120145
 30
0.0
 11
152.4555736441
 21
142.1330587205
 31
0.0
  0
LINE
  5
24B
330
1F
100
AcDbEntity
  8
0
  6
Continuous
 62
     7
370
     0
100
AcDbLine
 10
159.1377327264
 20
137.9489140674
 30
0.0
 11
158.8548900139
 21
138.4388120145
 31
0.0
  0
LINE
  5
24C
330
1F
100
AcDbEntity
  8
0
  6
Continuous
 62
     7
370
     0
100
AcDbLine
 10
170.4514412253
 20
131.4176491728
 30
0.0
 11
159.1377327264
 21
137.9489140674
 31
0.0
  0
LINE
  5
24D
330
1F
100
AcDbEntity
  8
0
  6
Continuous
 62
     7
370
     0
100
AcDbLine
 10
170.7342839378
 20
131.5809838752
 30
0.0
 11
170.4514412253
 21
131.4176491728
 31
0.0
  0
LINE
  5
24E
330
1F
100
AcDbEntity
  8
0
  6
Continuous
 62
     7
370
     0
100
AcDbLine
 10
177.5932197153
 20
127.6214045329
 30
0.0
 11
170.7342839378
 21
131.5809838752
 31
0.0
  0
LINE
  5
24F
330
1F
100
AcDbEntity
  8
0
  6
Continuous
 62
     7
370
     0
100
AcDbLine
 10
177.8760624278
 20
127.1315065858
 30
0.0
 11
177.5932197153
 21
127.6214045329
 31
0.0
  0
LINE
  5
250
330
1F
100
AcDbEntity
  8
0
  6
Continuous
 62
     7
370
     0
100
AcDbLine
 10
189.1897709268
 20
120.6002416912
 30
0.0
 11
177.8760624278
 21
127.1315065858
 31
0.0
  0
LINE
  5
251
330
1F
100
AcDbEntity
  8
0
  6
Continuous
 62
     7
370
     0
100
AcDbLine
 10
189.4726136393
 20
120.7635763936
 30
0.0
 11
189.1897709268
 21
120.6002416912
 31
0.0
  0
LINE
  5
252
330
1F
100
AcDbEntity
  8
0
  6
Continuous
 62
     7
370
     0
100
AcDbLine
 10
195.871930009
 20
117.0693296876
 30
0.0
 11
189.4726136393
 21
120.7635763936
 31
0.0
  0
LINE
  5
253
330
1F
100
AcDbEntity
  8
0
  6
Continuous
 62
     7
370
     0
100
AcDbLine
 10
196.4376154339
 20
116.0895337933
 30
0.0
 11
195.871930009
 21
117.0693296876
 31
0.0
  0
LINE
  5
254
330
1F
100
AcDbEntity
  8
0
  6
Continuous
 62
     7
370
     0
100
AcDbLine
 10
196.4376154339
 20
110.4554021913
 30
0.0
 11
196.4376154339
 21
116.0895337933
 31
0.0
  0
LINE
  5
255
330
1F
100
AcDbEntity
  8
0
  6
Continuous
 62
     7
370
     0
100
AcDbLine
 10
189.3665476221
 20
114.5374427504
 30
0.0
 11
196.4376154339
 21
110.4554021913
 31
0.0
  0
LINE
  5
256
330
1F
100
AcDbEntity
  8
0
  6
Continuous
 62
     7
370
     0
100
AcDbLine
 10
189.3665476221
 20
101.3503086385
 30
0.0
 11
189.3665476221
 21
114.5374427504
 31
0.0
  0
LINE
  5
257
330
1F
100
AcDbEntity
  8
0
  6
Continuous
 62
     7
370
     0
100
AcDbLine
 10
188.3058874503
 20
100.7378035045
 30
0.0
 11
189.3665476221
 21
101.3503086385
 31
0.0
  0
LINE
  5
258
330
1F
100
AcDbEntity
  8
0
  6
Continuous
 62
     7
370
     0
100
AcDbLine
 10
196.4376154339
 20
116.0895337933
 30
0.0
 11
231.5101117808
 21
136.3364549665
 31
0.0
  0
LINE
  5
259
330
1F
100
AcDbEntity
  8
0
  6
Continuous
 62
     7
370
     0
100
AcDbLine
 10
195.871930009
 20
117.0693296876
 30
0.0
 11
230.9444263559
 21
137.3162508608
 31
0.0
  0
LINE
  5
25A
330
1F
100
AcDbEntity
  8
0
  6
Continuous
 62
     7
370
     0
100
AcDbLine
 10
231.5101117808
 20
136.3364549665
 30
0.0
 11
230.9444263559
 21
137.3162508608
 31
0.0
  0
LINE
  5
25B
330
1F
100
AcDbEntity
  8
0
  6
Continuous
 62
     7
370
     0
100
AcDbLine
 10
203.3672618896
 20
109.4340759462
 30
0.0
 11
203.3672618896
 21
114.4558019393
 31
0.0
  0
LINE
  5
25C
330
1F
100
AcDbEntity
  8
0
  6
Continuous
 62
     7
370
     0
100
AcDbLine
 10
196.4376154339
 20
110.4554021913
 30
0.0
 11
203.3672618896
 21
114.4558019393
 31
0.0
  0
LINE
  5
25D
330
1F
100
AcDbEntity
  8
0
  6
Continuous
 62
     7
370
     0
100
AcDbLine
 10
231.5101117808
 20
130.7023233645
 30
0.0
 11
231.5101117808
 21
136.3364549665
 31
0.0
  0
LINE
  5
25E
330
1F
100
AcDbEntity
  8
0
  6
Continuous
 62
     7
370
     0
100
AcDbLine
 10
224.5804653252
 20
126.7019236166
 30
0.0
 11
231.5101117808
 21
130.7023233645
 31
0.0
  0
LINE
  5
25F
330
1F
100
AcDbEntity
  8
0
  6
Continuous
 62
     7
370
     0
100
AcDbLine
 10
224.5804653252
 20
121.6801976235
 30
0.0
 11
224.5804653252
 21
126.7019236166
 31
0.0
  0
LINE
  5
260
330
1F
100
AcDbEntity
  8
0
  6
Continuous
 62
     7
370
     0
100
AcDbLine
 10
203.3672618896
 20
109.4340759462
 30
0.0
 11
224.5804653252
 21
121.6801976235
 31
0.0
  0
LINE
  5
261
330
1F
100
AcDbEntity
  8
0
  6
Continuous
 62
     7
370
     0
100
AcDbLine
 10
189.4726136393
 20
120.7635763936
 30
0.0
 11
224.5451099861
 21
141.0104975668
 31
0.0
  0
LINE
  5
262
330
1F
100
AcDbEntity
  8
0
  6
Continuous
 62
     7
370
     0
100
AcDbLine
 10
230.9444263559
 20
137.3162508608
 30
0.0
 11
224.5451099861
 21
141.0104975668
 31
0.0
  0
LWPOLYLINE
  5
263
330
1F
100
AcDbEntity
  8
0
  6
Continuous
 62
     7
370
     0
100
AcDbPolyline
 90
       35
 70
   128
 43
0.0
 10
226.7371410078
 20
135.8263060567
 10
226.3041313892
 20
135.6187326682
 10
225.81242439
 20
135.4606256862
 10
225.2787645025
 20
135.3573692541
 10
224.721324874
 20
135.312479646
 10
224.1590884426
 20
135.3274855236
 10
223.6112014954
 20
135.4018758799
 10
223.0963216655
 20
135.5331174403
 10
222.6319825679
 20
135.716740931
 10
222.2339967137
 20
135.9464932743
 10
221.9159170337
 20
136.2145505296
 10
221.68857535
 20
136.5117843286
 10
221.559713511
 20
136.8280727307
 10
221.533719752
 20
137.1526449139
 10
221.6114792594
 20
137.4744479617
 10
221.7903440263
 20
137.7825232572
 10
222.0642230276
 20
138.0663796657
 10
222.4237896426
 20
138.3163507978
 10
222.8567992612
 20
138.5239241862
 10
223.3485062603
 20
138.6820311683
 10
223.8821661478
 20
138.7852876004
 10
224.4396057763
 20
138.8301772085
 10
225.0018422078
 20
138.8151713308
 10
225.5497291549
 20
138.7407809746
 10
226.0646089848
 20
138.6095394142
 10
226.5289480824
 20
138.4259159234
 10
226.9269339367
 20
138.1961635802
 10
227.2450136166
 20
137.9281063249
 10
227.4723553003
 20
137.6308725259
 10
227.6012171393
 20
137.3145841237
 10
227.6272108983
 20
136.9900119405
 10
227.549451391
 20
136.6682088928
 10
227.3705866241
 20
136.3601335973
 10
227.0967076227
 20
136.0762771887
 10
226.7371410078
 20
135.8263060567
  0
LWPOLYLINE
  5
264
330
1F
100
AcDbEntity
  8
0
  6
Continuous
 62
     7
370
     0
100
AcDbPolyline
 90
       35
 70
   128
 43
0.0
 10
198.4528697603
 20
119.4981438202
 10
198.0198601417
 20
119.2905704318
 10
197.5281531426
 20
119.1324634497
 10
196.9944932551
 20
119.0292070176
 10
196.4370536266
 20
118.9843174095
 10
195.8748171951
 20
118.9993232872
 10
195.326930248
 20
119.0737136434
 10
194.8120504181
 20
119.2049552038
 10
194.3477113205
 20
119.3885786946
 10
193.9497254662
 20
119.6183310378
 10
193.6316457862
 20
119.8863882931
 10
193.4043041026
 20
120.1836220921
 10
193.2754422635
 20
120.4999104943
 10
193.2494485046
 20
120.8244826775
 10
193.3272080119
 20
121.1462857252
 10
193.5060727788
 20
121.4543610207
 10
193.7799517802
 20
121.7382174293
 10
194.1395183951
 20
121.9881885613
 10
194.5725280137
 20
122.1957619498
 10
195.0642350129
 20
122.3538689319
 10
195.5978949004
 20
122.4571253639
 10
196.1553345288
 20
122.502014972
 10
196.7175709603
 20
122.4870090944
 10
197.2654579074
 20
122.4126187381
 10
197.7803377373
 20
122.2813771777
 10
198.244676835
 20
122.097753687
 10
198.6426626892
 20
121.8680013437
 10
198.9607423692
 20
121.5999440884
 10
199.1880840529
 20
121.3027102894
 10
199.3169458919
 20
120.9864218873
 10
199.3429396509
 20
120.6618497041
 10
199.2651801435
 20
120.3400466563
 10
199.0863153766
 20
120.0319713608
 10
198.8124363752
 20
119.7481149523
 10
198.4528697603
 20
119.4981438202
  0
LWPOLYLINE
  5
265
330
1F
100
AcDbEntity
  8
0
  6
Continuous
 62
     7
370
     0
100
AcDbPolyline
 90
       17
 70
   128
 43
0.0
 10
198.1700270479
 20
121.4982906142
 10
197.7684551952
 20
121.6885424199
 10
197.3103051735
 20
121.8299122652
 10
196.8131834311
 20
121.916967386
 10
196.2961940777
 20
121.946362303
 10
195.7792047244
 20
121.916967386
 10
195.2820829819
 20
121.8299122652
 10
194.8239329602
 20
121.6885424199
 10
194.4223611076
 20
121.4982906142
 10
194.0927996051
 20
121.2664681181
 10
193.8479133166
 20
121.0019837403
 10
193.6971130846
 20
120.715001467
 10
193.6461940777
 20
120.416549866
 10
193.6971130846
 20
120.1180982651
 10
193.8479133166
 20
119.8311159917
 10
194.0927996051
 20
119.5666316139
 10
194.2905660186
 20
119.4166655359
  0
LWPOLYLINE
  5
266
330
1F
100
AcDbEntity
  8
0
  6
Continuous
 62
     7
370
     0
100
AcDbPolyline
 90
        9
 70
   128
 43
0.0
 10
198.3018221368
 20
119.4166655359
 10
198.4995885503
 20
119.5666316139
 10
198.7444748389
 20
119.8311159917
 10
198.8952750708
 20
120.1180982651
 10
198.9461940777
 20
120.416549866
 10
198.8952750708
 20
120.715001467
 10
198.7444748389
 20
121.0019837403
 10
198.4995885503
 20
121.2664681181
 10
198.1700270479
 20
121.4982906142
  0
LINE
  5
267
330
1F
100
AcDbEntity
  8
0
  6
Continuous
 62
     7
370
     0
100
AcDbLine
 10
177.8760624278
 20
127.1315065858
 30
0.0
 11
212.9485587747
 21
147.378427759
 31
0.0
  0
LINE
  5
268
330
1F
100
AcDbEntity
  8
0
  6
Continuous
 62
     7
370
     0
100
AcDbLine
 10
224.2622213
 20
140.8471894044
 30
0.0
 11
212.9485587747
 21
147.378427759
 31
0.0
  0
LINE
  5
269
330
1F
100
AcDbEntity
  8
0
  6
Continuous
 62
     7
370
     0
100
AcDbLine
 10
188.3058874503
 20
100.7378035045
 30
0.0
 11
223.3783837972
 21
120.9847246777
 31
0.0
  0
LINE
  5
26A
330
1F
100
AcDbEntity
  8
0
  6
Continuous
 62
     7
370
     0
100
AcDbLine
 10
192.7606601718
 20
103.3096881069
 30
0.0
 11
189.3665476221
 21
101.3503086385
 31
0.0
  0
ELLIPSE
  5
26B
330
1F
100
AcDbEntity
  8
0
  6
Continuous
 62
     7
370
     0
100
AcDbEllipse
 10
196.2961940777
 20
105.3513718867
 30
0.0
 11
5.000000007303726
 21
2.886907749280055
 31
0.0
210
0.0
220
0.0
230
0.9999999999999999
 40
0.0000703729
 41
3.926950186192867
 42
5.497746510726263
  0
LINE
  5
26C
330
1F
100
AcDbEntity
  8
0
  6
Continuous
 62
     7
370
     0
100
AcDbLine
 10
203.3672618896
 20
109.4340759462
 30
0.0
 11
199.8317279836
 21
107.3923921663
 31
0.0
  0
LINE
  5
26D
330
1F
100
AcDbEntity
  8
0
  6
Continuous
 62
     7
370
     0
100
AcDbLine
 10
221.0449314192
 20
119.6385138436
 30
0.0
 11
224.5804653252
 21
121.6801976235
 31
0.0
  0
ELLIPSE
  5
26E
330
1F
100
AcDbEntity
  8
0
  6
Continuous
 62
     7
370
     0
100
AcDbEllipse
 10
224.5804653252
 20
121.6795341232
 30
0.0
 11
4.999999964993208
 21
2.886907724850758
 31
0.0
210
0.0
220
0.0
230
0.9999999999999998
 40
0.0000703729
 41
2.356153861256253
 42
3.926950181938283
  0
LINE
  5
26F
330
1F
100
AcDbEntity
  8
0
  6
Continuous
 62
     7
370
     0
100
AcDbLine
 10
224.4390439689
 20
121.5972298117
 30
0.0
 11
221.0449314192
 21
119.6378503433
 31
0.0
  0
LINE
  5
270
330
1F
100
AcDbEntity
  8
0
  6
Continuous
 62
     7
370
     0
100
AcDbLine
 10
223.3783837972
 20
120.9847246777
 30
0.0
 11
224.4390439689
 21
121.5972298117
 31
0.0
  0
LINE
  5
271
330
1F
100
AcDbEntity
  8
0
  6
Continuous
 62
     7
370
     0
100
AcDbLine
 10
177.5932197153
 20
127.6214045329
 30
0.0
 11
212.6657160622
 21
147.8683257061
 31
0.0
  0
LINE
  5
272
330
1F
100
AcDbEntity
  8
0
  6
Continuous
 62
     7
370
     0
100
AcDbLine
 10
212.9485587747
 20
147.378427759
 30
0.0
 11
212.6657160622
 21
147.8683257061
 31
0.0
  0
LINE
  5
273
330
1F
100
AcDbEntity
  8
0
  6
Continuous
 62
     7
370
     0
100
AcDbLine
 10
170.7342839378
 20
131.5809838752
 30
0.0
 11
205.8067802847
 21
151.8279050484
 31
0.0
  0
LINE
  5
274
330
1F
100
AcDbEntity
  8
0
  6
Continuous
 62
     7
370
     0
100
AcDbLine
 10
212.6657160622
 20
147.8683257061
 30
0.0
 11
205.8067802847
 21
151.8279050484
 31
0.0
  0
LWPOLYLINE
  5
275
330
1F
100
AcDbEntity
  8
0
  6
Continuous
 62
     7
370
     0
100
AcDbPolyline
 90
       35
 70
   128
 43
0.0
 10
181.4823070119
 20
133.8261061827
 10
181.8418736268
 20
133.5761350507
 10
182.1157526281
 20
133.2922786421
 10
182.294617395
 20
132.9842033466
 10
182.3723769024
 20
132.6624002989
 10
182.3463831434
 20
132.3378281157
 10
182.2175213044
 20
132.0215397135
 10
181.9901796207
 20
131.7243059145
 10
181.6720999407
 20
131.4562486592
 10
181.2741140865
 20
131.226496316
 10
180.8097749889
 20
131.0428728253
 10
180.294895159
 20
130.9116312648
 10
179.7470082118
 20
130.8372409086
 10
179.1847717804
 20
130.822235031
 10
178.6273321519
 20
130.8671246391
 10
178.0936722644
 20
130.9703810711
 10
177.6019652652
 20
131.1284880532
 10
177.1689556466
 20
131.3360614417
 10
176.8093890317
 20
131.5860325737
 10
176.5355100303
 20
131.8698889823
 10
176.3566452634
 20
132.1779642778
 10
176.2788857561
 20
132.4997673255
 10
176.3048795151
 20
132.8243395087
 10
176.4337413541
 20
133.1406279109
 10
176.6610830378
 20
133.4378617099
 10
176.9791627177
 20
133.7059189652
 10
177.377148572
 20
133.9356713084
 10
177.8414876696
 20
134.1192947991
 10
178.3563674995
 20
134.2505363596
 10
178.9042544466
 20
134.3249267158
 10
179.4664908781
 20
134.3399325934
 10
180.0239305066
 20
134.2950429853
 10
180.5575903941
 20
134.1917865533
 10
181.0492973932
 20
134.0336795712
 10
181.4823070119
 20
133.8261061827
  0
LWPOLYLINE
  5
276
330
1F
100
AcDbEntity
  8
0
  6
Continuous
 62
     7
370
     0
100
AcDbPolyline
 90
       35
 70
   128
 43
0.0
 10
206.2310443534
 20
148.1132481396
 10
206.5906109683
 20
147.8632770076
 10
206.8644899697
 20
147.579420599
 10
207.0433547366
 20
147.2713453035
 10
207.1211142439
 20
146.9495422558
 10
207.0951204849
 20
146.6249700726
 10
206.9662586459
 20
146.3086816704
 10
206.7389169622
 20
146.0114478714
 10
206.4208372823
 20
145.7433906161
 10
206.022851428
 20
145.5136382729
 10
205.5585123304
 20
145.3300147822
 10
205.0436325005
 20
145.1987732217
 10
204.4957455534
 20
145.1243828655
 10
203.9335091219
 20
145.1093769879
 10
203.3760694934
 20
145.154266596
 10
202.8424096059
 20
145.257523028
 10
202.3507026068
 20
145.4156300101
 10
201.9176929881
 20
145.6232033986
 10
201.5581263732
 20
145.8731745306
 10
201.2842473719
 20
146.1570309392
 10
201.105382605
 20
146.4651062347
 10
201.0276230976
 20
146.7869092824
 10
201.0536168566
 20
147.1114814656
 10
201.1824786956
 20
147.4277698678
 10
201.4098203793
 20
147.7250036668
 10
201.7279000593
 20
147.9930609221
 10
202.1258859135
 20
148.2228132653
 10
202.5902250111
 20
148.406436756
 10
203.105104841
 20
148.5376783165
 10
203.6529917882
 20
148.6120686727
 10
204.2152282196
 20
148.6270745503
 10
204.7726678481
 20
148.5821849422
 10
205.3063277356
 20
148.4789285102
 10
205.7980347348
 20
148.3208215281
 10
206.2310443534
 20
148.1132481396
  0
LWPOLYLINE
  5
277
330
1F
100
AcDbEntity
  8
0
  6
Continuous
 62
     7
370
     0
100
AcDbPolyline
 90
       17
 70
   128
 43
0.0
 10
181.1994642994
 20
133.3362082356
 10
180.7978924467
 20
133.5264600414
 10
180.339742425
 20
133.6678298866
 10
179.8426206826
 20
133.7548850075
 10
179.3256313292
 20
133.7842799245
 10
178.8086419759
 20
133.7548850075
 10
178.3115202335
 20
133.6678298866
 10
177.8533702117
 20
133.5264600414
 10
177.4517983591
 20
133.3362082356
 10
177.1222368566
 20
133.1043857396
 10
176.8773505681
 20
132.8399013617
 10
176.7265503362
 20
132.5529190884
 10
176.6756313292
 20
132.2544674874
 10
176.7265503362
 20
131.9560158865
 10
176.8773505681
 20
131.6690336132
 10
177.1222368566
 20
131.4045492353
 10
177.3200032701
 20
131.2545831573
  0
LWPOLYLINE
  5
278
330
1F
100
AcDbEntity
  8
0
  6
Continuous
 62
     7
370
     0
100
AcDbPolyline
 90
        9
 70
   128
 43
0.0
 10
181.3312593883
 20
131.2545831573
 10
181.5290258018
 20
131.4045492353
 10
181.7739120904
 20
131.6690336132
 10
181.9247123223
 20
131.9560158865
 10
181.9756313292
 20
132.2544674874
 10
181.9247123223
 20
132.5529190884
 10
181.7739120904
 20
132.8399013617
 10
181.5290258018
 20
133.1043857396
 10
181.1994642994
 20
133.3362082356
  0
LINE
  5
279
330
1F
100
AcDbEntity
  8
0
  6
Continuous
 62
     7
370
     0
100
AcDbLine
 10
159.1377327264
 20
137.9489140674
 30
0.0
 11
194.2102290732
 21
158.1958352406
 31
0.0
  0
LINE
  5
27A
330
1F
100
AcDbEntity
  8
0
  6
Continuous
 62
     7
370
     0
100
AcDbLine
 10
205.5238915986
 20
151.664596886
 30
0.0
 11
194.2102290732
 21
158.1958352406
 31
0.0
  0
LWPOLYLINE
  5
27B
330
1F
100
AcDbEntity
  8
0
  6
Continuous
 62
     7
370
     0
100
AcDbPolyline
 90
       17
 70
   128
 43
0.0
 10
226.4542982953
 20
137.8264528506
 10
226.0527264427
 20
138.0167046564
 10
225.5945764209
 20
138.1580745016
 10
225.0974546785
 20
138.2451296225
 10
224.5804653252
 20
138.2745245395
 10
224.0634759718
 20
138.2451296225
 10
223.5663542294
 20
138.1580745016
 10
223.1082042077
 20
138.0167046564
 10
222.706632355
 20
137.8264528506
 10
222.3770708526
 20
137.5946303546
 10
222.132184564
 20
137.3301459767
 10
221.9813843321
 20
137.0431637034
 10
221.9304653252
 20
136.7447121025
 10
221.9813843321
 20
136.4462605015
 10
222.132184564
 20
136.1592782282
 10
222.3770708526
 20
135.8947938504
 10
222.5748372657
 20
135.7448277726
  0
LWPOLYLINE
  5
27C
330
1F
100
AcDbEntity
  8
0
  6
Continuous
 62
     7
370
     0
100
AcDbPolyline
 90
        9
 70
   128
 43
0.0
 10
226.5860933848
 20
135.7448277727
 10
226.7838597978
 20
135.8947938504
 10
227.0287460863
 20
136.1592782282
 10
227.1795463182
 20
136.4462605015
 10
227.2304653252
 20
136.7447121025
 10
227.1795463182
 20
137.0431637034
 10
227.0287460863
 20
137.3301459767
 10
226.7838597978
 20
137.5946303546
 10
226.4542982953
 20
137.8264528506
  0
LINE
  5
27D
330
1F
100
AcDbEntity
  8
0
  6
Continuous
 62
     7
370
     0
100
AcDbLine
 10
158.8548900139
 20
138.4388120145
 30
0.0
 11
193.9273863607
 21
158.6857331877
 31
0.0
  0
LINE
  5
27E
330
1F
100
AcDbEntity
  8
0
  6
Continuous
 62
     7
370
     0
100
AcDbLine
 10
194.2102290732
 20
158.1958352406
 30
0.0
 11
193.9273863607
 21
158.6857331877
 31
0.0
  0
LINE
  5
27F
330
1F
100
AcDbEntity
  8
0
  6
Continuous
 62
     7
370
     0
100
AcDbLine
 10
152.4555736441
 20
142.1330587205
 30
0.0
 11
187.528069991
 21
162.3799798937
 31
0.0
  0
LWPOLYLINE
  5
280
330
1F
100
AcDbEntity
  8
0
  6
Continuous
 62
     7
370
     0
100
AcDbPolyline
 90
       35
 70
   128
 43
0.0
 10
160.9762103574
 20
141.1329587835
 10
160.5432007388
 20
140.9253853951
 10
160.0514937397
 20
140.767278413
 10
159.5178338522
 20
140.6640219809
 10
158.9603942237
 20
140.6191323728
 10
158.3981577922
 20
140.6341382505
 10
157.8502708451
 20
140.7085286067
 10
157.3353910152
 20
140.8397701672
 10
156.8710519176
 20
141.0233936579
 10
156.4730660633
 20
141.2531460011
 10
156.1549863834
 20
141.5212032564
 10
155.9276446997
 20
141.8184370554
 10
155.7987828607
 20
142.1347254576
 10
155.7727891017
 20
142.4592976408
 10
155.850548609
 20
142.7811006885
 10
156.0294133759
 20
143.089175984
 10
156.3032923773
 20
143.3730323926
 10
156.6628589922
 20
143.6230035246
 10
157.0958686108
 20
143.8305769131
 10
157.58757561
 20
143.9886838952
 10
158.1212354975
 20
144.0919403272
 10
158.678675126
 20
144.1368299353
 10
159.2409115574
 20
144.1218240577
 10
159.7887985046
 20
144.0474337014
 10
160.3036783345
 20
143.916192141
 10
160.7680174321
 20
143.7325686503
 10
161.1660032863
 20
143.502816307
 10
161.4840829663
 20
143.2347590517
 10
161.71142465
 20
142.9375252527
 10
161.840286489
 20
142.6212368506
 10
161.866280248
 20
142.2966646674
 10
161.7885207406
 20
141.9748616196
 10
161.6096559737
 20
141.6667863241
 10
161.3357769724
 20
141.3829299156
 10
160.9762103574
 20
141.1329587835
  0
LWPOLYLINE
  5
281
330
1F
100
AcDbEntity
  8
0
  6
Continuous
 62
     7
370
     0
100
AcDbPolyline
 90
       35
 70
   128
 43
0.0
 10
189.2604816049
 20
157.46112102
 10
188.8274719863
 20
157.2535476315
 10
188.3357649871
 20
157.0954406495
 10
187.8021050996
 20
156.9921842174
 10
187.2446654712
 20
156.9472946093
 10
186.6824290397
 20
156.9623004869
 10
186.1345420926
 20
157.0366908432
 10
185.6196622627
 20
157.1679324036
 10
185.155323165
 20
157.3515558943
 10
184.7573373108
 20
157.5813082376
 10
184.4392576308
 20
157.8493654929
 10
184.2119159471
 20
158.1465992919
 10
184.0830541081
 20
158.462887694
 10
184.0570603491
 20
158.7874598772
 10
184.1348198565
 20
159.109262925
 10
184.3136846234
 20
159.4173382205
 10
184.5875636248
 20
159.701194629
 10
184.9471302397
 20
159.9511657611
 10
185.3801398583
 20
160.1587391495
 10
185.8718468574
 20
160.3168461316
 10
186.4055067449
 20
160.4201025637
 10
186.9629463734
 20
160.4649921718
 10
187.5251828049
 20
160.4499862941
 10
188.073069752
 20
160.3755959379
 10
188.5879495819
 20
160.2443543775
 10
189.0522886795
 20
160.0607308867
 10
189.4502745338
 20
159.8309785435
 10
189.7683542138
 20
159.5629212882
 10
189.9956958974
 20
159.2656874892
 10
190.1245577365
 20
158.949399087
 10
190.1505514954
 20
158.6248269038
 10
190.0727919881
 20
158.3030238561
 10
189.8939272212
 20
157.9949485606
 10
189.6200482198
 20
157.7110921521
 10
189.2604816049
 20
157.46112102
  0
LINE
  5
282
330
1F
100
AcDbEntity
  8
0
  6
Continuous
 62
     7
370
     0
100
AcDbLine
 10
193.9273863607
 20
158.6857331877
 30
0.0
 11
187.528069991
 21
162.3799798937
 31
0.0
  0
LWPOLYLINE
  5
283
330
1F
100
AcDbEntity
  8
0
  6
Continuous
 62
     7
370
     0
100
AcDbPolyline
 90
       17
 70
   128
 43
0.0
 10
160.693367645
 20
143.1331055775
 10
160.2917957923
 20
143.3233573832
 10
159.8336457706
 20
143.4647272285
 10
159.3365240282
 20
143.5517823493
 10
158.8195346748
 20
143.5811772663
 10
158.3025453215
 20
143.5517823493
 10
157.8054235791
 20
143.4647272285
 10
157.3472735573
 20
143.3233573832
 10
156.9457017047
 20
143.1331055775
 10
156.6161402022
 20
142.9012830814
 10
156.3712539137
 20
142.6367987036
 10
156.2204536818
 20
142.3498164303
 10
156.1695346748
 20
142.0513648293
 10
156.2204536818
 20
141.7529132284
 10
156.3712539137
 20
141.465930955
 10
156.6161402022
 20
141.2014465772
 10
156.8139066145
 20
141.0514805
  0
LWPOLYLINE
  5
284
330
1F
100
AcDbEntity
  8
0
  6
Continuous
 62
     7
370
     0
100
AcDbPolyline
 90
        9
 70
   128
 43
0.0
 10
160.8251627349
 20
141.0514804998
 10
161.0229291474
 20
141.2014465772
 10
161.267815436
 20
141.465930955
 10
161.4186156679
 20
141.7529132284
 10
161.4695346748
 20
142.0513648293
 10
161.4186156679
 20
142.3498164303
 10
161.267815436
 20
142.6367987036
 10
161.0229291474
 20
142.9012830814
 10
160.693367645
 20
143.1331055775
  0
LINE
  5
285
330
1F
100
AcDbEntity
  8
0
  6
Continuous
 62
     7
370
     0
100
AcDbLine
 10
224.4390439689
 20
121.5972298117
 30
0.0
 11
224.4390439689
 21
121.5985302723
 31
0.0
  0
LINE
  5
286
330
1F
100
AcDbEntity
  8
0
  6
Continuous
 62
     7
370
     0
100
AcDbLine
 10
170.5593921614
 20
114.0055234622
 30
0.0
 11
167.9412121521
 21
112.4940803148
 31
0.0
  0
LWPOLYLINE
  5
287
330
1F
100
AcDbEntity
  8
0
  6
Continuous
 62
     7
370
     0
100
AcDbPolyline
 90
       17
 70
   128
 43
0.0
 10
205.9482016409
 20
147.6233501925
 10
205.5466297883
 20
147.8136019983
 10
205.0884797665
 20
147.9549718435
 10
204.5913580241
 20
148.0420269644
 10
204.0743686708
 20
148.0714218814
 10
203.5573793174
 20
148.0420269644
 10
203.060257575
 20
147.9549718435
 10
202.6021075533
 20
147.8136019983
 10
202.2005357006
 20
147.6233501925
 10
201.8709741982
 20
147.3915276965
 10
201.6260879096
 20
147.1270433186
 10
201.4752876777
 20
146.8400610453
 10
201.4243686708
 20
146.5416094443
 10
201.4752876777
 20
146.2431578434
 10
201.6260879096
 20
145.9561755701
 10
201.8709741982
 20
145.6916911922
 10
202.0687406117
 20
145.5417251142
  0
LWPOLYLINE
  5
288
330
1F
100
AcDbEntity
  8
0
  6
Continuous
 62
     7
370
     0
100
AcDbPolyline
 90
        9
 70
   128
 43
0.0
 10
206.0799967299
 20
145.5417251142
 10
206.2777631434
 20
145.6916911922
 10
206.5226494319
 20
145.9561755701
 10
206.6734496638
 20
146.2431578434
 10
206.7243686708
 20
146.5416094443
 10
206.6734496638
 20
146.8400610453
 10
206.5226494319
 20
147.1270433186
 10
206.2777631434
 20
147.3915276965
 10
205.9482016409
 20
147.6233501925
  0
LWPOLYLINE
  5
289
330
1F
100
AcDbEntity
  8
0
  6
Continuous
 62
     7
370
     0
100
AcDbPolyline
 90
       17
 70
   128
 43
0.0
 10
188.9776388924
 20
159.4612678139
 10
188.5760670398
 20
159.6515196197
 10
188.1179170181
 20
159.7928894649
 10
187.6207952756
 20
159.8799445858
 10
187.1038059223
 20
159.9093395028
 10
186.5868165689
 20
159.8799445858
 10
186.0896948265
 20
159.7928894649
 10
185.6315448048
 20
159.6515196197
 10
185.2299729521
 20
159.4612678139
 10
184.9004114497
 20
159.2294453179
 10
184.6555251611
 20
158.9649609401
 10
184.5047249292
 20
158.6779786667
 10
184.4538059223
 20
158.3795270658
 10
184.5047249292
 20
158.0810754648
 10
184.6555251611
 20
157.7940931915
 10
184.9004114497
 20
157.5296088137
 10
185.0981778632
 20
157.3796427357
  0
LWPOLYLINE
  5
28A
330
1F
100
AcDbEntity
  8
0
  6
Continuous
 62
     7
370
     0
100
AcDbPolyline
 90
        9
 70
   128
 43
0.0
 10
189.1094339814
 20
157.3796427357
 10
189.3072003949
 20
157.5296088137
 10
189.5520866834
 20
157.7940931915
 10
189.7028869154
 20
158.0810754648
 10
189.7538059223
 20
158.3795270658
 10
189.7028869154
 20
158.6779786667
 10
189.5520866834
 20
158.9649609401
 10
189.3072003949
 20
159.2294453179
 10
188.9776388924
 20
159.4612678139
  0
LINE
  5
28B
330
1F
100
AcDbEntity
  8
0
  6
Continuous
 62
     7
370
     0
100
AcDbLine
 10
232.5000612745
 20
146.0925252678
 30
0.0
 11
223.8380549253
 21
141.0920554404
 31
0.0
  0
LINE
  5
28C
330
1F
100
AcDbEntity
  8
0
  6
Continuous
 62
     7
370
     0
100
AcDbLine
 10
228.6906038505
 20
142.2604233835
 30
0.0
 11
225.5352721078
 21
140.4388891409
 31
0.0
  0
LINE
  5
28D
330
1F
100
AcDbEntity
  8
0
  6
Continuous
 62
     7
370
     0
100
AcDbLine
 10
203.9329473145
 20
162.5839691266
 30
0.0
 11
195.2709409653
 21
157.5834992992
 31
0.0
  0
LINE
  5
28E
330
1F
100
AcDbEntity
  8
0
  6
Continuous
 62
     7
370
     0
100
AcDbLine
 10
199.8317279836
 20
107.3923921663
 30
0.0
 11
199.8317279836
 21
112.4147816597
 31
0.0
  0
LINE
  5
28F
330
1F
100
AcDbEntity
  8
0
  6
Continuous
 62
     7
370
     0
100
AcDbLine
 10
192.7606601718
 20
103.3096881069
 30
0.0
 11
192.7606601718
 21
112.5780632821
 31
0.0
  0
LINE
  5
290
330
1F
100
AcDbEntity
  8
0
  6
Continuous
 62
     7
370
     0
100
AcDbLine
 10
221.0449314192
 20
119.6378503433
 30
0.0
 11
221.0449314192
 21
119.6385138436
 31
0.0
  0
LWPOLYLINE
  5
291
330
1F
100
AcDbEntity
  8
0
  6
Continuous
 62
     7
370
     0
100
AcDbPolyline
 90
       17
 70
   128
 43
0.0
 10
181.4469516728
 20
129.5596837581
 10
180.4736816263
 20
129.9351044951
 10
179.3256313292
 20
130.0669347267
 10
178.1775810321
 20
129.9351044951
 10
177.2043109857
 20
129.5596837581
 10
176.5539927317
 20
128.9978269198
 10
176.3256313292
 20
128.3350715904
 10
176.5539927317
 20
127.672316261
 10
177.2043109857
 20
127.1104594227
 10
178.1775810321
 20
126.7350386857
 10
179.3256313292
 20
126.6032084541
 10
180.4736816263
 20
126.7350386857
 10
181.4469516728
 20
127.1104594227
 10
182.0972699268
 20
127.672316261
 10
182.3256313292
 20
128.3350715904
 10
182.0972699268
 20
128.9978269198
 10
181.4469516728
 20
129.5596837581
  0
LWPOLYLINE
  5
292
330
1F
100
AcDbEntity
  8
0
  6
Continuous
 62
     7
370
     0
100
AcDbPolyline
 90
       17
 70
   128
 43
0.0
 10
206.1956890143
 20
143.846825715
 10
205.2224189679
 20
144.222246452
 10
204.0743686708
 20
144.3540766836
 10
202.9263183737
 20
144.222246452
 10
201.9530483272
 20
143.846825715
 10
201.3027300732
 20
143.2849688767
 10
201.0743686708
 20
142.6222135473
 10
201.3027300732
 20
141.9594582179
 10
201.9530483272
 20
141.3976013796
 10
202.9263183737
 20
141.0221806426
 10
204.0743686708
 20
140.890350411
 10
205.2224189679
 20
141.0221806426
 10
206.1956890143
 20
141.3976013796
 10
206.8460072683
 20
141.9594582179
 10
207.0743686708
 20
142.6222135473
 10
206.8460072683
 20
143.2849688767
 10
206.1956890143
 20
143.846825715
  0
LWPOLYLINE
  5
293
330
1F
100
AcDbEntity
  8
0
  6
Continuous
 62
     7
370
     0
100
AcDbPolyline
 90
       17
 70
   128
 43
0.0
 10
156.6982143313
 20
140.8267526616
 10
156.0478960773
 20
141.3886095
 10
155.8195346748
 20
142.0513648293
 10
156.0478960773
 20
142.7141201587
 10
156.6982143313
 20
143.2759769971
 10
157.6714843777
 20
143.651397734
 10
158.8195346748
 20
143.7832279656
 10
159.9675849719
 20
143.651397734
 10
160.9408550184
 20
143.2759769971
 10
161.5911732724
 20
142.7141201587
 10
161.8195346748
 20
142.0513648293
 10
161.5911732724
 20
141.3886095
 10
160.9408550184
 20
140.8267526616
 10
159.9675849719
 20
140.4513319246
 10
158.8195346748
 20
140.3195016931
 10
157.6714843777
 20
140.4513319246
 10
156.6982143313
 20
140.8267526616
  0
LWPOLYLINE
  5
294
330
1F
100
AcDbEntity
  8
0
  6
Continuous
 62
     7
370
     0
100
AcDbPolyline
 90
       17
 70
   128
 43
0.0
 10
194.1748737342
 20
119.1919376983
 10
193.5245554802
 20
119.7537945367
 10
193.2961940777
 20
120.416549866
 10
193.5245554802
 20
121.0793051954
 10
194.1748737342
 20
121.6411620338
 10
195.1481437806
 20
122.0165827707
 10
196.2961940777
 20
122.1484130023
 10
197.4442443748
 20
122.0165827707
 10
198.4175144213
 20
121.6411620338
 10
199.0678326752
 20
121.0793051954
 10
199.2961940777
 20
120.416549866
 10
199.0678326752
 20
119.7537945367
 10
198.4175144213
 20
119.1919376983
 10
197.4442443748
 20
118.8165169613
 10
196.2961940777
 20
118.6846867298
 10
195.1481437806
 20
118.8165169613
 10
194.1748737342
 20
119.1919376983
  0
LWPOLYLINE
  5
295
330
1F
100
AcDbEntity
  8
0
  6
Continuous
 62
     7
370
     0
100
AcDbPolyline
 90
       17
 70
   128
 43
0.0
 10
222.4591449816
 20
135.5200999347
 10
221.8088267276
 20
136.0819567731
 10
221.5804653252
 20
136.7447121025
 10
221.8088267276
 20
137.4074674318
 10
222.4591449816
 20
137.9693242702
 10
223.4324150281
 20
138.3447450072
 10
224.5804653252
 20
138.4765752387
 10
225.7285156223
 20
138.3447450072
 10
226.7017856687
 20
137.9693242702
 10
227.3521039227
 20
137.4074674318
 10
227.5804653252
 20
136.7447121025
 10
227.3521039227
 20
136.0819567731
 10
226.7017856687
 20
135.5200999347
 10
225.7285156223
 20
135.1446791978
 10
224.5804653252
 20
135.0128489662
 10
223.4324150281
 20
135.1446791978
 10
222.4591449816
 20
135.5200999347
  0
LWPOLYLINE
  5
296
330
1F
100
AcDbEntity
  8
0
  6
Continuous
 62
     7
370
     0
100
AcDbPolyline
 90
       17
 70
   128
 43
0.0
 10
184.9824855787
 20
157.154914898
 10
184.3321673248
 20
157.7167717364
 10
184.1038059223
 20
158.3795270658
 10
184.3321673248
 20
159.0422823951
 10
184.9824855787
 20
159.6041392335
 10
185.9557556252
 20
159.9795599705
 10
187.1038059223
 20
160.111390202
 10
188.2518562194
 20
159.9795599705
 10
189.2251262658
 20
159.6041392335
 10
189.8754445198
 20
159.0422823951
 10
190.1038059223
 20
158.3795270658
 10
189.8754445198
 20
157.7167717364
 10
189.2251262658
 20
157.154914898
 10
188.2518562194
 20
156.7794941611
 10
187.1038059223
 20
156.6476639295
 10
185.9557556252
 20
156.7794941611
 10
184.9824855787
 20
157.154914898
  0
LWPOLYLINE
  5
297
330
1F
100
AcDbEntity
  8
0
  6
Continuous
 62
     7
370
     0
100
AcDbPolyline
 90
       17
 70
   128
 43
0.0
 10
176.9568236123
 20
110.7614092632
 10
176.5509265372
 20
111.0889618595
 10
176.2068236123
 20
111.5531139473
 10
175.9769013886
 20
112.0832025787
 10
175.8961634405
 20
112.5985265649
 10
175.9769013886
 20
113.0206325004
 10
176.2068236123
 20
113.2852585829
 10
176.5509265372
 20
113.3521178902
 10
176.9568236123
 20
113.2110316988
 10
177.3627206874
 20
112.8834791025
 10
177.7068236123
 20
112.4193270148
 10
177.9367458359
 20
111.8892383833
 10
178.017483784
 20
111.3739143971
 10
177.9367458359
 20
110.9518084617
 10
177.7068236123
 20
110.6871823792
 10
177.3627206874
 20
110.6203230718
 10
176.9568236123
 20
110.7614092632
  0
LWPOLYLINE
  5
298
330
1F
100
AcDbEntity
  8
0
  6
Continuous
 62
     7
370
     0
100
AcDbPolyline
 90
       17
 70
   128
 43
0.0
 10
229.4241467763
 20
141.0501502118
 10
229.8300438514
 20
140.9090640205
 10
230.1741467763
 20
140.9759233278
 10
230.404069
 20
141.2405494103
 10
230.4848069481
 20
141.6626553458
 10
230.404069
 20
142.177979332
 10
230.1741467763
 20
142.7080679634
 10
229.8300438514
 20
143.1722200511
 10
229.4241467763
 20
143.4997726475
 10
229.0182497012
 20
143.6408588388
 10
228.6741467763
 20
143.5739995315
 10
228.4442245526
 20
143.309373449
 10
228.3634866045
 20
142.8872675135
 10
228.4442245526
 20
142.3719435273
 10
228.6741467763
 20
141.8418548959
 10
229.0182497012
 20
141.3777028081
 10
229.4241467763
 20
141.0501502118
  0
LWPOLYLINE
  5
299
330
1F
100
AcDbEntity
  8
0
  6
Continuous
 62
     7
370
     0
100
AcDbPolyline
 90
       17
 70
   128
 43
0.0
 10
153.9758532237
 20
124.0280410803
 10
153.5699561486
 20
124.3555936766
 10
153.2258532237
 20
124.8197457644
 10
152.995931
 20
125.3498343958
 10
152.9151930519
 20
125.865158382
 10
152.995931
 20
126.2872643175
 10
153.2258532237
 20
126.5518904
 10
153.5699561486
 20
126.6187497073
 10
153.9758532237
 20
126.477663516
 10
154.3817502988
 20
126.1501109196
 10
154.7258532237
 20
125.6859588319
 10
154.9557754474
 20
125.1558702005
 10
155.0365133955
 20
124.6405462143
 10
154.9557754474
 20
124.2184402788
 10
154.7258532237
 20
123.9538141963
 10
154.3817502988
 20
123.886954889
 10
153.9758532237
 20
124.0280410803
  0
LWPOLYLINE
  5
29A
330
1F
100
AcDbEntity
  8
0
  6
Continuous
 62
     7
370
     0
100
AcDbPolyline
 90
       17
 70
   128
 43
0.0
 10
206.4431763877
 20
154.3167820289
 10
206.8490734628
 20
154.1756958376
 10
207.1931763877
 20
154.2425551449
 10
207.4230986114
 20
154.5071812274
 10
207.5038365595
 20
154.9292871629
 10
207.4230986114
 20
155.4446111491
 10
207.1931763877
 20
155.9746997805
 10
206.8490734628
 20
156.4388518683
 10
206.4431763877
 20
156.7664044646
 10
206.0372793126
 20
156.9074906559
 10
205.6931763877
 20
156.8406313486
 10
205.4632541641
 20
156.5760052661
 10
205.382516216
 20
156.1538993306
 10
205.4632541641
 20
155.6385753444
 10
205.6931763877
 20
155.108486713
 10
206.0372793126
 20
154.6443346252
 10
206.4431763877
 20
154.3167820289
  0
LWPOLYLINE
  5
29B
330
1F
100
AcDbEntity
  8
0
  6
Continuous
 62
     7
370
     0
100
AcDbPolyline
 90
       17
 70
   128
 43
0.0
 10
165.466338418
 20
120.6200613787
 10
165.0604413429
 20
120.947613975
 10
164.716338418
 20
121.4117660628
 10
164.4864161943
 20
121.9418546942
 10
164.4056782462
 20
122.4571786804
 10
164.4864161943
 20
122.8792846159
 10
164.716338418
 20
123.1439106984
 10
165.0604413429
 20
123.2107700057
 10
165.466338418
 20
123.0696838144
 10
165.8722354931
 20
122.742131218
 10
166.216338418
 20
122.2779791303
 10
166.4462606416
 20
121.7478904988
 10
166.5269985898
 20
121.2325665127
 10
166.4462606416
 20
120.8104605772
 10
166.216338418
 20
120.5458344947
 10
165.8722354931
 20
120.4789751873
 10
165.466338418
 20
120.6200613787
  0
LWPOLYLINE
  5
29C
330
1F
100
AcDbEntity
  8
0
  6
Continuous
 62
     7
370
     0
100
AcDbPolyline
 90
       17
 70
   128
 43
0.0
 10
217.933661582
 20
150.9088023273
 10
218.3395586571
 20
150.767716136
 10
218.683661582
 20
150.8345754433
 10
218.9135838057
 20
151.0992015258
 10
218.9943217538
 20
151.5213074613
 10
218.9135838057
 20
152.0366314475
 10
218.683661582
 20
152.5667200789
 10
218.3395586571
 20
153.0308721667
 10
217.933661582
 20
153.358424763
 10
217.5277645069
 20
153.4995109543
 10
217.183661582
 20
153.432651647
 10
216.9537393584
 20
153.1680255645
 10
216.8730014102
 20
152.745919629
 10
216.9537393584
 20
152.2305956428
 10
217.183661582
 20
151.7005070114
 10
217.5277645069
 20
151.2363549236
 10
217.933661582
 20
150.9088023273
  0
LWPOLYLINE
  5
29D
330
1F
100
AcDbEntity
  8
0
  6
Continuous
 62
     7
370
     0
100
AcDbPolyline
 90
       17
 70
   128
 43
0.0
 10
158.8195346748
 20
131.2335658825
 10
158.7387967267
 20
130.7182418963
 10
158.508874503
 20
130.1881532649
 10
158.1647715782
 20
129.7240011771
 10
157.758874503
 20
129.3964485808
 10
157.3529774279
 20
129.2553623894
 10
157.008874503
 20
129.3222216968
 10
156.7789522794
 20
129.5868477793
 10
156.6982143313
 20
130.0089537148
 10
156.7789522794
 20
130.5242777009
 10
157.008874503
 20
131.0543663324
 10
157.3529774279
 20
131.5185184201
 10
157.758874503
 20
131.8460710164
 10
158.1647715782
 20
131.9871572078
 10
158.508874503
 20
131.9202979005
 10
158.7387967267
 20
131.655671818
 10
158.8195346748
 20
131.2335658825
  0
LWPOLYLINE
  5
29E
330
1F
100
AcDbEntity
  8
0
  6
Continuous
 62
     7
370
     0
100
AcDbPolyline
 90
       17
 70
   128
 43
0.0
 10
201.6702056147
 20
155.9707316707
 10
201.7509435629
 20
156.4860556569
 10
201.9808657865
 20
157.0161442883
 10
202.3249687114
 20
157.4802963761
 10
202.7308657865
 20
157.8078489724
 10
203.1367628616
 20
157.9489351638
 10
203.4808657865
 20
157.8820758564
 10
203.7107880102
 20
157.6174497739
 10
203.7915259583
 20
157.1953438384
 10
203.7107880102
 20
156.6800198523
 10
203.4808657865
 20
156.1499312208
 10
203.1367628616
 20
155.6857791331
 10
202.7308657865
 20
155.3582265368
 10
202.3249687114
 20
155.2171403454
 10
201.9808657865
 20
155.2839996527
 10
201.7509435629
 20
155.5486257352
 10
201.6702056147
 20
155.9707316707
  0
LWPOLYLINE
  5
29F
330
1F
100
AcDbEntity
  8
0
  6
HIDDEN
 62
     7
370
     0
100
AcDbPolyline
 90
       17
 70
   128
 43
0.0
 10
179.6084740417
 20
116.7831423032
 10
179.6892119898
 20
116.3610363677
 10
179.9191342135
 20
116.0964102852
 10
180.2632371384
 20
116.0295509779
 10
180.6691342135
 20
116.1706371693
 10
181.0750312886
 20
116.4981897656
 10
181.4191342135
 20
116.9623418534
 10
181.6490564371
 20
117.4924304848
 10
181.7297943853
 20
118.007754471
 10
181.6490564371
 20
118.4298604064
 10
181.4191342135
 20
118.694486489
 10
181.0750312886
 20
118.7613457963
 10
180.6691342135
 20
118.6202596049
 10
180.2632371384
 20
118.2927070086
 10
179.9191342135
 20
117.8285549208
 10
179.6892119898
 20
117.2984662894
 10
179.6084740417
 20
116.7831423032
  0
LWPOLYLINE
  5
2A0
330
1F
100
AcDbEntity
  8
0
  6
HIDDEN
 62
     7
370
     0
100
AcDbPolyline
 90
       17
 70
   128
 43
0.0
 10
226.7017856687
 20
143.9695324269
 10
226.6210477206
 20
144.3916383624
 10
226.391125497
 20
144.6562644449
 10
226.0470225721
 20
144.7231237522
 10
225.641125497
 20
144.5820375609
 10
225.2352284218
 20
144.2544849646
 10
224.891125497
 20
143.7903328768
 10
224.6612032733
 20
143.2602442454
 10
224.5804653252
 20
142.7449202592
 10
224.6612032733
 20
142.3228143237
 10
224.891125497
 20
142.0581882412
 10
225.2352284218
 20
141.9913289339
 10
225.641125497
 20
142.1324151252
 10
226.0470225721
 20
142.4599677215
 10
226.391125497
 20
142.9241198093
 10
226.6210477206
 20
143.4542084407
 10
226.7017856687
 20
143.9695324269
  0
LWPOLYLINE
  5
2A1
330
1F
100
AcDbEntity
  8
0
  6
HIDDEN
 62
     7
370
     0
100
AcDbPolyline
 90
       17
 70
   128
 43
0.0
 10
229.4241467763
 20
143.5001809179
 10
229.0181144022
 20
143.6413141379
 10
228.6738967763
 20
143.5744325442
 10
228.4438979119
 20
143.309718253
 10
228.3631330511
 20
142.8874716155
 10
228.4438979119
 20
142.3719758547
 10
228.6738967763
 20
141.8417105271
 10
229.0181144022
 20
141.3774037219
 10
229.4241467763
 20
141.0497419414
 10
229.8301791504
 20
140.9086087213
 10
230.1743967763
 20
140.9754903151
 10
230.4043956407
 20
141.2402046063
 10
230.4851605015
 20
141.6624512437
 10
230.4043956407
 20
142.1779470046
 10
230.1743967763
 20
142.7082123322
 10
229.8301791504
 20
143.1725191374
 10
229.4241467763
 20
143.5001809179
  0
LWPOLYLINE
  5
2A2
330
1F
100
AcDbEntity
  8
0
  6
HIDDEN
 62
     7
370
     0
100
AcDbPolyline
 90
       17
 70
   128
 43
0.0
 10
217.933661582
 20
153.358424763
 10
217.5277645069
 20
153.4995109543
 10
217.183661582
 20
153.432651647
 10
216.9537393584
 20
153.1680255645
 10
216.8730014102
 20
152.745919629
 10
216.9537393584
 20
152.2305956428
 10
217.183661582
 20
151.7005070114
 10
217.5277645069
 20
151.2363549236
 10
217.933661582
 20
150.9088023273
 10
218.3395586571
 20
150.767716136
 10
218.683661582
 20
150.8345754433
 10
218.9135838057
 20
151.0992015258
 10
218.9943217538
 20
151.5213074613
 10
218.9135838057
 20
152.0366314475
 10
218.683661582
 20
152.5667200789
 10
218.3395586571
 20
153.0308721667
 10
217.933661582
 20
153.358424763
  0
LWPOLYLINE
  5
2A3
330
1F
100
AcDbEntity
  8
0
  6
HIDDEN
 62
     7
370
     0
100
AcDbPolyline
 90
       17
 70
   128
 43
0.0
 10
206.4431763877
 20
156.7664044646
 10
206.0372793126
 20
156.9074906559
 10
205.6931763877
 20
156.8406313486
 10
205.4632541641
 20
156.5760052661
 10
205.382516216
 20
156.1538993306
 10
205.4632541641
 20
155.6385753444
 10
205.6931763877
 20
155.108486713
 10
206.0372793126
 20
154.6443346252
 10
206.4431763877
 20
154.3167820289
 10
206.8490734628
 20
154.1756958376
 10
207.1931763877
 20
154.2425551449
 10
207.4230986114
 20
154.5071812274
 10
207.5038365595
 20
154.9292871629
 10
207.4230986114
 20
155.4446111491
 10
207.1931763877
 20
155.9746997805
 10
206.8490734628
 20
156.4388518683
 10
206.4431763877
 20
156.7664044646
  0
LWPOLYLINE
  5
2A4
330
1F
100
AcDbEntity
  8
0
  6
HIDDEN
 62
     7
370
     0
100
AcDbPolyline
 90
       17
 70
   128
 43
0.0
 10
198.4175144213
 20
157.8484703279
 10
198.4982523694
 20
157.4263643924
 10
198.7281745931
 20
157.1617383099
 10
199.0722775179
 20
157.0948790026
 10
199.4781745931
 20
157.2359651939
 10
199.8840716682
 20
157.5635177903
 10
200.2281745931
 20
158.027669878
 10
200.4580968167
 20
158.5577585095
 10
200.5388347648
 20
159.0730824956
 10
200.4580968167
 20
159.4951884311
 10
200.2281745931
 20
159.7598145136
 10
199.8840716682
 20
159.8266738209
 10
199.4781745931
 20
159.6855876296
 10
199.0722775179
 20
159.3580350333
 10
198.7281745931
 20
158.8938829455
 10
198.4982523694
 20
158.3637943141
 10
198.4175144213
 20
157.8484703279
  0
LWPOLYLINE
  5
2A5
330
1F
100
AcDbEntity
  8
0
  6
Continuous
 62
     7
370
     0
100
AcDbPolyline
 90
       17
 70
   128
 43
0.0
 10
229.9544768622
 20
142.0917937697
 10
229.8737389141
 20
141.5764697835
 10
229.6438166904
 20
141.0463811521
 10
229.2997137655
 20
140.5822290643
 10
228.8938166904
 20
140.254676468
 10
228.4879196153
 20
140.1135902767
 10
228.1438166904
 20
140.180449584
 10
227.9138944668
 20
140.4450756665
 10
227.8331565186
 20
140.867181602
 10
227.9138944668
 20
141.3825055882
 10
228.1438166904
 20
141.9125942196
 10
228.4879196153
 20
142.3767463074
 10
228.8938166904
 20
142.7042989037
 10
229.2997137655
 20
142.845385095
 10
229.6438166904
 20
142.7785257877
 10
229.8737389141
 20
142.5138997052
 10
229.9544768622
 20
142.0917937697
  0
ENDSEC
  0
SECTION
  2
OBJECTS
  0
DICTIONARY
  5
C
330
0
100
AcDbDictionary
281
     1
  3
ACAD_GROUP
350
D
  3
ACAD_LAYOUT
350
1A
  3
ACAD_MLINESTYLE
350
17
  3
ACAD_PLOTSETTINGS
350
19
  3
ACAD_PLOTSTYLENAME
350
E
  0
DICTIONARY
  5
D
102
{ACAD_REACTORS
330
C
102
}
330
C
100
AcDbDictionary
281
     1
  0
DICTIONARY
  5
1A
102
{ACAD_REACTORS
330
C
102
}
330
C
100
AcDbDictionary
281
     1
  3
Layout1
350
1E
  3
Layout2
350
26
  3
Model
350
22
  0
DICTIONARY
  5
17
102
{ACAD_REACTORS
330
C
102
}
330
C
100
AcDbDictionary
281
     1
  3
Standard
350
18
  0
DICTIONARY
  5
19
102
{ACAD_REACTORS
330
C
102
}
330
C
100
AcDbDictionary
281
     1
  0
ACDBDICTIONARYWDFLT
  5
E
102
{ACAD_REACTORS
330
C
102
}
330
C
100
AcDbDictionary
281
     1
  3
Normal
350
F
100
AcDbDictionaryWithDefault
340
F
  0
LAYOUT
  5
1E
102
{ACAD_REACTORS
330
1A
102
}
330
1A
100
AcDbPlotSettings
  1

  2
none_device
  4

  6

 40
0.0
 41
0.0
 42
0.0
 43
0.0
 44
0.0
 45
0.0
 46
0.0
 47
0.0
 48
0.0
 49
0.0
140
0.0
141
0.0
142
1.0
143
1.0
 70
   688
 72
     0
 73
     0
 74
     5
  7

 75
    16
147
1.0
148
0.0
149
0.0
100
AcDbLayout
  1
Layout1
 70
     1
 71
     1
 10
0.0
 20
0.0
 11
420.0
 21
297.0
 12
0.0
 22
0.0
 32
0.0
 14
1.0000000000E+20
 24
1.0000000000E+20
 34
1.0000000000E+20
 15
-1.0000000000E+20
 25
-1.0000000000E+20
 35
-1.0000000000E+20
146
0.0
 13
0.0
 23
0.0
 33
0.0
 16
1.0
 26
0.0
 36
0.0
 17
0.0
 27
1.0
 37
0.0
 76
     0
330
1B
  0
LAYOUT
  5
26
102
{ACAD_REACTORS
330
1A
102
}
330
1A
100
AcDbPlotSettings
  1

  2
none_device
  4

  6

 40
0.0
 41
0.0
 42
0.0
 43
0.0
 44
0.0
 45
0.0
 46
0.0
 47
0.0
 48
0.0
 49
0.0
140
0.0
141
0.0
142
1.0
143
1.0
 70
   688
 72
     0
 73
     0
 74
     5
  7

 75
    16
147
1.0
148
0.0
149
0.0
100
AcDbLayout
  1
Layout2
 70
     1
 71
     2
 10
0.0
 20
0.0
 11
0.0
 21
0.0
 12
0.0
 22
0.0
 32
0.0
 14
0.0
 24
0.0
 34
0.0
 15
0.0
 25
0.0
 35
0.0
146
0.0
 13
0.0
 23
0.0
 33
0.0
 16
1.0
 26
0.0
 36
0.0
 17
0.0
 27
1.0
 37
0.0
 76
     0
330
23
  0
LAYOUT
  5
22
102
{ACAD_REACTORS
330
1A
102
}
330
1A
100
AcDbPlotSettings
  1

  2
none_device
  4

  6

 40
0.0
 41
0.0
 42
0.0
 43
0.0
 44
0.0
 45
0.0
 46
0.0
 47
0.0
 48
0.0
 49
0.0
140
0.0
141
0.0
142
1.0
143
1.0
 70
  1712
 72
     0
 73
     0
 74
     0
  7

 75
     0
147
1.0
148
0.0
149
0.0
100
AcDbLayout
  1
Model
 70
     1
 71
     0
 10
0.0
 20
0.0
 11
0.0
 21
0.0
 12
0.0
 22
0.0
 32
0.0
 14
0.0
 24
0.0
 34
0.0
 15
297.0
 25
210.0
 35
0.0
146
0.0
 13
0.0
 23
0.0
 33
0.0
 16
1.0
 26
0.0
 36
0.0
 17
0.0
 27
1.0
 37
0.0
 76
     0
330
1F
  0
MLINESTYLE
  5
18
102
{ACAD_REACTORS
330
17
102
}
330
17
100
AcDbMlineStyle
  2
Standard
 70
     0
  3

 62
   256
 51
90.0
 52
90.0
 71
     2
 49
0.5
 62
   256
  6
BYLAYER
 49
-0.5
 62
   256
  6
BYLAYER
  0
ACDBPLACEHOLDER
  5
F
102
{ACAD_REACTORS
330
E
102
}
330
E
  0
ENDSEC
  0
EOF
